  0
SECTION
  2
HEADER
  9
$ACADVER
  1
AC1009
  9
$INSBASE
 10
0
 20
0
  9
$EXTMIN
 10
-588.7885432423386
 20
-912.1563213862972
  9
$EXTMAX
 10
156.6133646504247
 20
-564.0839336354582
  9
$LIMMIN
 10
-588.7885432423386
 20
-912.1563213862972
  9
$LIMMAX
 10
156.6133646504247
 20
-564.0839336354582
  9
$VIEWCTR
 10
10
 20
10
  9
$VIEWSIZE
 40
10
  9
$SNAPMODE
 70
0
  9
$SNAPUNIT
 10
1
 20
1
  9
$SNAPBASE
 10
0
 20
0
  9
$SNAPANG
 50
0
  9
$SNAPSTYLE
 70
0
  9
$SNAPISOPAIR
 70
0
  9
$GRIDMODE
 70
0
  9
$GRIDUNIT
 10
0
 20
0
  9
$ORTHOMODE
 70
0
  9
$REGENMODE
 70
1
  9
$FILLMODE
 70
1
  9
$QTEXTMODE
 70
0
  9
$DRAGMODE
 70
2
  9
$LTSCALE
 40
1
  9
$OSMODE
 70
0
  9
$ATTMODE
 70
1
  9
$TEXTSIZE
 40
3.5
  9
$TRACEWID
 40
0.5
  9
$TEXTSTYLE
  7
STANDARD
  9
$CLAYER
  8
0
  9
$CELTYPE
  6
BYLAYER
  9
$CECOLOR
 62
256
  9
$DIMSCALE
 40
1
  9
$DIMASZ
 40
0.18
  9
$DIMEXO
 40
0.0625
  9
$DIMDLI
 40
0.38
  9
$DIMRND
 40
0
  9
$DIMDLE
 40
0
  9
$DIMEXE
 40
0.18
  9
$DIMTP
 40
0
  9
$DIMTM
 40
0
  9
$DIMTXT
 40
0.18
  9
$DIMCEN
 40
0.09
  9
$DIMTSZ
 40
0
  9
$DIMTOL
 70
0
  9
$DIMLIM
 70
0
  9
$DIMTIH
 70
1
  9
$DIMTOH
 70
1
  9
$DIMSE1
 70
0
  9
$DIMSE2
 70
0
  9
$DIMTAD
 70
0
  9
$DIMZIN
 70
0
  9
$DIMBLK
  1

  9
$DIMASO
 70
1
  9
$DIMSHO
 70
1
  9
$DIMPOST
  1

  9
$DIMAPOST
  1

  9
$DIMALT
 70
0
  9
$DIMALTD
 70
2
  9
$DIMALTF
 40
25.4
  9
$DIMLFAC
 40
1
  9
$DIMTOFL
 70
0
  9
$DIMTVP
 40
0
  9
$DIMTIX
 70
0
  9
$DIMSOXD
 70
0
  9
$DIMSAH
 70
0
  9
$DIMBLK1
  1

  9
$DIMBLK2
  1

  9
$DIMSTYLE
  2
*UNNAMED
  9
$DIMCLRD
 70
0
  9
$DIMCLRE
 70
0
  9
$DIMCLRT
 70
0
  9
$DIMTFAC
 40
1
  9
$DIMGAP
 40
0.09
  9
$LUNITS
 70
2
  9
$LUPREC
 70
4
  9
$AXISMODE
 70
0
  9
$AXISUNIT
 10
0
 20
0
  9
$SKETCHINC
 40
0.1
  9
$FILLETRAD
 40
2
  9
$AUNITS
 70
0
  9
$AUPREC
 70
0
  9
$MENU
  1
ACAD
  9
$ELEVATION
 40
0
  9
$THICKNESS
 40
0
  9
$VIEWDIR
 10
0
 20
0
 30
1
  9
$LIMCHECK
 70
0
  9
$BLIPMODE
 70
1
  9
$CHAMFERA
 40
0
  9
$CHAMFERB
 40
0
  9
$FASTZOOM
 70
1
  9
$SKPOLY
 70
0
  9
$ANGBASE
 50
0
  9
$ANGDIR
 70
0
  9
$PDMODE
 70
0
  9
$PDSIZE
 40
0
  9
$PLINEWID
 40
0
  9
$COORDS
 70
2
  0
ENDSEC
  0
SECTION
  2
TABLES
  0
TABLE
  2
DIMSTYLE
 70
0
  0
ENDTAB
  0
TABLE
  2
LTYPE
 70
9
  0
LTYPE
  2
CONTINUOUS
 70
64
  3
Solid line
 72
65
 73
0
 40
0
  0
LTYPE
  2
BORDER
 70
64
  3
__ __ . __ __ .
 72
65
 73
6
 40
34.32771944242989
 49
9.807919840694254
 49
-4.903959920347127
 49
9.807919840694254
 49
-4.903959920347127
 49
0
 49
-4.903959920347127
  0
LTYPE
  2
CENTER
 70
64
  3
____ _ ____ _
 72
65
 73
4
 40
39.23167936277702
 49
24.51979960173564
 49
-4.903959920347127
 49
4.903959920347127
 49
-4.903959920347127
  0
LTYPE
  2
DASHDOT
 70
64
  3
__ . __ . __ .
 72
65
 73
4
 40
19.61583968138851
 49
9.807919840694254
 49
-4.903959920347127
 49
0
 49
-4.903959920347127
  0
LTYPE
  2
DASHED
 70
64
  3
__ __ __ __ __
 72
65
 73
2
 40
14.71187976104138
 49
9.807919840694254
 49
-4.903959920347127
  0
LTYPE
  2
DIVIDE
 70
64
  3
__ . . __ . . 
 72
65
 73
6
 40
24.51979960173564
 49
9.807919840694254
 49
-4.903959920347127
 49
0
 49
-4.903959920347127
 49
0
 49
-4.903959920347127
  0
LTYPE
  2
DOT
 70
64
  3
..............
 72
65
 73
4
 40
9.807919840694254
 49
0
 49
-4.903959920347127
 49
0
 49
-4.903959920347127
  0
LTYPE
  2
HIDDEN
 70
64
  3
_ _ _ _ _ _ _
 72
65
 73
2
 40
7.35593988052069
 49
4.903959920347127
 49
-2.451979960173564
  0
LTYPE
  2
PHANTOM
 70
64
  3
_____ _ _ _____ _ _ 
 72
65
 73
6
 40
49.03959920347127
 49
24.51979960173564
 49
-4.903959920347127
 49
4.903959920347127
 49
-4.903959920347127
 49
4.903959920347127
 49
-4.903959920347127
  0
ENDTAB
  0
TABLE
  2
LAYER
 70
3
  0
LAYER
  2
1
 70
0
 62
7
  6
CONTINUOUS
  0
LAYER
  2
0
 70
0
 62
7
  6
CONTINUOUS
  0
ENDTAB
  0
TABLE
  2
STYLE
 70
4
  0
STYLE
  2
STANDARD
 70
0
 40
0
 41
1
 50
0
 71
0
 42
3.5
  3
txt
  4

  0
STYLE
  2
SIMPLEX
 70
0
 40
0
 41
1
 50
0
 71
0
 42
3.5
  3
simplex
  4

  0
STYLE
  2
COMPLEX
 70
0
 40
0
 41
1
 50
0
 71
0
 42
3.5
  3
complex
  4

  0
STYLE
  2
ITALIC
 70
0
 40
0
 41
1
 50
0
 71
0
 42
3.5
  3
italic
  4

  0
ENDTAB
  0
TABLE
  2
VIEW
 70
0
  0
ENDTAB
  0
ENDSEC
  0
SECTION
  2
BLOCKS
  0
ENDSEC
  0
SECTION
  2
ENTITIES
  0
LINE
  8
1
 62
3
 10
-306.0289915751139
 20
-864.5091351286829
 30
0
 11
-297.0289915751139
 21
-864.5091351286829
 31
0
  0
LINE
  8
1
 62
3
 10
-306.0289915751139
 20
-694.8035076439116
 30
0
 11
-297.0289915751139
 21
-694.8035076439116
 31
0
  0
LINE
  8
1
 62
3
  6
DASHDOT
 10
-170.716127738574
 20
-899.6563213862972
 30
0
 11
-157.716127738574
 21
-899.6563213862972
 31
0
  0
LINE
  8
1
 62
3
 10
-481.2885432423383
 20
-774.6563213862972
 30
0
 11
-481.2885432423383
 21
-784.6563213862972
 31
0
  0
LINE
  8
1
 62
3
 10
-486.2885432423383
 20
-779.6563213862972
 30
0
 11
-476.2885432423383
 21
-779.6563213862972
 31
0
  0
LINE
  8
1
 62
3
 10
49.11336465042461
 20
-774.6563213862972
 30
0
 11
49.11336465042461
 21
-784.6563213862972
 31
0
  0
LINE
  8
1
 62
3
 10
44.11336465042461
 20
-779.6563213862972
 30
0
 11
54.11336465042461
 21
-779.6563213862972
 31
0
  0
LINE
  8
1
 62
7
 10
-124.7161277385739
 20
-784.6563213862972
 30
0
 11
-134.116127738574
 21
-784.6563213862972
 31
0
  0
LINE
  8
1
 62
7
 10
-124.7161277385739
 20
-774.6563213862972
 30
0
 11
-134.116127738574
 21
-774.6563213862972
 31
0
  0
LINE
  8
1
 62
7
 10
107.1353206566333
 20
-689.1593456290177
 30
0
 11
106.5681775970123
 21
-690.1416662234412
 31
0
  0
LINE
  8
1
 62
7
 10
98.47506661878892
 20
-684.1593456290177
 30
0
 11
97.97451981195012
 21
-685.026318130029
 31
0
  0
LINE
  8
1
 62
7
 10
95.38368181385822
 20
-709.5137811769041
 30
0
 11
93.4434916693468
 21
-712.874289083542
 31
0
  0
LINE
  8
1
 62
7
 10
87.43198438155982
 20
-703.2865251360601
 30
0
 11
84.78323763150252
 21
-707.874289083542
 31
0
  0
LINE
  8
1
 62
7
 10
107.1353206566332
 20
-870.1532971435767
 30
0
 11
106.6347738497943
 21
-869.2863246425654
 31
0
  0
LINE
  8
1
 62
7
 10
98.47506661878872
 20
-875.1532971435767
 30
0
 11
97.90792355916791
 21
-874.1709765491532
 31
0
  0
LINE
  8
1
 62
7
 10
96.09223841940411
 20
-851.0261176365347
 30
0
 11
93.4434916693468
 21
-846.4383536890522
 31
0
  0
LINE
  8
1
 62
7
 10
86.72342777601382
 20
-854.7988615956905
 30
0
 11
84.78323763150252
 21
-851.4383536890522
 31
0
  0
LINE
  8
1
 62
7
 10
-34.7670156385982
 20
-774.6563213862972
 30
0
 11
-30.88663534957539
 21
-774.6563213862972
 31
0
  0
LINE
  8
1
 62
7
 10
-36.18412884968998
 20
-784.6563213862972
 30
0
 11
-30.88663534957539
 21
-784.6563213862972
 31
0
  0
LINE
  8
1
 62
7
 10
-58.27029332414821
 20
-784.6563213862972
 30
0
 11
-57.26919971047056
 21
-784.6563213862972
 31
0
  0
LINE
  8
1
 62
7
 10
-58.27029332414821
 20
-774.6563213862972
 30
0
 11
-57.13600720490638
 21
-774.6563213862972
 31
0
  0
LINE
  8
1
 62
7
 10
18.15031627465532
 20
-823.2858943303424
 30
0
 11
4.783237631502402
 21
-846.4383536890522
 31
0
  0
LINE
  8
1
 62
7
 10
26.81057031249972
 20
-828.2858943303424
 30
0
 11
13.44349166934683
 21
-851.4383536890522
 31
0
  0
LINE
  8
1
 62
7
 10
26.81057031249972
 20
-731.0267484422518
 30
0
 11
13.44349166934691
 21
-707.8742890835423
 31
0
  0
LINE
  8
1
 62
7
 10
18.15031627465541
 20
-736.0267484422518
 30
0
 11
4.783237631502516
 21
-712.8742890835423
 31
0
  0
LINE
  8
1
 62
7
 10
102.3792073641187
 20
-784.6563213862972
 30
0
 11
129.1133646504246
 21
-784.6563213862972
 31
0
  0
LINE
  8
1
 62
7
 10
102.3792073641187
 20
-774.6563213862972
 30
0
 11
129.1133646504246
 21
-774.6563213862972
 31
0
  0
LINE
  8
1
 62
7
 10
46.41336465042463
 20
-616.6563213862974
 30
0
 11
46.41336465042463
 21
-672.1902337120918
 31
0
  0
LINE
  8
1
 62
7
 10
51.81336465042452
 20
-616.6563213862974
 30
0
 11
51.81336465042452
 21
-672.1902337120918
 31
0
  0
LINE
  8
1
 62
7
 10
-150.8661277385742
 20
-616.6563213862974
 30
0
 11
-150.8661277385742
 21
-672.6563213862972
 31
0
  0
LINE
  8
1
 62
3
 10
-153.216127738574
 20
-611.6563213862974
 30
0
 11
-153.216127738574
 21
-616.6563213862974
 31
0
  0
LINE
  8
1
 62
3
 10
-152.716127738574
 20
-611.6563213862974
 30
0
 11
-152.716127738574
 21
-616.6563213862974
 31
0
  0
LINE
  8
1
 62
3
 10
-151.716127738574
 20
-611.6563213862974
 30
0
 11
-151.716127738574
 21
-616.6563213862974
 31
0
  0
LINE
  8
1
 62
3
 10
-151.216127738574
 20
-611.6563213862974
 30
0
 11
-151.216127738574
 21
-616.6563213862974
 31
0
  0
LINE
  8
1
 62
7
 10
-153.5661277385738
 20
-616.6563213862974
 30
0
 11
-153.5661277385738
 21
-672.6563213862972
 31
0
  0
LINE
  8
1
 62
7
 10
-153.5661277385738
 20
-616.6563213862974
 30
0
 11
-150.8661277385742
 21
-616.6563213862974
 31
0
  0
LINE
  8
1
 62
7
 10
-481.2885432423383
 20
-672.6563213862972
 30
0
 11
-481.2885432423383
 21
-616.6563213862974
 31
0
  0
LINE
  8
1
 62
3
 10
-480.5917420299505
 20
-611.6563213862974
 30
0
 11
-480.5917420299505
 21
-616.6563213862974
 31
0
  0
LINE
  8
1
 62
3
 10
-479.9996705992002
 20
-611.6563213862974
 30
0
 11
-479.9996705992002
 21
-616.6563213862974
 31
0
  0
LINE
  8
1
 62
3
 10
-479.3203697088808
 20
-611.6563213862974
 30
0
 11
-479.3203697088808
 21
-616.6563213862974
 31
0
  0
LINE
  8
1
 62
3
 10
-483.2567167757962
 20
-616.6563213862974
 30
0
 11
-483.2567167757962
 21
-611.6563213862974
 31
0
  0
LINE
  8
1
 62
3
 10
-482.5803804656252
 20
-616.6563213862974
 30
0
 11
-482.5803804656252
 21
-611.6563213862974
 31
0
  0
LINE
  8
1
 62
3
 10
-481.9853444547265
 20
-616.6563213862974
 30
0
 11
-481.9853444547265
 21
-611.6563213862974
 31
0
  0
LINE
  8
1
 62
7
 10
-483.9885432423384
 20
-616.6563213862974
 30
0
 11
-478.5885432423386
 21
-616.6563213862974
 31
0
  0
LINE
  8
1
 62
7
 10
-478.5885432423386
 20
-672.6903922312623
 30
0
 11
-478.5885432423386
 21
-616.6563213862974
 31
0
  0
LINE
  8
1
 62
7
 10
-483.9885432423384
 20
-672.6903922312623
 30
0
 11
-483.9885432423384
 21
-616.6563213862974
 31
0
  0
LINE
  8
1
 62
7
 10
-481.2885432423383
 20
-679.6563213862972
 30
0
 11
-394.36184998877
 21
-679.6563213862972
 31
0
  0
LINE
  8
1
 62
7
 10
-568.215236495907
 20
-679.6563213862972
 30
0
 11
-481.2885432423383
 21
-679.6563213862972
 31
0
  0
LINE
  8
1
 62
7
 10
-481.2885432423383
 20
-879.6563213862972
 30
0
 11
-394.36184998877
 21
-879.6563213862972
 31
0
  0
LINE
  8
1
 62
7
 10
-568.215236495907
 20
-879.6563213862972
 30
0
 11
-481.2885432423383
 21
-879.6563213862972
 31
0
  0
LINE
  8
1
 62
7
 10
-581.2885432423386
 20
-779.6563213862972
 30
0
 11
-581.2885432423386
 21
-692.7296281327286
 31
0
  0
LINE
  8
1
 62
7
 10
-581.2885432423386
 20
-866.5830146398658
 30
0
 11
-581.2885432423386
 21
-779.6563213862972
 31
0
  0
LINE
  8
1
 62
7
 10
-381.2885432423386
 20
-779.6563213862972
 30
0
 11
-381.2885432423386
 21
-866.5830146398658
 31
0
  0
LINE
  8
1
 62
7
 10
-381.2885432423386
 20
-779.6563213862972
 30
0
 11
-381.2885432423386
 21
-692.7296281327286
 31
0
  0
LINE
  8
1
 62
7
 10
-124.3161277385741
 20
-696.0278671723571
 30
0
 11
-124.3161277385741
 21
-673.1563213862972
 31
0
  0
LINE
  8
1
 62
7
 10
-125.9161277385739
 20
-672.1563213862972
 30
0
 11
-125.916127738574
 21
-700.6563213862974
 31
0
  0
LINE
  8
1
 62
7
 10
-124.7161277385739
 20
-853.6563213862972
 30
0
 11
-101.716127738574
 21
-853.6563213862975
 31
0
  0
LINE
  8
1
 62
3
 10
-123.4840769310053
 20
-853.6563213862972
 30
0
 11
-123.4840769310053
 21
-863.6563213862972
 31
0
  0
LINE
  8
1
 62
3
 10
-123.4840769310053
 20
-862.6563213862972
 30
0
 11
-124.7161277385739
 21
-863.3676462517025
 31
0
  0
LINE
  8
1
 62
3
 10
-100.7161277385739
 20
-862.6563213862972
 30
0
 11
-123.4840769310053
 21
-862.6563213862972
 31
0
  0
LINE
  8
1
 62
3
 10
-123.4840769310053
 20
-854.6563213862972
 30
0
 11
-124.7161277385739
 21
-853.9449965208922
 31
0
  0
LINE
  8
1
 62
3
 10
-100.7161277385739
 20
-854.6563213862972
 30
0
 11
-123.4840769310053
 21
-854.6563213862972
 31
0
  0
LINE
  8
1
 62
7
 10
-101.716127738574
 20
-853.6563213862975
 30
0
 11
-101.7161277385739
 21
-863.6563213862972
 31
0
  0
LINE
  8
1
 62
7
 10
-101.7161277385739
 20
-863.6563213862972
 30
0
 11
-124.7161277385739
 21
-863.6563213862972
 31
0
  0
LINE
  8
1
 62
7
 10
-100.7161277385739
 20
-862.6563213862972
 30
0
 11
-101.7161277385739
 21
-863.6563213862972
 31
0
  0
LINE
  8
1
 62
7
 10
-100.7161277385739
 20
-854.6563213862972
 30
0
 11
-100.7161277385739
 21
-862.6563213862972
 31
0
  0
LINE
  8
1
 62
7
 10
-101.716127738574
 20
-853.6563213862975
 30
0
 11
-100.7161277385739
 21
-854.6563213862972
 31
0
  0
LINE
  8
1
 62
7
 10
-131.9161277385739
 20
-853.6563213862972
 30
0
 11
-131.9161277385739
 21
-863.6563213862972
 31
0
  0
LINE
  8
1
 62
7
 10
-125.7161277385738
 20
-867.6563213862972
 30
0
 11
-125.7161277385738
 21
-849.6563213862972
 31
0
  0
LINE
  8
1
 62
7
 10
-126.5161277385739
 20
-867.6563213862972
 30
0
 11
-125.7161277385738
 21
-867.6563213862972
 31
0
  0
LINE
  8
1
 62
7
 10
-126.5161277385739
 20
-849.6563213862972
 30
0
 11
-126.5161277385739
 21
-867.6563213862972
 31
0
  0
LINE
  8
1
 62
7
 10
-125.7161277385738
 20
-849.6563213862972
 30
0
 11
-126.5161277385739
 21
-849.6563213862972
 31
0
  0
LINE
  8
1
 62
7
 10
-125.7161277385738
 20
-850.6563213862972
 30
0
 11
-124.7161277385739
 21
-850.6563213862972
 31
0
  0
LINE
  8
1
 62
7
 10
-124.7161277385739
 20
-866.6563213862972
 30
0
 11
-125.7161277385738
 21
-866.6563213862972
 31
0
  0
LINE
  8
1
 62
7
 10
-165.716127738574
 20
-912.1563213862972
 30
0
 11
-165.716127738574
 21
-679.6563213862972
 31
0
  0
LINE
  8
1
 62
7
 10
-162.716127738574
 20
-859.6563213862972
 30
0
 11
-162.716127738574
 21
-912.1563213862972
 31
0
  0
LINE
  8
1
 62
7
 10
-134.5161277385739
 20
-886.6563213862972
 30
0
 11
-134.5161277385739
 21
-672.6563213862972
 31
0
  0
LINE
  8
1
 62
7
 10
-134.116127738574
 20
-726.1563213862974
 30
0
 11
-133.0161277385742
 21
-726.1563213862972
 31
0
  0
LINE
  8
1
 62
7
 10
-133.0165928548531
 20
-726.1563213862972
 30
0
 11
-124.7161277385739
 21
-726.1563213862972
 31
0
  0
LINE
  8
1
 62
7
 10
-165.716127738574
 20
-833.1563213862972
 30
0
 11
-134.716127738574
 21
-833.1563213862972
 31
0
  0
LINE
  8
1
 62
3
 10
48.4165634380366
 20
-616.6563213862974
 30
0
 11
48.4165634380366
 21
-611.6563213862974
 31
0
  0
LINE
  8
1
 62
3
 10
47.82449200728632
 20
-616.6563213862974
 30
0
 11
47.82449200728632
 21
-611.6563213862974
 31
0
  0
LINE
  8
1
 62
3
 10
47.14519111696703
 20
-616.6563213862974
 30
0
 11
47.14519111696703
 21
-611.6563213862974
 31
0
  0
LINE
  8
1
 62
3
 10
51.0815381838822
 20
-611.6563213862974
 30
0
 11
51.0815381838822
 21
-616.6563213862974
 31
0
  0
LINE
  8
1
 62
3
 10
50.40520187371132
 20
-611.6563213862974
 30
0
 11
50.40520187371132
 21
-616.6563213862974
 31
0
  0
LINE
  8
1
 62
3
 10
49.81016586281271
 20
-611.6563213862974
 30
0
 11
49.81016586281271
 21
-616.6563213862974
 31
0
  0
LINE
  8
1
 62
7
 10
46.41336465042463
 20
-616.6563213862974
 30
0
 11
51.81336465042452
 21
-616.6563213862974
 31
0
  0
LINE
  8
1
 62
7
 10
-37.81332860314379
 20
-679.6563213862972
 30
0
 11
9.664030055275902
 21
-679.6563213862972
 31
0
  0
LINE
  8
1
 62
7
 10
88.56269924557341
 20
-679.6563213862972
 30
0
 11
136.0400579039932
 21
-679.6563213862972
 31
0
  0
LINE
  8
1
 62
7
 10
-37.81332860314379
 20
-879.6563213862972
 30
0
 11
9.664030055275902
 21
-879.6563213862972
 31
0
  0
LINE
  8
1
 62
7
 10
88.56269924557341
 20
-879.6563213862972
 30
0
 11
136.0400579039932
 21
-879.6563213862972
 31
0
  0
LINE
  8
1
 62
7
 10
149.1133646504247
 20
-692.7296281327286
 30
0
 11
149.1133646504247
 21
-740.2069867911484
 31
0
  0
LINE
  8
1
 62
7
 10
149.1133646504247
 20
-819.105655981446
 30
0
 11
149.1133646504247
 21
-866.5830146398658
 31
0
  0
LINE
  8
1
 62
7
 10
-50.88663534957522
 20
-866.5830146398658
 30
0
 11
-50.88663534957522
 21
-819.1056559814464
 31
0
  0
LINE
  8
1
 62
7
 10
-50.88663534957522
 20
-692.7296281327286
 30
0
 11
-50.88663534957522
 21
-740.2069867911484
 31
0
  0
LINE
  8
1
 62
7
 10
-162.716127738574
 20
-699.6563213862974
 30
0
 11
-162.716127738574
 21
-675.6563213862972
 31
0
  0
LINE
  8
1
 62
7
 10
-162.716127738574
 20
-699.6563213862974
 30
0
 11
-165.716127738574
 21
-699.6563213862972
 31
0
  0
LINE
  8
1
 62
7
 10
-165.716127738574
 20
-726.1563213862972
 30
0
 11
-134.716127738574
 21
-726.1563213862972
 31
0
  0
LINE
  8
1
 62
7
 10
-162.716127738574
 20
-675.6563213862972
 30
0
 11
-159.716127738574
 21
-672.6563213862972
 31
0
  0
LINE
  8
1
 62
7
 10
-134.5161277385739
 20
-672.6563213862972
 30
0
 11
-159.716127738574
 21
-672.6563213862972
 31
0
  0
LINE
  8
1
 62
7
 10
-159.716127738574
 20
-886.6563213862972
 30
0
 11
-134.5161277385739
 21
-886.6563213862972
 31
0
  0
LINE
  8
1
 62
7
 10
-159.716127738574
 20
-886.6563213862972
 30
0
 11
-162.716127738574
 21
-883.6563213862972
 31
0
  0
LINE
  8
1
 62
7
 10
-165.716127738574
 20
-859.6563213862972
 30
0
 11
-162.716127738574
 21
-859.6563213862972
 31
0
  0
LINE
  8
1
 62
7
 10
-165.716127738574
 20
-894.1563213862972
 30
0
 11
-162.716127738574
 21
-894.1563213862972
 31
0
  0
LINE
  8
1
 62
7
 10
-165.716127738574
 20
-905.1563213862972
 30
0
 11
-162.716127738574
 21
-905.1563213862972
 31
0
  0
LINE
  8
1
 62
7
 10
-165.716127738574
 20
-912.1563213862972
 30
0
 11
-162.716127738574
 21
-912.1563213862972
 31
0
  0
LINE
  8
1
 62
7
 10
-165.716127738574
 20
-679.6563213862972
 30
0
 11
-162.716127738574
 21
-679.6563213862972
 31
0
  0
LINE
  8
1
 62
7
 10
-134.116127738574
 20
-672.1563213862972
 30
0
 11
-125.9161277385739
 21
-672.1563213862972
 31
0
  0
LINE
  8
1
 62
7
 10
-125.916127738574
 20
-700.6563213862974
 30
0
 11
-124.7161277385739
 21
-700.6563213862972
 31
0
  0
LINE
  8
1
 62
7
 10
-125.9161277385739
 20
-696.1778604172149
 30
0
 11
-124.7161277385739
 21
-700.6563213862972
 31
0
  0
LINE
  8
1
 62
7
 10
-125.9161277385739
 20
-673.1563213862972
 30
0
 11
-124.3161277385741
 21
-673.1563213862972
 31
0
  0
LINE
  8
1
 62
7
 10
-124.3161277385741
 20
-696.0278671723571
 30
0
 11
-123.1161277385741
 21
-700.6563213862972
 31
0
  0
LINE
  8
1
 62
7
 10
-125.9161277385739
 20
-694.1563213862972
 30
0
 11
-124.3161277385741
 21
-694.1563213862972
 31
0
  0
LINE
  8
1
 62
7
 10
-124.3161277385741
 20
-675.6563213862972
 30
0
 11
-120.5161277385743
 21
-675.6563213862972
 31
0
  0
LINE
  8
1
 62
7
 10
-119.5161277385743
 20
-676.6563213862972
 30
0
 11
-119.5161277385743
 21
-690.6563213862972
 31
0
  0
LINE
  8
1
 62
7
 10
-124.3161277385741
 20
-691.6563213862972
 30
0
 11
-120.5161277385743
 21
-691.6563213862972
 31
0
  0
LINE
  8
1
 62
7
 10
-123.3161277385741
 20
-675.6563213862972
 30
0
 11
-123.3161277385741
 21
-691.6563213862972
 31
0
  0
LINE
  8
1
 62
7
 10
-119.5161277385743
 20
-676.6563213862972
 30
0
 11
-120.5161277385743
 21
-675.6563213862972
 31
0
  0
LINE
  8
1
 62
7
 10
-120.5161277385743
 20
-691.6563213862972
 30
0
 11
-119.5161277385743
 21
-690.6563213862972
 31
0
  0
LINE
  8
1
 62
7
 10
-124.7161277385739
 20
-833.1563213862972
 30
0
 11
-134.116127738574
 21
-833.1563213862972
 31
0
  0
LINE
  8
1
 62
7
 10
-125.916127738574
 20
-887.1563213862975
 30
0
 11
-134.116127738574
 21
-887.1563213862975
 31
0
  0
LINE
  8
1
 62
7
 10
-124.7161277385739
 20
-886.1563213862972
 30
0
 11
-123.1161277385741
 21
-886.1563213862972
 31
0
  0
LINE
  8
1
 62
7
 10
-134.116127738574
 20
-848.6563213862972
 30
0
 11
-124.7161277385739
 21
-848.6563213862972
 31
0
  0
LINE
  8
1
 62
7
 10
-134.116127738574
 20
-868.6563213862972
 30
0
 11
-125.9161277385739
 21
-868.6563213862972
 31
0
  0
LINE
  8
1
 62
7
 10
-125.9161277385739
 20
-868.6563213862972
 30
0
 11
-125.916127738574
 21
-887.1563213862975
 31
0
  0
LINE
  8
1
 62
7
 10
-134.116127738574
 20
-672.1563213862972
 30
0
 11
-134.116127738574
 21
-887.1563213862975
 31
0
  0
LINE
  8
1
 62
7
 10
-123.1161277385741
 20
-849.1563213862972
 30
0
 11
-118.2161277385739
 21
-849.1563213862972
 31
0
  0
LINE
  8
1
 62
7
 10
-123.1161277385741
 20
-700.6563213862972
 30
0
 11
-123.1161277385741
 21
-853.6563213862972
 31
0
  0
LINE
  8
1
 62
7
 10
-118.2161277385739
 20
-849.1563213862972
 30
0
 11
-118.216127738574
 21
-853.6563213862975
 31
0
  0
LINE
  8
1
 62
7
 10
-118.2161277385739
 20
-863.6563213862972
 30
0
 11
-118.2161277385739
 21
-868.1563213862972
 31
0
  0
LINE
  8
1
 62
7
 10
-118.2161277385739
 20
-868.1563213862972
 30
0
 11
-123.1161277385741
 21
-868.1563213862972
 31
0
  0
LINE
  8
1
 62
7
 10
-123.1161277385741
 20
-863.6563213862972
 30
0
 11
-123.1161277385741
 21
-886.1563213862972
 31
0
  0
LINE
  8
1
 62
7
 10
-124.7161277385739
 20
-846.1563213862972
 30
0
 11
-123.1161277385741
 21
-846.1563213862972
 31
0
  0
LINE
  8
1
 62
7
 10
-124.7161277385739
 20
-700.6563213862972
 30
0
 11
-124.7161277385739
 21
-886.1563213862972
 31
0
  0
LINE
  8
1
 62
7
 10
-124.7161277385739
 20
-872.8891058844638
 30
0
 11
-123.1161277385741
 21
-872.8891058844638
 31
0
  0
LINE
  8
1
 62
7
 10
49.11336465042461
 20
-616.6563213862974
 30
0
 11
49.11336465042461
 21
-672.1336734403552
 31
0
  0
LINE
  8
1
 62
7
 10
-288.1789915751141
 20
-616.6563213862974
 30
0
 11
-288.1789915751141
 21
-672.6563213862974
 31
0
  0
LINE
  8
1
 62
3
 10
-290.5289915751139
 20
-611.6563213862974
 30
0
 11
-290.5289915751139
 21
-616.6563213862974
 31
0
  0
LINE
  8
1
 62
3
 10
-290.0289915751139
 20
-611.6563213862974
 30
0
 11
-290.0289915751139
 21
-616.6563213862974
 31
0
  0
LINE
  8
1
 62
3
 10
-289.0289915751139
 20
-611.6563213862974
 30
0
 11
-289.0289915751139
 21
-616.6563213862974
 31
0
  0
LINE
  8
1
 62
3
 10
-288.5289915751139
 20
-611.6563213862974
 30
0
 11
-288.5289915751139
 21
-616.6563213862974
 31
0
  0
LINE
  8
1
 62
7
 10
-290.8789915751139
 20
-616.6563213862974
 30
0
 11
-290.8789915751139
 21
-672.6563213862974
 31
0
  0
LINE
  8
1
 62
7
 10
-290.8789915751139
 20
-616.6563213862974
 30
0
 11
-288.1789915751141
 21
-616.6563213862974
 31
0
  0
LINE
  8
1
 62
7
 10
-261.6289915751141
 20
-696.0278671723571
 30
0
 11
-261.6289915751141
 21
-673.1563213862974
 31
0
  0
LINE
  8
1
 62
7
 10
-263.2289915751139
 20
-672.1563213862974
 30
0
 11
-263.2289915751139
 21
-700.6563213862974
 31
0
  0
LINE
  8
1
 62
3
 10
-238.0289915751139
 20
-862.6563213862975
 30
0
 11
-255.5289915751139
 21
-862.6563213862975
 31
0
  0
LINE
  8
1
 62
3
 10
-238.0289915751139
 20
-854.6563213862975
 30
0
 11
-255.5289915751139
 21
-854.6563213862975
 31
0
  0
LINE
  8
1
 62
7
 10
-239.0289915751139
 20
-853.6563213862975
 30
0
 11
-239.0289915751139
 21
-863.6563213862975
 31
0
  0
LINE
  8
1
 62
7
 10
-239.0289915751139
 20
-863.6563213862975
 30
0
 11
-255.5289915751139
 21
-863.6563213862975
 31
0
  0
LINE
  8
1
 62
7
 10
-238.0289915751139
 20
-862.6563213862975
 30
0
 11
-239.0289915751139
 21
-863.6563213862975
 31
0
  0
LINE
  8
1
 62
7
 10
-238.0289915751139
 20
-854.6563213862975
 30
0
 11
-238.0289915751139
 21
-862.6563213862975
 31
0
  0
LINE
  8
1
 62
7
 10
-239.0289915751139
 20
-853.6563213862975
 30
0
 11
-238.0289915751139
 21
-854.6563213862975
 31
0
  0
LINE
  8
1
 62
7
 10
-263.0289915751139
 20
-867.6563213862975
 30
0
 11
-263.0289915751139
 21
-855.0268361569221
 31
0
  0
LINE
  8
1
 62
7
 10
-262.0289915751139
 20
-866.6563213862975
 30
0
 11
-263.0289915751139
 21
-866.6563213862975
 31
0
  0
LINE
  8
1
 62
7
 10
-300.0289915751139
 20
-859.6563213862975
 30
0
 11
-300.0289915751139
 21
-879.6563213862972
 31
0
  0
LINE
  8
1
 62
7
 10
-271.8289915751139
 20
-886.6563213862975
 30
0
 11
-271.8289915751139
 21
-672.6563213862974
 31
0
  0
LINE
  8
1
 62
7
 10
-271.4289915751139
 20
-726.1563213862974
 30
0
 11
-270.3289915751141
 21
-726.1563213862974
 31
0
  0
LINE
  8
1
 62
7
 10
-300.0289915751139
 20
-699.6563213862974
 30
0
 11
-300.0289915751139
 21
-675.6563213862974
 31
0
  0
LINE
  8
1
 62
7
 10
-300.0289915751139
 20
-675.6563213862974
 30
0
 11
-297.0289915751139
 21
-672.6563213862974
 31
0
  0
LINE
  8
1
 62
7
 10
-271.8289915751139
 20
-672.6563213862974
 30
0
 11
-297.0289915751139
 21
-672.6563213862974
 31
0
  0
LINE
  8
1
 62
7
 10
-297.0289915751139
 20
-886.6563213862975
 30
0
 11
-271.8289915751139
 21
-886.6563213862975
 31
0
  0
LINE
  8
1
 62
7
 10
-297.0289915751139
 20
-886.6563213862975
 30
0
 11
-300.0289915751139
 21
-883.6563213862975
 31
0
  0
LINE
  8
1
 62
7
 10
-303.0289915751139
 20
-679.6563213862974
 30
0
 11
-300.0289915751139
 21
-679.6563213862974
 31
0
  0
LINE
  8
1
 62
7
 10
-271.4289915751139
 20
-672.1563213862972
 30
0
 11
-263.2289915751139
 21
-672.1563213862974
 31
0
  0
LINE
  8
1
 62
7
 10
-263.2289915751139
 20
-700.6563213862974
 30
0
 11
-262.0289915751139
 21
-700.6563213862974
 31
0
  0
LINE
  8
1
 62
7
 10
-263.2289915751139
 20
-696.1778604172149
 30
0
 11
-262.0289915751139
 21
-700.6563213862974
 31
0
  0
LINE
  8
1
 62
7
 10
-263.2289915751139
 20
-673.1563213862974
 30
0
 11
-261.6289915751141
 21
-673.1563213862974
 31
0
  0
LINE
  8
1
 62
7
 10
-261.6289915751141
 20
-696.0278671723571
 30
0
 11
-260.4289915751139
 21
-700.6563213862974
 31
0
  0
LINE
  8
1
 62
7
 10
-263.2289915751139
 20
-694.1563213862974
 30
0
 11
-261.6289915751141
 21
-694.1563213862974
 31
0
  0
LINE
  8
1
 62
7
 10
-261.6289915751141
 20
-675.6563213862974
 30
0
 11
-257.8289915751141
 21
-675.6563213862974
 31
0
  0
LINE
  8
1
 62
7
 10
-256.8289915751142
 20
-676.6563213862972
 30
0
 11
-256.8289915751141
 21
-690.6563213862974
 31
0
  0
LINE
  8
1
 62
7
 10
-261.6289915751141
 20
-691.6563213862974
 30
0
 11
-257.8289915751141
 21
-691.6563213862974
 31
0
  0
LINE
  8
1
 62
7
 10
-260.6289915751141
 20
-675.6563213862974
 30
0
 11
-260.6289915751141
 21
-691.6563213862974
 31
0
  0
LINE
  8
1
 62
7
 10
-256.8289915751142
 20
-676.6563213862972
 30
0
 11
-257.8289915751141
 21
-675.6563213862974
 31
0
  0
LINE
  8
1
 62
7
 10
-257.8289915751141
 20
-691.6563213862974
 30
0
 11
-256.8289915751141
 21
-690.6563213862974
 31
0
  0
LINE
  8
1
 62
7
 10
-263.2289915751139
 20
-887.1563213862975
 30
0
 11
-271.4289915751139
 21
-887.1563213862975
 31
0
  0
LINE
  8
1
 62
7
 10
-263.2289915751139
 20
-868.6563213862975
 30
0
 11
-263.2289915751139
 21
-887.1563213862975
 31
0
  0
LINE
  8
1
 62
7
 10
-271.4289915751139
 20
-672.1563213862972
 30
0
 11
-271.4289915751139
 21
-887.1563213862975
 31
0
  0
LINE
  8
1
 62
7
 10
-260.4289915751139
 20
-849.1563213862975
 30
0
 11
-255.5289915751139
 21
-849.1563213862975
 31
0
  0
LINE
  8
1
 62
7
 10
-260.4289915751139
 20
-700.6563213862974
 30
0
 11
-260.4289915751139
 21
-853.6563213862975
 31
0
  0
LINE
  8
1
 62
7
 10
-255.5289915751139
 20
-849.1563213862975
 30
0
 11
-255.5289915751139
 21
-853.6563213862975
 31
0
  0
LINE
  8
1
 62
7
 10
-255.5289915751139
 20
-863.6563213862975
 30
0
 11
-255.5289915751139
 21
-868.1563213862975
 31
0
  0
LINE
  8
1
 62
7
 10
-255.5289915751139
 20
-868.1563213862975
 30
0
 11
-260.4289915751139
 21
-868.1563213862975
 31
0
  0
LINE
  8
1
 62
7
 10
-260.4289915751139
 20
-863.6563213862975
 30
0
 11
-260.4289915751139
 21
-879.6563213862972
 31
0
  0
LINE
  8
1
 62
7
 10
-262.0289915751139
 20
-846.1563213862975
 30
0
 11
-260.4289915751141
 21
-846.1563213862975
 31
0
  0
LINE
  8
1
 62
7
 10
-262.0289915751139
 20
-700.6563213862974
 30
0
 11
-262.0289915751139
 21
-879.6563213862972
 31
0
  0
LINE
  8
1
 62
7
 10
-262.0289915751139
 20
-872.8891058844639
 30
0
 11
-260.4289915751139
 21
-872.8891058844639
 31
0
  0
LINE
  8
1
 62
7
 10
-300.0289915751139
 20
-699.6563213862974
 30
0
 11
-300.0289915751139
 21
-859.6563213862975
 31
0
  0
LINE
  8
1
 62
7
 10
-303.0289915751139
 20
-879.6563213862972
 30
0
 11
-303.0289915751139
 21
-679.6563213862974
 31
0
  0
LINE
  8
1
 62
7
 10
-303.0289915751139
 20
-879.6563213862972
 30
0
 11
-300.0289915751139
 21
-879.6563213862972
 31
0
  0
LINE
  8
1
 62
7
 10
-300.0289915751139
 20
-879.6563213862972
 30
0
 11
-300.0289915751139
 21
-883.6563213862975
 31
0
  0
LINE
  8
1
 62
7
 10
-263.2289915751139
 20
-700.6563213862974
 30
0
 11
-263.2289915751139
 21
-868.6563213862975
 31
0
  0
LINE
  8
1
 62
7
 10
-263.0289915751139
 20
-867.6563213862975
 30
0
 11
-263.2289915751139
 21
-867.6565322843563
 31
0
  0
LINE
  8
1
 62
7
 10
-255.5289915751139
 20
-853.6563213862975
 30
0
 11
-255.5289915751139
 21
-863.6563213862975
 31
0
  0
LINE
  8
1
 62
7
 10
-260.4289915751139
 20
-853.6563213862975
 30
0
 11
-260.4289915751139
 21
-863.6563213862975
 31
0
  0
LINE
  8
1
 62
7
 10
-255.5289915751139
 20
-853.6563213862975
 30
0
 11
-239.0289915751139
 21
-853.6563213862975
 31
0
  0
LINE
  8
1
 62
7
 10
-262.0289915751139
 20
-855.0268361569221
 30
0
 11
-263.2289915751139
 21
-855.0268361569221
 31
0
  0
LINE
  8
1
 62
3
  6
DASHDOT
 10
-234.4600810452969
 20
-858.6563213862975
 30
0
 11
-266.5618144230699
 21
-858.6563213862975
 31
0
  0
LINE
  8
1
 62
3
  6
DASHDOT
 10
-97.7598241057851
 20
-858.6563213862975
 30
0
 11
-133.0173196559851
 21
-858.6563213862975
 31
0
  0
LINE
  8
1
 62
7
 10
-262.0289915751139
 20
-879.6563213862972
 30
0
 11
-260.4289915751139
 21
-879.6563213862972
 31
0
  0
LINE
  8
1
 62
3
  6
DASHDOT
 10
127.815483538358
 20
-734.217631860555
 30
0
 11
108.084554575316
 21
-745.6092890087288
 31
0
  0
LINE
  8
1
 62
3
  6
DASHDOT
 10
-9.859881912913181
 20
-745.6081016079679
 30
0
 11
-29.37473491175618
 21
-734.34119597589
 31
0
  0
LINE
  8
1
 62
3
  6
DASHDOT
 10
49.11336465042461
 20
-847.6125954132772
 30
0
 11
49.11336465042461
 21
-870.7011572606232
 31
0
  0
LINE
  8
1
 62
3
  6
DASHDOT
 10
127.6207847468462
 20
-701.1489012898757
 30
0
 11
140.4180413910567
 21
-688.3516446456652
 31
0
  0
LINE
  8
1
 62
3
  6
DASHDOT
 10
-29.85524554478019
 20
-700.6877111910947
 30
0
 11
-41.48911522133599
 21
-689.053841514539
 31
0
  0
LINE
  8
1
 62
3
  6
DASHDOT
 10
-29.78547197694138
 20
-858.555158013662
 30
0
 11
-41.41934165349639
 21
-870.1890276902168
 31
0
  0
LINE
  8
1
 62
3
  6
DASHDOT
 10
128.1327046628357
 20
-858.6756613987083
 30
0
 11
139.8829130361562
 21
-870.4258697720286
 31
0
  0
LINE
  8
1
 62
3
  6
DASHDOT
 10
-560.2571534375434
 20
-700.6877111910947
 30
0
 11
-571.891023114099
 21
-689.053841514539
 31
0
  0
LINE
  8
1
 62
3
  6
DASHDOT
 10
-402.7811231459169
 20
-701.1489012898757
 30
0
 11
-389.9838665017064
 21
-688.3516446456652
 31
0
  0
LINE
  8
1
 62
3
  6
DASHDOT
 10
-402.2692032299274
 20
-858.6756613987083
 30
0
 11
-390.5189948566069
 21
-870.4258697720286
 31
0
  0
LINE
  8
1
 62
3
  6
DASHDOT
 10
-560.1873798697043
 20
-858.555158013662
 30
0
 11
-571.8212495462594
 21
-870.1890276902168
 31
0
  0
LINE
  8
1
 62
3
 10
-257.428991575114
 20
-779.6563213862972
 30
0
 11
-252.4289915751139
 21
-779.6563213862972
 31
0
  0
LINE
  8
1
 62
3
 10
-306.0289915751139
 20
-779.6563213862972
 30
0
 11
-311.0289915751139
 21
-779.6563213862972
 31
0
  0
LINE
  8
1
 62
3
 10
-120.116127738574
 20
-779.6563213862972
 30
0
 11
-115.116127738574
 21
-779.6563213862972
 31
0
  0
LINE
  8
1
 62
3
 10
-173.716127738574
 20
-779.6563213862972
 30
0
 11
-168.716127738574
 21
-779.6563213862972
 31
0
  0
ARC
  8
1
 62
7
 10
49.11336465042461
 20
-779.6563213862972
 30
0
 40
79.0000000000002
 50
183.5313312327075
 51
236.3712594366499
  0
ARC
  8
1
 62
7
 10
49.11336465042461
 20
-779.6563213862972
 30
0
 40
78.99999999999992
 50
243.6287405633502
 51
252.5649373034365
  0
ARC
  8
1
 62
7
 10
49.11336465042461
 20
-779.6563213862972
 30
0
 40
78.99999999999986
 50
287.4350626965629
 51
296.4686687672925
  0
ARC
  8
1
 62
7
 10
49.11336465042461
 20
-779.6563213862972
 30
0
 40
79.00000000000011
 50
167.4350626965631
 51
176.4686687672927
  0
ARC
  8
1
 62
7
 10
49.11336465042461
 20
-779.6563213862972
 30
0
 40
78.99999999999999
 50
123.62874056335
 51
132.5649373034368
  0
ARC
  8
1
 62
7
 10
49.11336465042461
 20
-779.6563213862972
 30
0
 40
78.99999999999996
 50
63.53133123270743
 51
116.3712594366498
  0
ARC
  8
1
 62
7
 10
49.11336465042461
 20
-779.6563213862972
 30
0
 40
79.00000000000011
 50
47.4350626965634
 51
56.46866876729243
  0
ARC
  8
1
 62
7
 10
49.11336465042461
 20
-779.6563213862972
 30
0
 40
79.00000000000003
 50
303.5313312327074
 51
356.3712594366499
  0
ARC
  8
1
 62
7
 10
49.11336465042461
 20
-779.6563213862972
 30
0
 40
78.99999999999999
 50
3.628740563350113
 51
12.56493730343667
  0
ARC
  8
1
 62
7
 10
49.11336465042461
 20
-779.6563213862972
 30
0
 40
107.0000000000001
 50
177.3216517830469
 51
182.6783482169531
  0
ARC
  8
1
 62
7
 10
49.11336465042461
 20
-779.6563213862972
 30
0
 40
106.9999999999999
 50
297.321651783047
 51
302.6783482169532
  0
ARC
  8
1
 62
7
 10
49.11336465042461
 20
-779.6563213862972
 30
0
 40
106.9999999999999
 50
57.32165178304683
 51
62.67834821695305
  0
ARC
  8
1
 62
7
 10
49.11336465042461
 20
-779.6563213862972
 30
0
 40
107.5000000000001
 50
0
 51
57.33411823515123
  0
ARC
  8
1
 62
7
 10
49.11336465042461
 20
-779.6563213862972
 30
0
 40
107.5000000000002
 50
182.6658817648488
 51
297.3341182351512
  0
ARC
  8
1
 62
7
 10
89.11336465042471
 20
-710.374289083542
 30
0
 40
5.000000000000004
 50
150
 51
240.000000000001
  0
ARC
  8
1
 62
7
 10
89.11336465042471
 20
-710.374289083542
 30
0
 40
4.999999999999973
 50
240.000000000001
 51
329.9999999999994
  0
ARC
  8
1
 62
7
 10
89.11336465042461
 20
-848.9383536890522
 30
0
 40
4.999999999999992
 50
30.00000000000006
 51
120.0000000000012
  0
ARC
  8
1
 62
7
 10
89.11336465042461
 20
-848.9383536890522
 30
0
 40
4.999999999999954
 50
120.0000000000012
 51
210.0000000000005
  0
ARC
  8
1
 62
7
 10
49.11336465042461
 20
-779.6563213862972
 30
0
 40
107.5000000000001
 50
302.6658817648488
 51
0
  0
ARC
  8
1
 62
7
 10
49.11336465042461
 20
-779.6563213862972
 30
0
 40
107.5000000000003
 50
62.66588176484871
 51
177.3341182351513
  0
ARC
  8
1
 62
7
 10
-30.88663534957539
 20
-779.6563213862972
 30
0
 40
5
 50
270
 51
0
  0
ARC
  8
1
 62
7
 10
-30.88663534957539
 20
-779.6563213862972
 30
0
 40
5
 50
0
 51
90
  0
ARC
  8
1
 62
7
 10
9.113364650424614
 20
-848.9383536890522
 30
0
 40
4.999999999999949
 50
259.6292926721151
 51
330.0000000000001
  0
ARC
  8
1
 62
7
 10
9.113364650424614
 20
-848.9383536890522
 30
0
 40
5.000000000000017
 50
150.0000000000001
 51
238.5872462862071
  0
ARC
  8
1
 62
7
 10
9.113364650424728
 20
-710.3742890835423
 30
0
 40
4.999999999999991
 50
30.00000000000007
 51
118.5872462862056
  0
ARC
  8
1
 62
7
 10
9.113364650424728
 20
-710.3742890835423
 30
0
 40
5.000000000000123
 50
139.6292926721152
 51
209.9999999999999
  0
ARC
  8
1
 62
7
 10
129.1133646504246
 20
-779.6563213862972
 30
0
 40
5
 50
270
 51
358.5872462862063
  0
ARC
  8
1
 62
7
 10
129.1133646504246
 20
-779.6563213862972
 30
0
 40
5.000000000000069
 50
19.62929267211747
 51
90
  0
ARC
  8
1
 62
7
 10
-481.2885432423383
 20
-779.6563213862972
 30
0
 40
104.0000000000002
 50
164.0576313943717
 51
195.9423686056283
  0
ARC
  8
1
 62
7
 10
-481.2885432423383
 20
-779.6563213862972
 30
0
 40
104
 50
254.0576313943714
 51
285.9423686056284
  0
ARC
  8
1
 62
7
 10
-481.2885432423383
 20
-779.6563213862972
 30
0
 40
104
 50
0
 51
15.94236860562879
  0
ARC
  8
1
 62
7
 10
-481.2885432423383
 20
-779.6563213862972
 30
0
 40
104
 50
74.05763139437143
 51
105.9423686056286
  0
ARC
  8
1
 62
7
 10
-481.2885432423383
 20
-779.6563213862972
 30
0
 40
104
 50
344.0576313943714
 51
0
  0
ARC
  8
1
 62
7
 10
-481.2885432423383
 20
-779.6563213862972
 30
0
 40
107.5000000000003
 50
180
 51
201.5289044055719
  0
ARC
  8
1
 62
7
 10
-481.2885432423383
 20
-779.6563213862972
 30
0
 40
107.0000000000001
 50
159.1603063351558
 51
200.8396936648441
  0
ARC
  8
1
 62
7
 10
-481.2885432423383
 20
-779.6563213862972
 30
0
 40
107.0000000000001
 50
249.1603063351554
 51
290.8396936648442
  0
ARC
  8
1
 62
7
 10
-481.2885432423383
 20
-779.6563213862972
 30
0
 40
107.5
 50
248.471095594428
 51
291.5289044055721
  0
ARC
  8
1
 62
7
 10
-481.2885432423383
 20
-779.6563213862972
 30
0
 40
106.9999999999998
 50
0
 51
20.83969366484434
  0
ARC
  8
1
 62
7
 10
-481.2885432423383
 20
-779.6563213862972
 30
0
 40
107.5000000000001
 50
338.4710955944279
 51
21.52890440557212
  0
ARC
  8
1
 62
7
 10
-481.2885432423383
 20
-779.6563213862972
 30
0
 40
107
 50
69.16030633515557
 51
110.8396936648446
  0
ARC
  8
1
 62
7
 10
-481.2885432423383
 20
-779.6563213862972
 30
0
 40
106.9999999999998
 50
339.1603063351553
 51
0
  0
ARC
  8
1
 62
7
 10
-481.2885432423383
 20
-779.6563213862972
 30
0
 40
107.5000000000002
 50
91.43920813016283
 51
111.5289044055722
  0
ARC
  8
1
 62
7
 10
-481.2885432423383
 20
-779.6563213862972
 30
0
 40
107.5000000000002
 50
68.47109559442778
 51
88.56079186983739
  0
ARC
  8
1
 62
7
 10
-481.2885432423383
 20
-779.6563213862972
 30
0
 40
107.5000000000003
 50
158.4710955944282
 51
180
  0
ARC
  8
1
 62
7
 10
-481.2885432423383
 20
-779.6563213862972
 30
0
 40
132.4999999999998
 50
40.99935365020478
 51
49.00064634979542
  0
ARC
  8
1
 62
7
 10
-481.2885432423383
 20
-779.6563213862972
 30
0
 40
132.5000000000001
 50
130.9993536502047
 51
139.0006463497954
  0
ARC
  8
1
 62
7
 10
-481.2885432423392
 20
-779.6563213862962
 30
0
 40
132.5000000000003
 50
220.9993536502052
 51
229.0006463497959
  0
ARC
  8
1
 62
7
 10
-481.2885432423383
 20
-779.6563213862972
 30
0
 40
132.4999999999998
 50
310.9993536502046
 51
319.0006463497952
  0
ARC
  8
1
 62
7
 10
-123.6099183505479
 20
-858.0879387124622
 30
0
 40
9.999999999999847
 50
213.837423640289
 51
253.1048656257401
  0
ARC
  8
1
 62
7
 10
-123.6099183505479
 20
-859.2247040601325
 30
0
 40
10.00000000000004
 50
106.8951343742595
 51
146.16257635971
  0
ARC
  8
1
 62
7
 10
20.86336465042473
 20
-730.7258860724764
 30
0
 40
49.99999999999992
 50
119.9999999999999
 51
169.7457365550781
  0
ARC
  8
1
 62
7
 10
26.92590590903791
 20
-732.0751625668733
 30
0
 40
32.99999999999985
 50
115
 51
195.414316738176
  0
ARC
  8
1
 62
7
 10
49.11336465042461
 20
-779.6563213862972
 30
0
 40
66.50000000000004
 50
144.2953667715588
 51
155.7046332284413
  0
ARC
  8
1
 62
7
 10
-3.186856999391978
 20
-784.2319978805492
 30
0
 40
32.99999999999987
 50
104.5856832618242
 51
184.9999999999998
  0
ARC
  8
1
 62
7
 10
-7.386635349575386
 20
-779.6563213862972
 30
0
 40
50.00000000000001
 50
130.254263444922
 51
180
  0
ARC
  8
1
 62
7
 10
-53.07763299613902
 20
-720.6563213862972
 30
0
 40
24.76721550183333
 50
302.7047028571625
 51
357.2952971428372
  0
ARC
  8
1
 62
7
 10
77.36336465042473
 20
-828.586756700118
 30
0
 40
50.00000000000004
 50
250.2542634449219
 51
300.0000000000001
  0
ARC
  8
1
 62
7
 10
79.22612755885461
 20
-822.6618037114693
 30
0
 40
33.00000000000016
 50
224.5856832618234
 51
305.0000000000004
  0
ARC
  8
1
 62
7
 10
49.11336465042461
 20
-779.6563213862972
 30
0
 40
106.5
 50
180
 51
239.9999999999997
  0
ARC
  8
1
 62
7
 10
49.11336465042461
 20
-779.6563213862972
 30
0
 40
85.49999999999976
 50
184.9999999999999
 51
234.9999999999999
  0
ARC
  8
1
 62
7
 10
49.11336465042461
 20
-779.6563213862972
 30
0
 40
66.49999999999983
 50
264.2953667715588
 51
275.704633228441
  0
ARC
  8
1
 62
7
 10
19.00060174199473
 20
-822.6618037114693
 30
0
 40
32.99999999999984
 50
234.9999999999997
 51
315.4143167381764
  0
ARC
  8
1
 62
7
 10
20.86336465042461
 20
-828.586756700118
 30
0
 40
50.00000000000006
 50
239.9999999999993
 51
289.7457365550781
  0
ARC
  8
1
 62
7
 10
49.11336465042461
 20
-897.6563213862972
 30
0
 40
24.76721550183342
 50
62.70470285716264
 51
117.2952971428371
  0
ARC
  8
1
 62
7
 10
77.36336465042473
 20
-730.7258860724764
 30
0
 40
49.99999999999984
 50
10.25426344492185
 51
60.00000000000021
  0
ARC
  8
1
 62
7
 10
71.30082339181143
 20
-732.0751625668733
 30
0
 40
32.99999999999984
 50
344.5856832618239
 51
65.00000000000017
  0
ARC
  8
1
 62
7
 10
49.11336465042461
 20
-779.6563213862972
 30
0
 40
85.49999999999974
 50
64.99999999999996
 51
115
  0
ARC
  8
1
 62
7
 10
49.11336465042461
 20
-779.6563213862972
 30
0
 40
106.4999999999999
 50
60.00000000000005
 51
119.9999999999999
  0
ARC
  8
1
 62
7
 10
49.11336465042461
 20
-779.6563213862972
 30
0
 40
106.5000000000001
 50
300.0000000000001
 51
0
  0
ARC
  8
1
 62
7
 10
49.11336465042461
 20
-779.6563213862972
 30
0
 40
85.50000000000014
 50
305.0000000000002
 51
355
  0
ARC
  8
1
 62
7
 10
49.11336465042461
 20
-779.6563213862972
 30
0
 40
66.50000000000009
 50
24.295366771559
 51
35.70463322844121
  0
ARC
  8
1
 62
7
 10
101.4135863002413
 20
-784.2319978805492
 30
0
 40
33.00000000000012
 50
354.9999999999998
 51
75.41431673817655
  0
ARC
  8
1
 62
7
 10
105.6133646504246
 20
-779.6563213862972
 30
0
 40
50.00000000000021
 50
0
 51
49.74573655507818
  0
ARC
  8
1
 62
7
 10
151.3043622969885
 20
-720.6563213862972
 30
0
 40
24.76721550183357
 50
182.704702857163
 51
237.2952971428367
  0
ARC
  8
1
 62
7
 10
49.11336465042461
 20
-779.6563213862972
 30
0
 40
132.4999999999999
 50
130.9993536502046
 51
139.0006463497953
  0
ARC
  8
1
 62
7
 10
49.11336465042461
 20
-779.6563213862972
 30
0
 40
132.5000000000001
 50
40.99935365020467
 51
49.00064634979533
  0
ARC
  8
1
 62
7
 10
49.11336465042461
 20
-779.6563213862972
 30
0
 40
132.5
 50
310.9993536502047
 51
319.0006463497953
  0
ARC
  8
1
 62
7
 10
49.11336465042461
 20
-779.6563213862972
 30
0
 40
132.4999999999999
 50
220.9993536502047
 51
229.0006463497954
  0
ARC
  8
1
 62
3
  6
DASHDOT
 10
49.11336465042461
 20
-779.6563213862972
 30
0
 40
79.00000000000003
 50
19.64129332944216
 51
40.8334907824641
  0
ARC
  8
1
 62
3
  6
DASHDOT
 10
49.11336465042461
 20
-779.6563213862972
 30
0
 40
79.00000000000011
 50
139.0874829815888
 51
159.7078841148589
  0
ARC
  8
1
 62
3
  6
DASHDOT
 10
49.11336465042461
 20
-779.6563213862972
 30
0
 40
78.99999999999994
 50
260.1372724341769
 51
280.9222598358635
  0
ARC
  8
1
 62
3
  6
DASHDOT
 10
49.11336465042461
 20
-779.6563213862972
 30
0
 40
119.9999999999999
 50
39.62330372320169
 51
49.87199780268118
  0
ARC
  8
1
 62
3
  6
DASHDOT
 10
49.11336465042461
 20
-779.6563213862972
 30
0
 40
120.0000000000002
 50
129.9955051678481
 51
140.203118676047
  0
ARC
  8
1
 62
3
  6
DASHDOT
 10
49.11336465042461
 20
-779.6563213862972
 30
0
 40
120.0000000000001
 50
219.0342103483257
 51
230.3029551051713
  0
ARC
  8
1
 62
3
  6
DASHDOT
 10
49.11336465042461
 20
-779.6563213862972
 30
0
 40
120.0000000000001
 50
308.6040502570301
 51
319.8587945278022
  0
ARC
  8
1
 62
3
  6
DASHDOT
 10
-481.2885432423383
 20
-779.6563213862972
 30
0
 40
120
 50
129.9955051678481
 51
140.203118676047
  0
ARC
  8
1
 62
3
  6
DASHDOT
 10
-481.2885432423383
 20
-779.6563213862972
 30
0
 40
119.9999999999998
 50
39.62330372320175
 51
49.87199780268114
  0
ARC
  8
1
 62
3
  6
DASHDOT
 10
-481.2885432423383
 20
-779.6563213862972
 30
0
 40
119.9999999999999
 50
308.6040502570299
 51
319.8587945278022
  0
ARC
  8
1
 62
3
  6
DASHDOT
 10
-481.2885432423383
 20
-779.6563213862972
 30
0
 40
120.0000000000001
 50
219.0342103483257
 51
230.3029551051713
  0
CIRCLE
  8
1
 62
7
 10
-481.2885432423383
 20
-779.6563213862972
 30
0
 40
53.5
  0
CIRCLE
  8
1
 62
7
 10
-396.4357294999527
 20
-694.8035076439116
 30
0
 40
5.5
  0
CIRCLE
  8
1
 62
7
 10
-396.4357294999527
 20
-864.5091351286828
 30
0
 40
5.5
  0
CIRCLE
  8
1
 62
7
 10
-566.1413569847243
 20
-864.5091351286828
 30
0
 40
5.5
  0
CIRCLE
  8
1
 62
7
 10
-566.1413569847243
 20
-694.8035076439114
 30
0
 40
5.5
  0
CIRCLE
  8
1
 62
7
 10
49.11336465042461
 20
-683.6563213862972
 30
0
 40
8
  0
CIRCLE
  8
1
 62
7
 10
-19.30264224854619
 20
-740.1563213862972
 30
0
 40
9.499999999999996
  0
CIRCLE
  8
1
 62
7
 10
-19.30264224854619
 20
-740.1563213862972
 30
0
 40
4.999999999999998
  0
CIRCLE
  8
1
 62
3
 10
-19.30264224854619
 20
-740.1563213862972
 30
0
 40
3.999999999999998
  0
CIRCLE
  8
1
 62
7
 10
-34.02507411288158
 20
-827.6563213862972
 30
0
 40
8.000000000000004
  0
CIRCLE
  8
1
 62
7
 10
132.2518034137308
 20
-827.6563213862972
 30
0
 40
8
  0
CIRCLE
  8
1
 62
7
 10
49.11336465042461
 20
-858.6563213862972
 30
0
 40
9.5
  0
CIRCLE
  8
1
 62
7
 10
117.5293715493953
 20
-740.1563213862972
 30
0
 40
9.5
  0
CIRCLE
  8
1
 62
7
 10
49.11336465042461
 20
-858.6563213862972
 30
0
 40
5
  0
CIRCLE
  8
1
 62
7
 10
117.5293715493953
 20
-740.1563213862972
 30
0
 40
5
  0
CIRCLE
  8
1
 62
3
 10
49.11336465042461
 20
-858.6563213862972
 30
0
 40
4
  0
CIRCLE
  8
1
 62
3
 10
117.5293715493953
 20
-740.1563213862972
 30
0
 40
4
  0
CIRCLE
  8
1
 62
7
 10
49.11336465042461
 20
-779.6563213862972
 30
0
 40
53.49999999999999
  0
CIRCLE
  8
1
 62
7
 10
-35.73944909196118
 20
-694.8035076439116
 30
0
 40
5.499999999999996
  0
CIRCLE
  8
1
 62
7
 10
-35.73944909196118
 20
-864.5091351286828
 30
0
 40
5.499999999999996
  0
CIRCLE
  8
1
 62
7
 10
133.9661783928104
 20
-864.5091351286828
 30
0
 40
5.5
  0
CIRCLE
  8
1
 62
7
 10
133.9661783928104
 20
-694.8035076439114
 30
0
 40
5.5
  0
TEXT
  8
1
 62
7
 10
-582.644509843509
 20
-572.0839336354582
 30
0
 40
8
  1
VBE 20
 41
0.8388588131162913
  7
SIMPLEX
  0
ENDSEC
  0
EOF
