  0
SECTION
  2
HEADER
  9
$ACADVER
  1
AC1009
  9
$INSBASE
 10
0.0
 20
0.0
 30
0.0
  9
$EXTMIN
 10
-53.999999999999993
 20
-67.5
 30
0.0
  9
$EXTMAX
 10
349.14934640057521
 20
104.0
 30
0.0
  9
$LIMMIN
 10
-53.999999999999993
 20
-67.5
  9
$LIMMAX
 10
344.0
 20
104.0
  9
$ORTHOMODE
 70
     0
  9
$REGENMODE
 70
     1
  9
$FILLMODE
 70
     1
  9
$QTEXTMODE
 70
     0
  9
$MIRRTEXT
 70
     1
  9
$DRAGMODE
 70
     2
  9
$LTSCALE
 40
1.0
  9
$OSMODE
 70
    37
  9
$ATTMODE
 70
     1
  9
$TEXTSIZE
 40
3.5
  9
$TRACEWID
 40
0.5
  9
$TEXTSTYLE
  7
STANDARD
  9
$CLAYER
  8
0
  9
$CELTYPE
  6
BYLAYER
  9
$CECOLOR
 62
   256
  9
$DIMSCALE
 40
1.0
  9
$DIMASZ
 40
0.18
  9
$DIMEXO
 40
0.0625
  9
$DIMDLI
 40
0.38
  9
$DIMRND
 40
0.0
  9
$DIMDLE
 40
0.0
  9
$DIMEXE
 40
0.18
  9
$DIMTP
 40
0.0
  9
$DIMTM
 40
0.0
  9
$DIMTXT
 40
0.18
  9
$DIMCEN
 40
0.09
  9
$DIMTSZ
 40
0.0
  9
$DIMTOL
 70
     0
  9
$DIMLIM
 70
     0
  9
$DIMTIH
 70
     1
  9
$DIMTOH
 70
     1
  9
$DIMSE1
 70
     0
  9
$DIMSE2
 70
     0
  9
$DIMTAD
 70
     0
  9
$DIMZIN
 70
     0
  9
$DIMBLK
  1

  9
$DIMASO
 70
     1
  9
$DIMSHO
 70
     1
  9
$DIMPOST
  1

  9
$DIMAPOST
  1

  9
$DIMALT
 70
     0
  9
$DIMALTD
 70
     2
  9
$DIMALTF
 40
25.399999999999999
  9
$DIMLFAC
 40
1.0
  9
$DIMTOFL
 70
     0
  9
$DIMTVP
 40
0.0
  9
$DIMTIX
 70
     0
  9
$DIMSOXD
 70
     0
  9
$DIMSAH
 70
     0
  9
$DIMBLK1
  1

  9
$DIMBLK2
  1

  9
$DIMSTYLE
  2
STANDARD
  9
$DIMCLRD
 70
     0
  9
$DIMCLRE
 70
     0
  9
$DIMCLRT
 70
     0
  9
$DIMTFAC
 40
1.0
  9
$DIMGAP
 40
0.09
  9
$LUNITS
 70
     2
  9
$LUPREC
 70
     4
  9
$SKETCHINC
 40
0.1
  9
$FILLETRAD
 40
2.0
  9
$AUNITS
 70
     0
  9
$AUPREC
 70
     0
  9
$MENU
  1
ACAD
  9
$ELEVATION
 40
0.0
  9
$PELEVATION
 40
0.0
  9
$THICKNESS
 40
0.0
  9
$LIMCHECK
 70
     0
  9
$BLIPMODE
 70
     0
  9
$CHAMFERA
 40
0.0
  9
$CHAMFERB
 40
0.0
  9
$SKPOLY
 70
     0
  9
$TDCREATE
 40
2452095.3600371522
  9
$TDUPDATE
 40
2452095.360481597
  9
$TDINDWG
 40
0.0004608796
  9
$TDUSRTIMER
 40
0.0004608796
  9
$USRTIMER
 70
     1
  9
$ANGBASE
 50
0.0
  9
$ANGDIR
 70
     0
  9
$PDMODE
 70
     0
  9
$PDSIZE
 40
0.0
  9
$PLINEWID
 40
0.0
  9
$COORDS
 70
     1
  9
$SPLFRAME
 70
     0
  9
$SPLINETYPE
 70
     6
  9
$SPLINESEGS
 70
     8
  9
$ATTDIA
 70
     0
  9
$ATTREQ
 70
     1
  9
$HANDLING
 70
 10241
  9
$HANDSEED
  5
145
  9
$SURFTAB1
 70
     6
  9
$SURFTAB2
 70
     6
  9
$SURFTYPE
 70
     6
  9
$SURFU
 70
     6
  9
$SURFV
 70
     6
  9
$UCSNAME
  2

  9
$UCSORG
 10
0.0
 20
0.0
 30
0.0
  9
$UCSXDIR
 10
1.0
 20
0.0
 30
0.0
  9
$UCSYDIR
 10
0.0
 20
1.0
 30
0.0
  9
$PUCSNAME
  2

  9
$PUCSORG
 10
0.0
 20
0.0
 30
0.0
  9
$PUCSXDIR
 10
1.0
 20
0.0
 30
0.0
  9
$PUCSYDIR
 10
0.0
 20
1.0
 30
0.0
  9
$USERI1
 70
     0
  9
$USERI2
 70
     0
  9
$USERI3
 70
     0
  9
$USERI4
 70
     0
  9
$USERI5
 70
     0
  9
$USERR1
 40
0.0
  9
$USERR2
 40
0.0
  9
$USERR3
 40
0.0
  9
$USERR4
 40
0.0
  9
$USERR5
 40
0.0
  9
$WORLDVIEW
 70
     1
  9
$SHADEDGE
 70
     3
  9
$SHADEDIF
 70
    70
  9
$TILEMODE
 70
     1
  9
$MAXACTVP
 70
    64
  9
$PLIMCHECK
 70
     0
  9
$PEXTMIN
 10
1.0000000000000000E+020
 20
1.0000000000000000E+020
 30
1.0000000000000000E+020
  9
$PEXTMAX
 10
-1.0000000000000000E+020
 20
-1.0000000000000000E+020
 30
-1.0000000000000000E+020
  9
$PLIMMIN
 10
0.0
 20
0.0
  9
$PLIMMAX
 10
12.0
 20
9.0
  9
$UNITMODE
 70
     0
  9
$VISRETAIN
 70
     1
  9
$PLINEGEN
 70
     0
  9
$PSLTSCALE
 70
     1
  0
ENDSEC
  0
SECTION
  2
TABLES
  0
TABLE
  2
VPORT
 70
     2
  0
VPORT
  2
*ACTIVE
 70
     0
 10
0.0
 20
0.0
 11
1.0
 21
1.0
 12
19.280308934416151
 22
95.086453171527467
 13
0.0
 23
0.0
 14
1.0
 24
1.0
 15
0.0
 25
0.0
 16
0.0
 26
0.0
 36
1.0
 17
0.0
 27
0.0
 37
0.0
 40
9.0000000179279631
 41
2.4144144144144142
 42
50.0
 43
0.0
 44
0.0
 50
0.0
 51
0.0
 71
     0
 72
   100
 73
     1
 74
     1
 75
     0
 76
     0
 77
     0
 78
     0
  0
ENDTAB
  0
TABLE
  2
LTYPE
 70
     9
  0
LTYPE
  2
CONTINUOUS
 70
     0
  3
Solid line
 72
    65
 73
     0
 40
0.0
  0
LTYPE
  2
BORDER
 70
     0
  3
__ __ . __ __ .
 72
    65
 73
     6
 40
18.328947368421051
 49
5.2368421052631584
 49
-2.6184210526315792
 49
5.2368421052631584
 49
-2.6184210526315792
 49
0.0
 49
-2.6184210526315792
  0
LTYPE
  2
CENTER
 70
     0
  3
____ _ ____ _
 72
    65
 73
     4
 40
20.94736842105263
 49
13.09210526315789
 49
-2.6184210526315792
 49
2.6184210526315792
 49
-2.6184210526315792
  0
LTYPE
  2
DASHDOT
 70
     0
  3
__ . __ . __ .
 72
    65
 73
     4
 40
10.47368421052632
 49
5.2368421052631584
 49
-2.6184210526315792
 49
0.0
 49
-2.6184210526315792
  0
LTYPE
  2
DASHED
 70
     0
  3
__ __ __ __ __
 72
    65
 73
     2
 40
7.8552631578947363
 49
5.2368421052631584
 49
-2.6184210526315792
  0
LTYPE
  2
DIVIDE
 70
     0
  3
__ . . __ . . 
 72
    65
 73
     6
 40
13.09210526315789
 49
5.2368421052631584
 49
-2.6184210526315792
 49
0.0
 49
-2.6184210526315792
 49
0.0
 49
-2.6184210526315792
  0
LTYPE
  2
DOT
 70
     0
  3
..............
 72
    65
 73
     4
 40
5.2368421052631584
 49
0.0
 49
-2.6184210526315792
 49
0.0
 49
-2.6184210526315792
  0
LTYPE
  2
HIDDEN
 70
     0
  3
_ _ _ _ _ _ _
 72
    65
 73
     2
 40
3.9276315789473681
 49
2.6184210526315792
 49
-1.3092105263157889
  0
LTYPE
  2
PHANTOM
 70
     0
  3
_____ _ _ _____ _ _ 
 72
    65
 73
     6
 40
26.18421052631578
 49
13.09210526315789
 49
-2.6184210526315792
 49
2.6184210526315792
 49
-2.6184210526315792
 49
2.6184210526315792
 49
-2.6184210526315792
  0
ENDTAB
  0
TABLE
  2
LAYER
 70
     2
  0
LAYER
  2
0
 70
     0
 62
     7
  6
CONTINUOUS
  0
LAYER
  2
1
 70
     0
 62
     7
  6
CONTINUOUS
  0
ENDTAB
  0
TABLE
  2
STYLE
 70
     4
  0
STYLE
  2
STANDARD
 70
     0
 40
0.0
 41
1.0
 50
0.0
 71
     0
 42
3.5
  3
txt
  4

  0
STYLE
  2
SIMPLEX
 70
     0
 40
0.0
 41
1.0
 50
0.0
 71
     0
 42
3.5
  3
simplex
  4

  0
STYLE
  2
COMPLEX
 70
     0
 40
0.0
 41
1.0
 50
0.0
 71
     0
 42
3.5
  3
complex
  4

  0
STYLE
  2
ITALIC
 70
     0
 40
0.0
 41
1.0
 50
0.0
 71
     0
 42
3.5
  3
italic
  4

  0
ENDTAB
  0
TABLE
  2
VIEW
 70
     0
  0
ENDTAB
  0
TABLE
  2
UCS
 70
     0
  0
ENDTAB
  0
TABLE
  2
APPID
 70
     1
  0
APPID
  2
ACAD
 70
     0
  0
ENDTAB
  0
TABLE
  2
DIMSTYLE
 70
     1
  0
DIMSTYLE
  2
STANDARD
 70
     0
  3

  4

  5

  6

  7

 40
1.0
 41
0.18
 42
0.0625
 43
0.38
 44
0.18
 45
0.0
 46
0.0
 47
0.0
 48
0.0
140
0.18
141
0.09
142
0.0
143
25.399999999999999
144
1.0
145
0.0
146
1.0
147
0.09
 71
     0
 72
     0
 73
     1
 74
     1
 75
     0
 76
     0
 77
     0
 78
     0
170
     0
171
     2
172
     0
173
     0
174
     0
175
     0
176
     0
177
     0
178
     0
  0
ENDTAB
  0
ENDSEC
  0
SECTION
  2
BLOCKS
  0
BLOCK
  8
0
  2
$MODEL_SPACE
 70
     0
 10
0.0
 20
0.0
 30
0.0
  3
$MODEL_SPACE
  1

  0
ENDBLK
  5
20
  8
0
  0
BLOCK
 67
     1
  8
0
  2
$PAPER_SPACE
 70
     0
 10
0.0
 20
0.0
 30
0.0
  3
$PAPER_SPACE
  1

  0
ENDBLK
  5
1C
 67
     1
  8
0
  0
ENDSEC
  0
SECTION
  2
ENTITIES
  0
LINE
  5
33
  8
1
 62
     7
 10
128.2999999999997
 20
-38.000000000000028
 30
0.0
 11
127.5999999999998
 21
-38.000000000000028
 31
0.0
  0
LINE
  5
34
  8
1
 62
     7
 10
127.5999999999998
 20
54.0
 30
0.0
 11
127.5999999999998
 21
-54.000000000000107
 31
0.0
  0
LINE
  5
35
  8
1
 62
     3
 10
141.79999999999981
 20
-38.000000000000107
 30
0.0
 11
128.89999999999969
 21
-38.0
 31
0.0
  0
LINE
  5
36
  8
1
 62
     7
 10
123.59999999999989
 20
54.0
 30
0.0
 11
127.5999999999998
 21
54.0
 31
0.0
  0
LINE
  5
37
  8
1
 62
     7
 10
127.5999999999998
 20
38.0
 30
0.0
 11
128.2999999999997
 21
38.0
 31
0.0
  0
LINE
  5
38
  8
1
 62
     7
 10
127.5999999999998
 20
53.0
 30
0.0
 11
128.19999999999979
 21
53.0
 31
0.0
  0
LINE
  5
39
  8
1
 62
     7
 10
128.19999999999979
 20
53.0
 30
0.0
 11
128.19999999999979
 21
40.541368366021523
 31
0.0
  0
LINE
  5
3A
  8
1
 62
     7
 10
128.19999999999979
 20
40.541368366021523
 30
0.0
 11
128.89999999999969
 21
38.0
 31
0.0
  0
LINE
  5
3B
  8
1
 62
     7
 10
127.5999999999998
 20
40.612435565298249
 30
0.0
 11
128.2999999999997
 21
38.0
 31
0.0
  0
LINE
  5
3C
  8
1
 62
     7
 10
128.19999999999979
 20
52.0
 30
0.0
 11
128.7999999999997
 21
52.0
 31
0.0
  0
LINE
  5
3D
  8
1
 62
     7
 10
128.7999999999997
 20
43.0
 30
0.0
 11
128.19999999999979
 21
43.0
 31
0.0
  0
LINE
  5
3E
  8
1
 62
     7
 10
130.09999999999971
 20
52.0
 30
0.0
 11
129.2999999999997
 21
52.0
 31
0.0
  0
LINE
  5
3F
  8
1
 62
     7
 10
130.09999999999971
 20
43.0
 30
0.0
 11
129.2999999999997
 21
43.0
 31
0.0
  0
LINE
  5
40
  8
1
 62
     7
 10
130.5999999999998
 20
51.5
 30
0.0
 11
130.5999999999998
 21
43.5
 31
0.0
  0
LINE
  5
41
  8
1
 62
     7
 10
128.7999999999997
 20
52.0
 30
0.0
 11
128.7999999999997
 21
43.0
 31
0.0
  0
LINE
  5
42
  8
1
 62
     7
 10
128.2999999999997
 20
38.0
 30
0.0
 11
128.2999999999997
 21
-53.000000000000107
 31
0.0
  0
LINE
  5
43
  8
1
 62
     7
 10
128.2999999999997
 20
-53.000000000000107
 30
0.0
 11
128.89999999999969
 21
-53.000000000000107
 31
0.0
  0
LINE
  5
44
  8
1
 62
     7
 10
128.89999999999969
 20
38.0
 30
0.0
 11
128.89999999999969
 21
-53.000000000000107
 31
0.0
  0
LINE
  5
45
  8
1
 62
     7
 10
139.09999999999991
 20
-35.500000000000099
 30
0.0
 11
139.69999999999979
 21
-36.100000000000129
 31
0.0
  0
LINE
  5
46
  8
1
 62
     7
 10
139.69999999999979
 20
-39.900000000000091
 30
0.0
 11
139.09999999999991
 21
-40.500000000000099
 31
0.0
  0
LINE
  5
47
  8
1
 62
     7
 10
139.09999999999991
 20
-40.500000000000099
 30
0.0
 11
131.49999999999989
 21
-40.500000000000099
 31
0.0
  0
LINE
  5
48
  8
1
 62
     7
 10
139.09999999999991
 20
-35.500000000000099
 30
0.0
 11
139.09999999999991
 21
-40.500000000000099
 31
0.0
  0
LINE
  5
49
  8
1
 62
     3
 10
139.69999999999979
 20
-36.100000000000129
 30
0.0
 11
131.49999999999989
 21
-36.100000000000129
 31
0.0
  0
LINE
  5
4A
  8
1
 62
     3
 10
139.69999999999979
 20
-39.900000000000091
 30
0.0
 11
131.49999999999989
 21
-39.900000000000091
 31
0.0
  0
LINE
  5
4B
  8
1
 62
     7
 10
131.49999999999989
 20
-35.500000000000099
 30
0.0
 11
139.09999999999991
 21
-35.500000000000099
 31
0.0
  0
LINE
  5
4C
  8
1
 62
     7
 10
123.59999999999989
 20
54.0
 30
0.0
 11
123.5999999999997
 21
-54.000000000000107
 31
0.0
  0
LINE
  5
4D
  8
1
 62
     7
 10
139.69999999999979
 20
-36.100000000000129
 30
0.0
 11
139.69999999999979
 21
-39.900000000000091
 31
0.0
  0
LINE
  5
4E
  8
1
 62
     7
 10
128.89999999999969
 20
-43.500000000000107
 30
0.0
 11
131.49999999999989
 21
-43.500000000000107
 31
0.0
  0
LINE
  5
4F
  8
1
 62
     7
 10
128.89999999999989
 20
-32.500000000000099
 30
0.0
 11
131.49999999999989
 21
-32.500000000000099
 31
0.0
  0
LINE
  5
50
  8
1
 62
     7
 10
127.5999999999998
 20
-54.000000000000107
 30
0.0
 11
123.5999999999997
 21
-54.000000000000107
 31
0.0
  0
LINE
  5
51
  8
1
 62
     7
 10
131.49999999999989
 20
-32.500000000000099
 30
0.0
 11
131.49999999999989
 21
-43.500000000000107
 31
0.0
  0
LINE
  5
52
  8
1
 62
     3
 10
128.89999999999989
 20
0.0
 30
0.0
 11
133.89999999999981
 21
0.0
 31
0.0
  0
LINE
  5
53
  8
1
 62
     7
 10
193.59999999999991
 20
54.0
 30
0.0
 11
197.5999999999998
 21
54.0
 31
0.0
  0
LINE
  5
54
  8
1
 62
     7
 10
197.5999999999998
 20
38.0
 30
0.0
 11
198.29999999999981
 21
38.0
 31
0.0
  0
LINE
  5
55
  8
1
 62
     7
 10
197.5999999999998
 20
53.0
 30
0.0
 11
198.19999999999979
 21
53.0
 31
0.0
  0
LINE
  5
56
  8
1
 62
     7
 10
198.19999999999979
 20
53.0
 30
0.0
 11
198.19999999999979
 21
40.541368366021523
 31
0.0
  0
LINE
  5
57
  8
1
 62
     7
 10
198.19999999999979
 20
40.541368366021523
 30
0.0
 11
198.89999999999981
 21
38.0
 31
0.0
  0
LINE
  5
58
  8
1
 62
     7
 10
197.5999999999998
 20
40.612435565298249
 30
0.0
 11
198.29999999999981
 21
38.0
 31
0.0
  0
LINE
  5
59
  8
1
 62
     7
 10
197.5999999999998
 20
45.0
 30
0.0
 11
197.5999999999998
 21
38.0
 31
0.0
  0
LINE
  5
5A
  8
1
 62
     7
 10
193.59999999999991
 20
52.5
 30
0.0
 11
196.0999999999998
 21
50.0
 31
0.0
  0
LINE
  5
5B
  8
1
 62
     7
 10
196.0999999999998
 20
50.0
 30
0.0
 11
196.0999999999998
 21
45.0
 31
0.0
  0
LINE
  5
5C
  8
1
 62
     7
 10
196.0999999999998
 20
45.0
 30
0.0
 11
193.59999999999971
 21
42.5
 31
0.0
  0
LINE
  5
5D
  8
1
 62
     7
 10
196.0999999999998
 20
50.0
 30
0.0
 11
198.19999999999979
 21
50.0
 31
0.0
  0
LINE
  5
5E
  8
1
 62
     7
 10
196.0999999999998
 20
45.0
 30
0.0
 11
198.19999999999979
 21
45.0
 31
0.0
  0
LINE
  5
5F
  8
1
 62
     7
 10
197.5999999999998
 20
42.0
 30
0.0
 11
198.19999999999979
 21
42.0
 31
0.0
  0
LINE
  5
60
  8
1
 62
     7
 10
198.19999999999979
 20
52.0
 30
0.0
 11
198.79999999999981
 21
52.0
 31
0.0
  0
LINE
  5
61
  8
1
 62
     7
 10
198.79999999999981
 20
43.0
 30
0.0
 11
198.19999999999979
 21
43.0
 31
0.0
  0
LINE
  5
62
  8
1
 62
     7
 10
200.0999999999998
 20
52.0
 30
0.0
 11
199.29999999999981
 21
52.0
 31
0.0
  0
LINE
  5
63
  8
1
 62
     7
 10
200.0999999999998
 20
43.0
 30
0.0
 11
199.29999999999981
 21
43.0
 31
0.0
  0
LINE
  5
64
  8
1
 62
     7
 10
200.5999999999998
 20
51.5
 30
0.0
 11
200.5999999999998
 21
43.5
 31
0.0
  0
LINE
  5
65
  8
1
 62
     7
 10
198.79999999999981
 20
52.0
 30
0.0
 11
198.79999999999981
 21
43.0
 31
0.0
  0
LINE
  5
66
  8
1
 62
     3
 10
211.79999999999981
 20
-38.000000000000107
 30
0.0
 11
190.59999999999991
 21
-38.0
 31
0.0
  0
LINE
  5
67
  8
1
 62
     7
 10
201.49999999999989
 20
-32.500000000000099
 30
0.0
 11
201.49999999999989
 21
-35.500000000000099
 31
0.0
  0
LINE
  5
68
  8
1
 62
     7
 10
198.89999999999981
 20
38.0
 30
0.0
 11
198.89999999999989
 21
-35.500000000000099
 31
0.0
  0
LINE
  5
69
  8
1
 62
     7
 10
198.29999999999981
 20
38.0
 30
0.0
 11
198.29999999999981
 21
-53.000000000000107
 31
0.0
  0
LINE
  5
6A
  8
1
 62
     7
 10
198.29999999999981
 20
-53.000000000000107
 30
0.0
 11
198.89999999999981
 21
-53.000000000000107
 31
0.0
  0
LINE
  5
6B
  8
1
 62
     7
 10
193.59999999999971
 20
-32.750000000000107
 30
0.0
 11
198.29999999999981
 21
-32.750000000000107
 31
0.0
  0
LINE
  5
6C
  8
1
 62
     7
 10
193.59999999999971
 20
-43.250000000000099
 30
0.0
 11
197.5999999999998
 21
-43.250000000000099
 31
0.0
  0
LINE
  5
6D
  8
1
 62
     7
 10
198.89999999999981
 20
-40.500000000000099
 30
0.0
 11
198.89999999999981
 21
-53.000000000000107
 31
0.0
  0
LINE
  5
6E
  8
1
 62
     7
 10
198.29999999999981
 20
-30.00000000000011
 30
0.0
 11
198.89999999999981
 21
-30.00000000000011
 31
0.0
  0
LINE
  5
6F
  8
1
 62
     7
 10
198.29999999999981
 20
-42.500000000000099
 30
0.0
 11
197.69999999999979
 21
-42.500000000000099
 31
0.0
  0
LINE
  5
70
  8
1
 62
     7
 10
197.69999999999979
 20
-33.500000000000099
 30
0.0
 11
198.2999999999999
 21
-33.500000000000099
 31
0.0
  0
LINE
  5
71
  8
1
 62
     7
 10
197.69999999999979
 20
-33.250000000000099
 30
0.0
 11
197.19999999999979
 21
-33.250000000000099
 31
0.0
  0
LINE
  5
72
  8
1
 62
     7
 10
197.19999999999979
 20
-33.250000000000099
 30
0.0
 11
197.19999999999979
 21
-42.750000000000107
 31
0.0
  0
LINE
  5
73
  8
1
 62
     7
 10
197.19999999999979
 20
-42.750000000000107
 30
0.0
 11
197.69999999999979
 21
-42.750000000000107
 31
0.0
  0
LINE
  5
74
  8
1
 62
     7
 10
197.69999999999979
 20
-42.750000000000107
 30
0.0
 11
197.69999999999979
 21
-33.250000000000099
 31
0.0
  0
LINE
  5
75
  8
1
 62
     7
 10
194.14999999999969
 20
-35.500000000000099
 30
0.0
 11
194.14999999999969
 21
-40.500000000000099
 31
0.0
  0
LINE
  5
76
  8
1
 62
     7
 10
209.09999999999991
 20
-35.500000000000099
 30
0.0
 11
209.69999999999979
 21
-36.100000000000129
 31
0.0
  0
LINE
  5
77
  8
1
 62
     7
 10
209.69999999999979
 20
-39.900000000000091
 30
0.0
 11
209.09999999999991
 21
-40.500000000000099
 31
0.0
  0
LINE
  5
78
  8
1
 62
     7
 10
209.09999999999991
 20
-40.500000000000099
 30
0.0
 11
198.29999999999981
 21
-40.500000000000099
 31
0.0
  0
LINE
  5
79
  8
1
 62
     7
 10
209.09999999999991
 20
-35.500000000000099
 30
0.0
 11
209.09999999999991
 21
-40.500000000000099
 31
0.0
  0
LINE
  5
7A
  8
1
 62
     3
 10
209.69999999999979
 20
-36.100000000000129
 30
0.0
 11
199.23923048454111
 21
-36.100000000000129
 31
0.0
  0
LINE
  5
7B
  8
1
 62
     3
 10
199.23923048454111
 20
-36.100000000000129
 30
0.0
 11
198.29999999999981
 21
-35.557735026918969
 31
0.0
  0
LINE
  5
7C
  8
1
 62
     3
 10
209.69999999999979
 20
-39.900000000000091
 30
0.0
 11
199.23923048454111
 21
-39.900000000000091
 31
0.0
  0
LINE
  5
7D
  8
1
 62
     3
 10
199.23923048454111
 20
-39.900000000000091
 30
0.0
 11
198.29999999999981
 21
-40.44226497308113
 31
0.0
  0
LINE
  5
7E
  8
1
 62
     3
 10
199.23923048454111
 20
-35.500000000000099
 30
0.0
 11
199.23923048454111
 21
-40.500000000000099
 31
0.0
  0
LINE
  5
7F
  8
1
 62
     7
 10
198.29999999999981
 20
-35.500000000000099
 30
0.0
 11
209.09999999999991
 21
-35.500000000000099
 31
0.0
  0
LINE
  5
80
  8
1
 62
     7
 10
193.59999999999991
 20
54.0
 30
0.0
 11
193.59999999999971
 21
-54.000000000000107
 31
0.0
  0
LINE
  5
81
  8
1
 62
     7
 10
197.5999999999998
 20
-54.000000000000107
 30
0.0
 11
197.5999999999998
 21
-42.750000000000107
 31
0.0
  0
LINE
  5
82
  8
1
 62
     7
 10
209.69999999999979
 20
-36.100000000000129
 30
0.0
 11
209.69999999999979
 21
-39.900000000000091
 31
0.0
  0
LINE
  5
83
  8
1
 62
     7
 10
198.89999999999981
 20
-43.500000000000107
 30
0.0
 11
201.49999999999989
 21
-43.500000000000107
 31
0.0
  0
LINE
  5
84
  8
1
 62
     7
 10
198.89999999999989
 20
-32.500000000000099
 30
0.0
 11
201.49999999999989
 21
-32.500000000000099
 31
0.0
  0
LINE
  5
85
  8
1
 62
     7
 10
197.5999999999998
 20
-54.000000000000107
 30
0.0
 11
193.59999999999971
 21
-54.000000000000107
 31
0.0
  0
LINE
  5
86
  8
1
 62
     7
 10
198.2999999999999
 20
-26.50000000000011
 30
0.0
 11
193.59999999999991
 21
-26.50000000000011
 31
0.0
  0
LINE
  5
87
  8
1
 62
     7
 10
201.49999999999989
 20
-40.500000000000099
 30
0.0
 11
201.49999999999989
 21
-43.500000000000107
 31
0.0
  0
LINE
  5
88
  8
1
 62
     7
 10
193.59999999999991
 20
26.5
 30
0.0
 11
198.2999999999999
 21
26.5
 31
0.0
  0
LINE
  5
89
  8
1
 62
     7
 10
197.5999999999998
 20
54.0
 30
0.0
 11
197.5999999999998
 21
50.0
 31
0.0
  0
LINE
  5
8A
  8
1
 62
     3
 10
167.0
 20
-61.0
 30
0.0
 11
175.40000000000001
 21
-61.0
 31
0.0
  0
LINE
  5
8B
  8
1
 62
     7
 10
172.40000000000001
 20
-64.25
 30
0.0
 11
170.0
 21
-64.25
 31
0.0
  0
LINE
  5
8C
  8
1
 62
     7
 10
170.0
 20
-57.75
 30
0.0
 11
172.40000000000001
 21
-57.75
 31
0.0
  0
LINE
  5
8D
  8
1
 62
     7
 10
176.40000000000001
 20
53.349999999999987
 30
0.0
 11
193.40000000000001
 21
53.349999999999987
 31
0.0
  0
LINE
  5
8E
  8
1
 62
     7
 10
193.40000000000001
 20
27.0
 30
0.0
 11
176.40000000000001
 21
27.0
 31
0.0
  0
LINE
  5
8F
  8
1
 62
     7
 10
193.40000000000001
 20
-53.350000000000001
 30
0.0
 11
176.40000000000001
 21
-53.350000000000001
 31
0.0
  0
LINE
  5
90
  8
1
 62
     7
 10
176.40000000000001
 20
-27.0
 30
0.0
 11
193.40000000000001
 21
-27.0
 31
0.0
  0
LINE
  5
91
  8
1
 62
     7
 10
193.40000000000001
 20
53.349999999999987
 30
0.0
 11
193.40000000000001
 21
-53.350000000000001
 31
0.0
  0
LINE
  5
92
  8
1
 62
     3
 10
165.0
 20
0.0
 30
0.0
 11
170.0
 21
0.0
 31
0.0
  0
LINE
  5
93
  8
1
 62
     7
 10
170.0
 20
50.0
 30
0.0
 11
172.40000000000001
 21
50.0
 31
0.0
  0
LINE
  5
94
  8
1
 62
     7
 10
172.40000000000001
 20
-67.5
 30
0.0
 11
172.40000000000001
 21
50.0
 31
0.0
  0
LINE
  5
95
  8
1
 62
     7
 10
170.0
 20
50.0
 30
0.0
 11
170.0
 21
-67.5
 31
0.0
  0
LINE
  5
96
  8
1
 62
     7
 10
170.0
 20
-67.5
 30
0.0
 11
172.40000000000001
 21
-67.5
 31
0.0
  0
LINE
  5
97
  8
1
 62
     7
 10
170.0
 20
26.0
 30
0.0
 11
172.40000000000001
 21
26.0
 31
0.0
  0
LINE
  5
98
  8
1
 62
     7
 10
170.0
 20
-26.0
 30
0.0
 11
172.40000000000001
 21
-26.0
 31
0.0
  0
LINE
  5
99
  8
1
 62
     3
 10
289.99999999999977
 20
-29.49999999999994
 30
0.0
 11
289.99999999999977
 21
-46.499999999999943
 31
0.0
  0
LINE
  5
9A
  8
1
 62
     3
 10
198.89999999999989
 20
0.0
 30
0.0
 11
203.89999999999989
 21
0.0
 31
0.0
  0
LINE
  5
9B
  8
1
 62
     3
 10
264.45225058835911
 20
14.75
 30
0.0
 11
249.72981872402369
 21
23.25
 31
0.0
  0
LINE
  5
9C
  8
1
 62
     3
 10
330.27018127597631
 20
23.25
 30
0.0
 11
315.54774941164101
 21
14.75
 31
0.0
  0
LINE
  5
9D
  8
1
 62
     7
 10
240.0
 20
20.39607805437107
 30
0.0
 11
240.0
 21
45.34589286804264
 31
0.0
  0
LINE
  5
9E
  8
1
 62
     7
 10
269.60392194562883
 20
-50.0
 30
0.0
 11
244.6541071319574
 21
-50.0
 31
0.0
  0
LINE
  5
9F
  8
1
 62
     7
 10
339.99999999999989
 20
-20.39607805437128
 30
0.0
 11
339.99999999999989
 21
-45.34589286804264
 31
0.0
  0
LINE
  5
A0
  8
1
 62
     7
 10
310.39607805437112
 20
50.0
 30
0.0
 11
335.3458928680426
 21
50.0
 31
0.0
  0
LINE
  5
A1
  8
1
 62
     3
 10
337.55293103479522
 20
-47.552931034795343
 30
0.0
 11
328.71409626996331
 21
-38.714096269963477
 31
0.0
  0
LINE
  5
A2
  8
1
 62
     3
 10
242.44706896520461
 20
-47.552931034795321
 30
0.0
 11
251.28590373003649
 21
-38.714096269963463
 31
0.0
  0
LINE
  5
A3
  8
1
 62
     3
 10
242.44706896520461
 20
47.552931034795343
 30
0.0
 11
251.28590373003649
 21
38.714096269963477
 31
0.0
  0
LINE
  5
A4
  8
1
 62
     3
 10
337.55293103479522
 20
47.552931034795321
 30
0.0
 11
328.71409626996342
 21
38.71409626996347
 31
0.0
  0
LINE
  5
A5
  8
1
 62
     7
 10
339.99999999999989
 20
45.34589286804264
 30
0.0
 11
339.99999999999989
 21
20.396078054371291
 31
0.0
  0
LINE
  5
A6
  8
1
 62
     7
 10
335.3458928680426
 20
-50.0
 30
0.0
 11
310.39607805437112
 21
-50.0
 31
0.0
  0
LINE
  5
A7
  8
1
 62
     7
 10
244.6541071319574
 20
-50.0
 30
0.0
 11
240.0
 21
-45.34589286804264
 31
0.0
  0
LINE
  5
A8
  8
1
 62
     7
 10
240.0
 20
-45.34589286804264
 30
0.0
 11
240.0
 21
-20.39607805437106
 31
0.0
  0
LINE
  5
A9
  8
1
 62
     7
 10
244.6541071319574
 20
50.0
 30
0.0
 11
269.60392194562883
 21
50.0
 31
0.0
  0
LINE
  5
AA
  8
1
 62
     3
 10
285.0
 20
0.0
 30
0.0
 11
295.0
 21
0.0
 31
0.0
  0
LINE
  5
AB
  8
1
 62
     3
 10
290.0
 20
-5.0000000000000044
 30
0.0
 11
290.0
 21
5.0
 31
0.0
  0
LINE
  5
AC
  8
1
 62
     3
 10
47.552931034795307
 20
-47.552931034795343
 30
0.0
 11
38.714096269963463
 21
-38.714096269963477
 31
0.0
  0
LINE
  5
AD
  8
1
 62
     3
 10
-47.552931034795343
 20
-47.552931034795321
 30
0.0
 11
-38.714096269963477
 21
-38.714096269963463
 31
0.0
  0
LINE
  5
AE
  8
1
 62
     3
 10
-47.552931034795307
 20
47.552931034795343
 30
0.0
 11
-38.71409626996347
 21
38.714096269963477
 31
0.0
  0
LINE
  5
AF
  8
1
 62
     3
 10
47.552931034795328
 20
47.552931034795321
 30
0.0
 11
38.714096269963477
 21
38.71409626996347
 31
0.0
  0
LINE
  5
B0
  8
1
 62
     3
 10
97.0
 20
-61.0
 30
0.0
 11
105.40000000000001
 21
-61.0
 31
0.0
  0
LINE
  5
B1
  8
1
 62
     7
 10
106.40000000000001
 20
53.349999999999987
 30
0.0
 11
123.39999999999991
 21
53.349999999999987
 31
0.0
  0
LINE
  5
B2
  8
1
 62
     7
 10
123.39999999999991
 20
-53.350000000000001
 30
0.0
 11
106.40000000000001
 21
-53.350000000000001
 31
0.0
  0
LINE
  5
B3
  8
1
 62
     7
 10
123.39999999999991
 20
53.349999999999987
 30
0.0
 11
123.39999999999991
 21
-53.350000000000001
 31
0.0
  0
LINE
  5
B4
  8
1
 62
     3
 10
95.0
 20
0.0
 30
0.0
 11
100.0
 21
0.0
 31
0.0
  0
LINE
  5
B5
  8
1
 62
     7
 10
100.0
 20
50.0
 30
0.0
 11
102.40000000000001
 21
50.0
 31
0.0
  0
LINE
  5
B6
  8
1
 62
     7
 10
102.40000000000001
 20
-67.5
 30
0.0
 11
102.40000000000001
 21
50.0
 31
0.0
  0
LINE
  5
B7
  8
1
 62
     7
 10
100.0
 20
50.0
 30
0.0
 11
100.0
 21
-67.5
 31
0.0
  0
LINE
  5
B8
  8
1
 62
     7
 10
100.0
 20
-67.5
 30
0.0
 11
102.40000000000001
 21
-67.5
 31
0.0
  0
LINE
  5
B9
  8
1
 62
     7
 10
50.0
 20
45.34589286804264
 30
0.0
 11
50.0
 21
-45.34589286804264
 31
0.0
  0
LINE
  5
BA
  8
1
 62
     7
 10
45.34589286804264
 20
-50.0
 30
0.0
 11
-45.345892868042633
 21
-50.0
 31
0.0
  0
LINE
  5
BB
  8
1
 62
     7
 10
-45.345892868042633
 20
-50.0
 30
0.0
 11
-50.0
 21
-45.34589286804264
 31
0.0
  0
LINE
  5
BC
  8
1
 62
     7
 10
-50.0
 20
-45.34589286804264
 30
0.0
 11
-50.0
 21
45.34589286804264
 31
0.0
  0
LINE
  5
BD
  8
1
 62
     7
 10
-45.345892868042633
 20
50.0
 30
0.0
 11
45.34589286804264
 21
50.0
 31
0.0
  0
LINE
  5
BE
  8
1
 62
     3
 10
-4.9999999999999982
 20
0.0
 30
0.0
 11
5.0000000000000009
 21
0.0
 31
0.0
  0
LINE
  5
BF
  8
1
 62
     3
 10
0.0
 20
-5.0000000000000044
 30
0.0
 11
0.0
 21
5.0
 31
0.0
  0
LINE
  5
C0
  8
1
 62
     7
 10
181.15000000000001
 20
73.34999999999998
 30
0.0
 11
183.65000000000001
 21
73.34999999999998
 31
0.0
  0
LINE
  5
C1
  8
1
 62
     7
 10
183.65000000000001
 20
73.34999999999998
 30
0.0
 11
183.65000000000001
 21
53.349999999999987
 31
0.0
  0
LINE
  5
C2
  8
1
 62
     7
 10
181.15000000000001
 20
53.349999999999987
 30
0.0
 11
181.15000000000001
 21
73.34999999999998
 31
0.0
  0
LINE
  5
C3
  8
1
 62
     3
 10
181.77500000000001
 20
76.34999999999998
 30
0.0
 11
181.77500000000001
 21
73.34999999999998
 31
0.0
  0
LINE
  5
C4
  8
1
 62
     3
 10
182.40000000000001
 20
73.34999999999998
 30
0.0
 11
182.40000000000001
 21
76.34999999999998
 31
0.0
  0
LINE
  5
C5
  8
1
 62
     3
 10
183.02500000000001
 20
76.34999999999998
 30
0.0
 11
183.02500000000001
 21
73.34999999999998
 31
0.0
  0
LINE
  5
C6
  8
1
 62
     7
 10
111.15000000000001
 20
73.34999999999998
 30
0.0
 11
113.65000000000001
 21
73.34999999999998
 31
0.0
  0
LINE
  5
C7
  8
1
 62
     7
 10
113.65000000000001
 20
73.34999999999998
 30
0.0
 11
113.65000000000001
 21
53.349999999999987
 31
0.0
  0
LINE
  5
C8
  8
1
 62
     7
 10
111.15000000000001
 20
53.349999999999987
 30
0.0
 11
111.15000000000001
 21
73.34999999999998
 31
0.0
  0
LINE
  5
C9
  8
1
 62
     3
 10
111.77500000000001
 20
76.34999999999998
 30
0.0
 11
111.77500000000001
 21
73.34999999999998
 31
0.0
  0
LINE
  5
CA
  8
1
 62
     3
 10
112.40000000000001
 20
73.34999999999998
 30
0.0
 11
112.40000000000001
 21
76.34999999999998
 31
0.0
  0
LINE
  5
CB
  8
1
 62
     3
 10
113.02499999999991
 20
76.34999999999998
 30
0.0
 11
113.02499999999991
 21
73.34999999999998
 31
0.0
  0
LINE
  5
CC
  8
1
 62
     7
 10
-2.5
 20
73.34999999999998
 30
0.0
 11
2.5
 21
73.34999999999998
 31
0.0
  0
LINE
  5
CD
  8
1
 62
     7
 10
0.0
 20
73.34999999999998
 30
0.0
 11
0.0
 21
53.349999999999987
 31
0.0
  0
LINE
  5
CE
  8
1
 62
     7
 10
-2.5
 20
53.291392363119947
 30
0.0
 11
-2.5
 21
73.34999999999998
 31
0.0
  0
LINE
  5
CF
  8
1
 62
     3
 10
-1.875
 20
76.34999999999998
 30
0.0
 11
-1.875
 21
73.34999999999998
 31
0.0
  0
LINE
  5
D0
  8
1
 62
     3
 10
-1.25
 20
73.34999999999998
 30
0.0
 11
-1.25
 21
76.34999999999998
 31
0.0
  0
LINE
  5
D1
  8
1
 62
     3
 10
-0.625
 20
76.34999999999998
 30
0.0
 11
-0.625
 21
73.34999999999998
 31
0.0
  0
LINE
  5
D2
  8
1
 62
     3
 10
1.875
 20
73.34999999999998
 30
0.0
 11
1.875
 21
76.34999999999998
 31
0.0
  0
LINE
  5
D3
  8
1
 62
     3
 10
1.25
 20
76.34999999999998
 30
0.0
 11
1.25
 21
73.34999999999998
 31
0.0
  0
LINE
  5
D4
  8
1
 62
     3
 10
0.625
 20
73.34999999999998
 30
0.0
 11
0.625
 21
76.34999999999998
 31
0.0
  0
LINE
  5
D5
  8
1
 62
     7
 10
2.5
 20
73.34999999999998
 30
0.0
 11
2.5
 21
53.291392363119932
 31
0.0
  0
LINE
  5
D6
  8
1
 62
     7
 10
287.5
 20
73.34999999999998
 30
0.0
 11
292.5
 21
73.34999999999998
 31
0.0
  0
LINE
  5
D7
  8
1
 62
     7
 10
290.0
 20
73.34999999999998
 30
0.0
 11
290.0
 21
53.999999999999993
 31
0.0
  0
LINE
  5
D8
  8
1
 62
     7
 10
287.5
 20
53.942098587281542
 30
0.0
 11
287.5
 21
73.34999999999998
 31
0.0
  0
LINE
  5
D9
  8
1
 62
     3
 10
288.125
 20
76.34999999999998
 30
0.0
 11
288.125
 21
73.34999999999998
 31
0.0
  0
LINE
  5
DA
  8
1
 62
     3
 10
288.75
 20
73.34999999999998
 30
0.0
 11
288.75
 21
76.34999999999998
 31
0.0
  0
LINE
  5
DB
  8
1
 62
     3
 10
289.375
 20
76.34999999999998
 30
0.0
 11
289.375
 21
73.34999999999998
 31
0.0
  0
LINE
  5
DC
  8
1
 62
     3
 10
291.875
 20
73.34999999999998
 30
0.0
 11
291.875
 21
76.34999999999998
 31
0.0
  0
LINE
  5
DD
  8
1
 62
     3
 10
291.25
 20
76.34999999999998
 30
0.0
 11
291.25
 21
73.34999999999998
 31
0.0
  0
LINE
  5
DE
  8
1
 62
     3
 10
290.625
 20
73.34999999999998
 30
0.0
 11
290.625
 21
76.34999999999998
 31
0.0
  0
LINE
  5
DF
  8
1
 62
     7
 10
292.5
 20
73.34999999999998
 30
0.0
 11
292.5
 21
53.942098587281528
 31
0.0
  0
ARC
  5
E0
  8
1
 62
     7
 10
290.0
 20
0.0
 30
0.0
 40
38.0
 50
288.75465691174321
 51
11.245343088257849
  0
ARC
  5
E1
  8
1
 62
     7
 10
290.0
 20
0.0
 30
0.0
 40
37.99999999999995
 50
168.7546569117431
 51
251.2453430882579
  0
ARC
  5
E2
  8
1
 62
     7
 10
290.0
 20
0.0
 30
0.0
 40
38.0
 50
48.754656911743162
 51
131.2453430882579
  0
ARC
  5
E3
  8
1
 62
     7
 10
198.54968028912859
 20
-38.271788836374753
 30
0.0
 40
5.2000000000000117
 50
105.0435939075583
 51
147.78916313221481
  0
ARC
  5
E4
  8
1
 62
     7
 10
198.54968028912859
 20
-37.72821116362524
 30
0.0
 40
5.2000000000001556
 50
212.21083686778709
 51
254.95640609244219
  0
ARC
  5
E5
  8
1
 62
     7
 10
0.0
 20
0.0
 30
0.0
 40
53.349999999999987
 50
159.5876974959267
 51
200.41230250407321
  0
ARC
  5
E6
  8
1
 62
     7
 10
0.0
 20
0.0
 30
0.0
 40
53.999999999999993
 50
157.8083934337271
 51
202.19160656627281
  0
ARC
  5
E7
  8
1
 62
     7
 10
0.0
 20
0.0
 30
0.0
 40
53.349999999999987
 50
249.5876974959267
 51
290.41230250407318
  0
ARC
  5
E8
  8
1
 62
     7
 10
0.0
 20
0.0
 30
0.0
 40
53.999999999999993
 50
247.8083934337271
 51
292.19160656627281
  0
ARC
  5
E9
  8
1
 62
     7
 10
0.0
 20
0.0
 30
0.0
 40
53.349999999999987
 50
339.58769749592659
 51
20.41230250407332
  0
ARC
  5
EA
  8
1
 62
     7
 10
0.0
 20
0.0
 30
0.0
 40
53.349999999999987
 50
69.587697495926719
 51
110.4123025040733
  0
ARC
  5
EB
  8
1
 62
     7
 10
0.0
 20
0.0
 30
0.0
 40
53.999999999999993
 50
337.80839343372719
 51
22.191606566272799
  0
ARC
  5
EC
  8
1
 62
     7
 10
0.0
 20
0.0
 30
0.0
 40
54.0
 50
92.653530867405848
 51
112.1916065662728
  0
ARC
  5
ED
  8
1
 62
     3
 10
290.0
 20
0.0
 30
0.0
 40
38.0
 50
135.0
 51
164.99999999999989
  0
ARC
  5
EE
  8
1
 62
     3
 10
290.0
 20
0.0
 30
0.0
 40
38.000000000000021
 50
15.0
 51
44.999999999999893
  0
ARC
  5
EF
  8
1
 62
     3
 10
290.0
 20
0.0
 30
0.0
 40
38.000000000000057
 50
255.0
 51
285.00000000000011
  0
ARC
  5
F0
  8
1
 62
     7
 10
290.0
 20
0.0
 30
0.0
 40
41.999999999999957
 50
184.9999999999998
 51
235.0000000000004
  0
ARC
  5
F1
  8
1
 62
     7
 10
290.0
 20
0.0
 30
0.0
 40
42.000000000000028
 50
64.999999999999972
 51
115.0000000000003
  0
ARC
  5
F2
  8
1
 62
     7
 10
273.36628334581951
 20
-23.75540928438112
 30
0.0
 40
13.00000000000014
 50
235.0000000000002
 51
333.38873908787531
  0
ARC
  5
F3
  8
1
 62
     7
 10
277.7440704095194
 20
26.28292582406311
 30
0.0
 40
13.00000000000005
 50
115.0000000000003
 51
213.38873908787579
  0
ARC
  5
F4
  8
1
 62
     7
 10
306.63371665418032
 20
-23.755409284380889
 30
0.0
 40
13.00000000000006
 50
206.6112609121254
 51
304.9999999999996
  0
ARC
  5
F5
  8
1
 62
     7
 10
290.0
 20
0.0
 30
0.0
 40
30.000000000000188
 50
260.38490390492649
 51
279.61509609507351
  0
ARC
  5
F6
  8
1
 62
     7
 10
261.11035375533942
 20
-2.5275165396820962
 30
0.0
 40
13.00000000000003
 50
86.611260912126099
 51
184.99999999999929
  0
ARC
  5
F7
  8
1
 62
     7
 10
290.0
 20
0.0
 30
0.0
 40
30.000000000000139
 50
140.38490390492649
 51
159.6150960950738
  0
ARC
  5
F8
  8
1
 62
     7
 10
302.25592959048032
 20
26.28292582406289
 30
0.0
 40
13.00000000000003
 50
326.61126091212577
 51
64.999999999999986
  0
ARC
  5
F9
  8
1
 62
     7
 10
290.0
 20
0.0
 30
0.0
 40
30.00000000000011
 50
20.384903904926482
 51
39.61509609507371
  0
ARC
  5
FA
  8
1
 62
     7
 10
318.88964624466098
 20
-2.5275165396819821
 30
0.0
 40
13.0
 50
355.00000000000063
 51
93.388739087875621
  0
ARC
  5
FB
  8
1
 62
     7
 10
290.0
 20
0.0
 30
0.0
 40
42.000000000000121
 50
304.99999999999977
 51
355.0000000000004
  0
ARC
  5
FC
  8
1
 62
     7
 10
290.0
 20
0.0
 30
0.0
 40
53.000000000000107
 50
180.0
 51
239.99999999999989
  0
ARC
  5
FD
  8
1
 62
     7
 10
290.0
 20
0.0
 30
0.0
 40
53.000000000000057
 50
59.999999999999908
 51
119.9999999999999
  0
ARC
  5
FE
  8
1
 62
     7
 10
275.99999999999937
 20
-24.248711305964662
 30
0.0
 40
24.999999999999439
 50
240.0000000000006
 51
291.61827242215799
  0
ARC
  5
FF
  8
1
 62
     7
 10
275.99999999999989
 20
24.248711305964889
 30
0.0
 40
24.999999999999378
 50
120.0000000000002
 51
171.6182724221575
  0
ARC
  5
100
  8
1
 62
     7
 10
290.00000000000011
 20
-59.575754771278859
 30
0.0
 40
13.00000000000278
 50
68.38172757784325
 51
111.61827242215681
  0
ARC
  5
101
  8
1
 62
     7
 10
303.99999999999989
 20
-24.248711305964431
 30
0.0
 40
24.999999999999961
 50
248.3817275778442
 51
300.00000000000011
  0
ARC
  5
102
  8
1
 62
     7
 10
238.40588291844051
 20
29.787877385639259
 30
0.0
 40
13.000000000002821
 50
308.38172757784349
 51
351.6182724221573
  0
ARC
  5
103
  8
1
 62
     7
 10
261.99999999999989
 20
0.0
 30
0.0
 40
24.99999999999994
 50
128.3817275778438
 51
180.0
  0
ARC
  5
104
  8
1
 62
     7
 10
318.00000000000051
 20
-0.0000000000002274
 30
0.0
 40
24.999999999999599
 50
0.0000000000005211
 51
51.618272422157602
  0
ARC
  5
105
  8
1
 62
     7
 10
341.59411708155932
 20
29.7878773856396
 30
0.0
 40
13.00000000000283
 50
188.38172757784369
 51
231.6182724221575
  0
ARC
  5
106
  8
1
 62
     7
 10
304.00000000000011
 20
24.248711305964321
 30
0.0
 40
24.99999999999989
 50
8.3817275778439804
 51
60.0
  0
ARC
  5
107
  8
1
 62
     7
 10
290.0
 20
0.0
 30
0.0
 40
52.999999999999972
 50
299.99999999999977
 51
0.0
  0
ARC
  5
108
  8
1
 62
     3
 10
290.0
 20
0.0
 30
0.0
 40
60.999999999999957
 50
307.49999999999977
 51
322.5
  0
ARC
  5
109
  8
1
 62
     3
 10
290.0
 20
0.0
 30
0.0
 40
60.999999999999957
 50
217.5
 51
232.5
  0
ARC
  5
10A
  8
1
 62
     3
 10
290.0
 20
0.0
 30
0.0
 40
61.000000000000007
 50
127.5
 51
142.5
  0
ARC
  5
10B
  8
1
 62
     3
 10
290.0
 20
0.0
 30
0.0
 40
60.999999999999972
 50
37.5
 51
52.500000000000071
  0
ARC
  5
10C
  8
1
 62
     7
 10
290.0
 20
0.0
 30
0.0
 40
67.499999999999915
 50
42.20544640373236
 51
47.794553596267718
  0
ARC
  5
10D
  8
1
 62
     7
 10
290.0
 20
0.0
 30
0.0
 40
67.499999999999972
 50
312.20544640373231
 51
317.79455359626758
  0
ARC
  5
10E
  8
1
 62
     7
 10
290.0
 20
0.0
 30
0.0
 40
67.499999999999972
 50
132.20544640373231
 51
137.7945535962676
  0
ARC
  5
10F
  8
1
 62
     3
 10
0.0
 20
0.0
 30
0.0
 40
61.0
 50
307.5
 51
322.5
  0
ARC
  5
110
  8
1
 62
     3
 10
0.0
 20
0.0
 30
0.0
 40
61.0
 50
217.5
 51
232.5
  0
ARC
  5
111
  8
1
 62
     3
 10
0.0
 20
0.0
 30
0.0
 40
60.999999999999993
 50
127.5
 51
142.5
  0
ARC
  5
112
  8
1
 62
     3
 10
0.0
 20
0.0
 30
0.0
 40
60.999999999999993
 50
37.5
 51
52.5
  0
ARC
  5
113
  8
1
 62
     7
 10
0.0
 20
0.0
 30
0.0
 40
67.5
 50
42.205446403732289
 51
47.794553596267711
  0
ARC
  5
114
  8
1
 62
     7
 10
0.0
 20
0.0
 30
0.0
 40
67.5
 50
312.20544640373231
 51
317.79455359626769
  0
ARC
  5
115
  8
1
 62
     7
 10
0.0
 20
0.0
 30
0.0
 40
67.5
 50
132.20544640373231
 51
137.7945535962676
  0
ARC
  5
116
  8
1
 62
     7
 10
0.0
 20
0.0
 30
0.0
 40
54.0
 50
67.808393433727218
 51
87.346469132594166
  0
CIRCLE
  5
117
  8
1
 62
     7
 10
331.13620667976062
 20
-23.75
 30
0.0
 40
4.5000000000000746
  0
CIRCLE
  5
118
  8
1
 62
     7
 10
248.86379332023921
 20
-23.75
 30
0.0
 40
4.5000000000000746
  0
CIRCLE
  5
119
  8
1
 62
     7
 10
290.0
 20
47.5
 30
0.0
 40
4.5000000000001128
  0
CIRCLE
  5
11A
  8
1
 62
     7
 10
257.0910346561912
 20
19.0
 30
0.0
 40
5.5000000000000586
  0
CIRCLE
  5
11B
  8
1
 62
     7
 10
322.90896534380857
 20
19.0
 30
0.0
 40
5.5000000000000577
  0
CIRCLE
  5
11C
  8
1
 62
     7
 10
257.0910346561912
 20
19.0
 30
0.0
 40
2.5000000000000111
  0
CIRCLE
  5
11D
  8
1
 62
     3
 10
257.0910346561912
 20
19.0
 30
0.0
 40
1.8999999999999639
  0
CIRCLE
  5
11E
  8
1
 62
     7
 10
322.90896534380857
 20
19.0
 30
0.0
 40
2.5000000000000111
  0
CIRCLE
  5
11F
  8
1
 62
     3
 10
322.90896534380857
 20
19.0
 30
0.0
 40
1.899999999999878
  0
CIRCLE
  5
120
  8
1
 62
     7
 10
290.0
 20
-38.0
 30
0.0
 40
2.5000000000001141
  0
CIRCLE
  5
121
  8
1
 62
     3
 10
290.0
 20
-38.0
 30
0.0
 40
1.8999999999999759
  0
CIRCLE
  5
122
  8
1
 62
     7
 10
290.0
 20
-38.0
 30
0.0
 40
5.5000000000001128
  0
CIRCLE
  5
123
  8
1
 62
     7
 10
290.0
 20
0.0
 30
0.0
 40
54.0
  0
CIRCLE
  5
124
  8
1
 62
     7
 10
333.13351365237941
 20
-43.133513652379413
 30
0.0
 40
3.25
  0
CIRCLE
  5
125
  8
1
 62
     7
 10
246.86648634762059
 20
-43.133513652379392
 30
0.0
 40
3.25
  0
CIRCLE
  5
126
  8
1
 62
     7
 10
246.86648634762059
 20
43.133513652379392
 30
0.0
 40
3.25
  0
CIRCLE
  5
127
  8
1
 62
     7
 10
333.13351365237941
 20
43.133513652379392
 30
0.0
 40
3.25
  0
CIRCLE
  5
128
  8
1
 62
     7
 10
290.0
 20
0.0
 30
0.0
 40
25.999999999999879
  0
CIRCLE
  5
129
  8
1
 62
     7
 10
43.133513652379392
 20
-43.133513652379413
 30
0.0
 40
3.25
  0
CIRCLE
  5
12A
  8
1
 62
     7
 10
-43.133513652379413
 20
-43.133513652379392
 30
0.0
 40
3.25
  0
CIRCLE
  5
12B
  8
1
 62
     7
 10
-43.133513652379392
 20
43.133513652379392
 30
0.0
 40
3.25
  0
CIRCLE
  5
12C
  8
1
 62
     7
 10
43.133513652379399
 20
43.133513652379392
 30
0.0
 40
3.25
  0
CIRCLE
  5
12D
  8
1
 62
     7
 10
0.0
 20
0.0
 30
0.0
 40
26.0
  0
ARC
  5
12E
  8
1
 62
     7
 10
130.09999999999971
 20
51.5
 30
0.0
 40
0.5
 50
0.0
 51
90.0
  0
ARC
  5
12F
  8
1
 62
     7
 10
130.09999999999971
 20
43.5
 30
0.0
 40
0.5
 50
270.0
 51
0.0
  0
ARC
  5
130
  8
1
 62
     7
 10
129.2999999999997
 20
51.5
 30
0.0
 40
0.5
 50
90.0
 51
180.0
  0
ARC
  5
131
  8
1
 62
     7
 10
129.2999999999997
 20
43.5
 30
0.0
 40
0.5
 50
180.0
 51
270.0
  0
ARC
  5
132
  8
1
 62
     7
 10
200.0999999999998
 20
51.5
 30
0.0
 40
0.5
 50
0.0
 51
90.0
  0
ARC
  5
133
  8
1
 62
     7
 10
200.0999999999998
 20
43.5
 30
0.0
 40
0.5
 50
270.0
 51
0.0
  0
ARC
  5
134
  8
1
 62
     7
 10
199.29999999999981
 20
51.5
 30
0.0
 40
0.5
 50
90.0
 51
180.0
  0
ARC
  5
135
  8
1
 62
     7
 10
199.29999999999981
 20
43.5
 30
0.0
 40
0.5
 50
180.0
 51
270.0
  0
ARC
  5
136
  8
1
 62
     7
 10
176.40000000000001
 20
49.34999999999998
 30
0.0
 40
4.0
 50
90.0
 51
180.0
  0
ARC
  5
137
  8
1
 62
     7
 10
176.40000000000001
 20
31.0
 30
0.0
 40
4.0
 50
180.0
 51
270.0
  0
ARC
  5
138
  8
1
 62
     7
 10
176.40000000000001
 20
-49.350000000000001
 30
0.0
 40
4.0
 50
180.0
 51
270.0
  0
ARC
  5
139
  8
1
 62
     7
 10
176.40000000000001
 20
-31.0
 30
0.0
 40
4.0
 50
90.0
 51
180.0
  0
ARC
  5
13A
  8
1
 62
     7
 10
106.40000000000001
 20
49.34999999999998
 30
0.0
 40
4.0
 50
90.0
 51
180.0
  0
ARC
  5
13B
  8
1
 62
     7
 10
106.40000000000001
 20
-49.350000000000001
 30
0.0
 40
4.0
 50
180.0
 51
270.0
  0
TEXT
  5
13C
  8
1
 62
     7
 10
0.0
 20
99.0
 30
0.0
 40
5.0
  1
VBE 2.5
 41
0.9
  7
SIMPLEX
  0
ENDSEC
  0
EOF
