  0
SECTION
  2
HEADER
  9
$ACADVER
  1
AC1009
  9
$INSBASE
 10
0.0
 20
0.0
 30
0.0
  9
$EXTMIN
 10
-270.6397785975285
 20
-845.93242904693614
 30
0.0
  9
$EXTMAX
 10
50.617814291219872
 20
-665.13539557515276
 30
0.0
  9
$LIMMIN
 10
-270.6397785975285
 20
-845.93242904693614
  9
$LIMMAX
 10
45.468467890644568
 20
-665.13539557515287
  9
$ORTHOMODE
 70
     0
  9
$REGENMODE
 70
     1
  9
$FILLMODE
 70
     1
  9
$QTEXTMODE
 70
     0
  9
$MIRRTEXT
 70
     1
  9
$DRAGMODE
 70
     2
  9
$LTSCALE
 40
1.0
  9
$OSMODE
 70
    37
  9
$ATTMODE
 70
     1
  9
$TEXTSIZE
 40
3.5
  9
$TRACEWID
 40
0.5
  9
$TEXTSTYLE
  7
STANDARD
  9
$CLAYER
  8
0
  9
$CELTYPE
  6
BYLAYER
  9
$CECOLOR
 62
   256
  9
$DIMSCALE
 40
1.0
  9
$DIMASZ
 40
0.18
  9
$DIMEXO
 40
0.0625
  9
$DIMDLI
 40
0.38
  9
$DIMRND
 40
0.0
  9
$DIMDLE
 40
0.0
  9
$DIMEXE
 40
0.18
  9
$DIMTP
 40
0.0
  9
$DIMTM
 40
0.0
  9
$DIMTXT
 40
0.18
  9
$DIMCEN
 40
0.09
  9
$DIMTSZ
 40
0.0
  9
$DIMTOL
 70
     0
  9
$DIMLIM
 70
     0
  9
$DIMTIH
 70
     1
  9
$DIMTOH
 70
     1
  9
$DIMSE1
 70
     0
  9
$DIMSE2
 70
     0
  9
$DIMTAD
 70
     0
  9
$DIMZIN
 70
     0
  9
$DIMBLK
  1

  9
$DIMASO
 70
     1
  9
$DIMSHO
 70
     1
  9
$DIMPOST
  1

  9
$DIMAPOST
  1

  9
$DIMALT
 70
     0
  9
$DIMALTD
 70
     2
  9
$DIMALTF
 40
25.399999999999999
  9
$DIMLFAC
 40
1.0
  9
$DIMTOFL
 70
     0
  9
$DIMTVP
 40
0.0
  9
$DIMTIX
 70
     0
  9
$DIMSOXD
 70
     0
  9
$DIMSAH
 70
     0
  9
$DIMBLK1
  1

  9
$DIMBLK2
  1

  9
$DIMSTYLE
  2
STANDARD
  9
$DIMCLRD
 70
     0
  9
$DIMCLRE
 70
     0
  9
$DIMCLRT
 70
     0
  9
$DIMTFAC
 40
1.0
  9
$DIMGAP
 40
0.09
  9
$LUNITS
 70
     2
  9
$LUPREC
 70
     4
  9
$SKETCHINC
 40
0.1
  9
$FILLETRAD
 40
2.0
  9
$AUNITS
 70
     0
  9
$AUPREC
 70
     0
  9
$MENU
  1
ACAD
  9
$ELEVATION
 40
0.0
  9
$PELEVATION
 40
0.0
  9
$THICKNESS
 40
0.0
  9
$LIMCHECK
 70
     0
  9
$BLIPMODE
 70
     0
  9
$CHAMFERA
 40
0.0
  9
$CHAMFERB
 40
0.0
  9
$SKPOLY
 70
     0
  9
$TDCREATE
 40
2452095.437586342
  9
$TDUPDATE
 40
2452095.4382697912
  9
$TDINDWG
 40
0.0006967593
  9
$TDUSRTIMER
 40
0.0006967593
  9
$USRTIMER
 70
     1
  9
$ANGBASE
 50
0.0
  9
$ANGDIR
 70
     0
  9
$PDMODE
 70
     0
  9
$PDSIZE
 40
0.0
  9
$PLINEWID
 40
0.0
  9
$COORDS
 70
     1
  9
$SPLFRAME
 70
     0
  9
$SPLINETYPE
 70
     6
  9
$SPLINESEGS
 70
     8
  9
$ATTDIA
 70
     0
  9
$ATTREQ
 70
     1
  9
$HANDLING
 70
 10241
  9
$HANDSEED
  5
136
  9
$SURFTAB1
 70
     6
  9
$SURFTAB2
 70
     6
  9
$SURFTYPE
 70
     6
  9
$SURFU
 70
     6
  9
$SURFV
 70
     6
  9
$UCSNAME
  2

  9
$UCSORG
 10
0.0
 20
0.0
 30
0.0
  9
$UCSXDIR
 10
1.0
 20
0.0
 30
0.0
  9
$UCSYDIR
 10
0.0
 20
1.0
 30
0.0
  9
$PUCSNAME
  2

  9
$PUCSORG
 10
0.0
 20
0.0
 30
0.0
  9
$PUCSXDIR
 10
1.0
 20
0.0
 30
0.0
  9
$PUCSYDIR
 10
0.0
 20
1.0
 30
0.0
  9
$USERI1
 70
     0
  9
$USERI2
 70
     0
  9
$USERI3
 70
     0
  9
$USERI4
 70
     0
  9
$USERI5
 70
     0
  9
$USERR1
 40
0.0
  9
$USERR2
 40
0.0
  9
$USERR3
 40
0.0
  9
$USERR4
 40
0.0
  9
$USERR5
 40
0.0
  9
$WORLDVIEW
 70
     1
  9
$SHADEDGE
 70
     3
  9
$SHADEDIF
 70
    70
  9
$TILEMODE
 70
     1
  9
$MAXACTVP
 70
    64
  9
$PLIMCHECK
 70
     0
  9
$PEXTMIN
 10
1.0000000000000000E+020
 20
1.0000000000000000E+020
 30
1.0000000000000000E+020
  9
$PEXTMAX
 10
-1.0000000000000000E+020
 20
-1.0000000000000000E+020
 30
-1.0000000000000000E+020
  9
$PLIMMIN
 10
0.0
 20
0.0
  9
$PLIMMAX
 10
12.0
 20
9.0
  9
$UNITMODE
 70
     0
  9
$VISRETAIN
 70
     1
  9
$PLINEGEN
 70
     0
  9
$PSLTSCALE
 70
     1
  0
ENDSEC
  0
SECTION
  2
TABLES
  0
TABLE
  2
VPORT
 70
     2
  0
VPORT
  2
*ACTIVE
 70
     0
 10
0.0
 20
0.0
 11
1.0
 21
1.0
 12
-242.58099879914059
 22
-669.35704563693537
 13
0.0
 23
0.0
 14
1.0
 24
1.0
 15
0.0
 25
0.0
 16
0.0
 26
0.0
 36
1.0
 17
0.0
 27
0.0
 37
0.0
 40
8.9999989489608723
 41
3.0569948186528491
 42
50.0
 43
0.0
 44
0.0
 50
0.0
 51
0.0
 71
     0
 72
   100
 73
     1
 74
     1
 75
     0
 76
     0
 77
     0
 78
     0
  0
ENDTAB
  0
TABLE
  2
LTYPE
 70
     9
  0
LTYPE
  2
CONTINUOUS
 70
     0
  3
Solid line
 72
    65
 73
     0
 40
0.0
  0
LTYPE
  2
BORDER
 70
     0
  3
__ __ . __ __ .
 72
    65
 73
     6
 40
14.557616614586919
 49
4.159319032739119
 49
-2.079659516369559
 49
4.159319032739119
 49
-2.079659516369559
 49
0.0
 49
-2.079659516369559
  0
LTYPE
  2
CENTER
 70
     0
  3
____ _ ____ _
 72
    65
 73
     4
 40
16.637276130956469
 49
10.3982975818478
 49
-2.079659516369559
 49
2.079659516369559
 49
-2.079659516369559
  0
LTYPE
  2
DASHDOT
 70
     0
  3
__ . __ . __ .
 72
    65
 73
     4
 40
8.3186380654782397
 49
4.159319032739119
 49
-2.079659516369559
 49
0.0
 49
-2.079659516369559
  0
LTYPE
  2
DASHED
 70
     0
  3
__ __ __ __ __
 72
    65
 73
     2
 40
6.238978549108678
 49
4.159319032739119
 49
-2.079659516369559
  0
LTYPE
  2
DIVIDE
 70
     0
  3
__ . . __ . . 
 72
    65
 73
     6
 40
10.3982975818478
 49
4.159319032739119
 49
-2.079659516369559
 49
0.0
 49
-2.079659516369559
 49
0.0
 49
-2.079659516369559
  0
LTYPE
  2
DOT
 70
     0
  3
..............
 72
    65
 73
     4
 40
4.159319032739119
 49
0.0
 49
-2.079659516369559
 49
0.0
 49
-2.079659516369559
  0
LTYPE
  2
HIDDEN
 70
     0
  3
_ _ _ _ _ _ _
 72
    65
 73
     2
 40
3.119489274554339
 49
2.079659516369559
 49
-1.0398297581847791
  0
LTYPE
  2
PHANTOM
 70
     0
  3
_____ _ _ _____ _ _ 
 72
    65
 73
     6
 40
20.796595163695599
 49
10.3982975818478
 49
-2.079659516369559
 49
2.079659516369559
 49
-2.079659516369559
 49
2.079659516369559
 49
-2.079659516369559
  0
ENDTAB
  0
TABLE
  2
LAYER
 70
     2
  0
LAYER
  2
0
 70
     0
 62
     7
  6
CONTINUOUS
  0
LAYER
  2
1
 70
     0
 62
     7
  6
CONTINUOUS
  0
ENDTAB
  0
TABLE
  2
STYLE
 70
     4
  0
STYLE
  2
STANDARD
 70
     0
 40
0.0
 41
1.0
 50
0.0
 71
     0
 42
3.5
  3
txt
  4

  0
STYLE
  2
SIMPLEX
 70
     0
 40
0.0
 41
1.0
 50
0.0
 71
     0
 42
3.5
  3
simplex
  4

  0
STYLE
  2
COMPLEX
 70
     0
 40
0.0
 41
1.0
 50
0.0
 71
     0
 42
3.5
  3
complex
  4

  0
STYLE
  2
ITALIC
 70
     0
 40
0.0
 41
1.0
 50
0.0
 71
     0
 42
3.5
  3
italic
  4

  0
ENDTAB
  0
TABLE
  2
VIEW
 70
     0
  0
ENDTAB
  0
TABLE
  2
UCS
 70
     0
  0
ENDTAB
  0
TABLE
  2
APPID
 70
     1
  0
APPID
  2
ACAD
 70
     0
  0
ENDTAB
  0
TABLE
  2
DIMSTYLE
 70
     1
  0
DIMSTYLE
  2
STANDARD
 70
     0
  3

  4

  5

  6

  7

 40
1.0
 41
0.18
 42
0.0625
 43
0.38
 44
0.18
 45
0.0
 46
0.0
 47
0.0
 48
0.0
140
0.18
141
0.09
142
0.0
143
25.399999999999999
144
1.0
145
0.0
146
1.0
147
0.09
 71
     0
 72
     0
 73
     1
 74
     1
 75
     0
 76
     0
 77
     0
 78
     0
170
     0
171
     2
172
     0
173
     0
174
     0
175
     0
176
     0
177
     0
178
     0
  0
ENDTAB
  0
ENDSEC
  0
SECTION
  2
BLOCKS
  0
BLOCK
  8
0
  2
$MODEL_SPACE
 70
     0
 10
0.0
 20
0.0
 30
0.0
  3
$MODEL_SPACE
  1

  0
ENDBLK
  5
20
  8
0
  0
BLOCK
 67
     1
  8
0
  2
$PAPER_SPACE
 70
     0
 10
0.0
 20
0.0
 30
0.0
  3
$PAPER_SPACE
  1

  0
ENDBLK
  5
1C
 67
     1
  8
0
  0
ENDSEC
  0
SECTION
  2
ENTITIES
  0
LINE
  5
33
  8
1
 62
     7
 10
-122.061308515231
 20
-802.93242904693591
 30
0.0
 11
-122.061308515231
 21
-813.93242904693602
 31
0.0
  0
LINE
  5
34
  8
1
 62
     7
 10
-127.561308515231
 20
-802.93242904693591
 30
0.0
 11
-127.561308515231
 21
-831.93242904693579
 31
0.0
  0
LINE
  5
35
  8
1
 62
     7
 10
-127.361308515231
 20
-802.93242904693591
 30
0.0
 11
-127.361308515231
 21
-832.43242904693591
 31
0.0
  0
LINE
  5
36
  8
1
 62
     7
 10
-122.661308515231
 20
-753.93242904693602
 30
0.0
 11
-122.661308515231
 21
-740.43242904693602
 31
0.0
  0
LINE
  5
37
  8
1
 62
     7
 10
-156.461308515231
 20
-768.43242904693568
 30
0.0
 11
-110.4613085152311
 21
-768.43242904693568
 31
0.0
  0
LINE
  5
38
  8
1
 62
     7
 10
-110.4613085152311
 20
-765.63242904693618
 30
0.0
 11
-156.461308515231
 21
-765.63242904693618
 31
0.0
  0
LINE
  5
39
  8
1
 62
     7
 10
-110.4613085152311
 20
-788.43242904693602
 30
0.0
 11
-156.461308515231
 21
-788.43242904693602
 31
0.0
  0
LINE
  5
3A
  8
1
 62
     7
 10
-156.461308515231
 20
-760.93242904693602
 30
0.0
 11
-156.461308515231
 21
-795.93242904693602
 31
0.0
  0
LINE
  5
3B
  8
1
 62
     7
 10
-155.0613085152311
 20
-799.13242904693607
 30
0.0
 11
-155.0613085152311
 21
-845.93242904693614
 31
0.0
  0
LINE
  5
3C
  8
1
 62
     7
 10
-236.7200544404098
 20
-724.93242904693602
 30
0.0
 11
-258.2200544404098
 21
-724.93242904693602
 31
0.0
  0
LINE
  5
3D
  8
1
 62
     7
 10
-266.62005444040977
 20
-845.93242904693614
 30
0.0
 11
-266.62005444040977
 21
-728.43242904693602
 31
0.0
  0
LINE
  5
3E
  8
1
 62
     7
 10
-264.2200544404098
 20
-728.43242904693602
 30
0.0
 11
-264.2200544404098
 21
-845.93242904693614
 31
0.0
  0
LINE
  5
3F
  8
1
 62
     7
 10
-231.82005444040979
 20
-740.43242904693602
 30
0.0
 11
-232.52005444040969
 21
-740.43242904693602
 31
0.0
  0
LINE
  5
40
  8
1
 62
     7
 10
-232.52005444040969
 20
-724.43242904693602
 30
0.0
 11
-232.52005444040969
 21
-832.43242904693591
 31
0.0
  0
LINE
  5
41
  8
1
 62
     7
 10
-143.01130851523101
 20
-697.87380991183932
 30
0.0
 11
-145.51130851523101
 21
-697.87380991183932
 31
0.0
  0
LINE
  5
42
  8
1
 62
     7
 10
-143.01130851523101
 20
-724.93242904693602
 30
0.0
 11
-143.01130851523101
 21
-697.87380991183932
 31
0.0
  0
LINE
  5
43
  8
1
  6
DASHDOT
 62
     3
 10
-267.7855221988429
 20
-839.43242904693591
 30
0.0
 11
-262.95254423563091
 21
-839.43242904693591
 31
0.0
  0
LINE
  5
44
  8
1
 62
     7
 10
-127.561308515231
 20
-724.93242904693602
 30
0.0
 11
-127.561308515231
 21
-753.93242904693602
 31
0.0
  0
LINE
  5
45
  8
1
 62
     7
 10
-149.0613085152311
 20
-831.93242904693579
 30
0.0
 11
-127.561308515231
 21
-831.93242904693579
 31
0.0
  0
LINE
  5
46
  8
1
 62
     7
 10
-127.561308515231
 20
-724.93242904693602
 30
0.0
 11
-149.0613085152311
 21
-724.93242904693602
 31
0.0
  0
LINE
  5
47
  8
1
 62
     7
 10
-157.461308515231
 20
-728.43242904693602
 30
0.0
 11
-155.0613085152311
 21
-728.43242904693602
 31
0.0
  0
LINE
  5
48
  8
1
 62
     7
 10
-157.461308515231
 20
-836.18242904693602
 30
0.0
 11
-155.0613085152311
 21
-836.18242904693602
 31
0.0
  0
LINE
  5
49
  8
1
 62
     7
 10
-157.461308515231
 20
-842.68242904693602
 30
0.0
 11
-155.0613085152311
 21
-842.68242904693602
 31
0.0
  0
LINE
  5
4A
  8
1
 62
     7
 10
-157.461308515231
 20
-845.93242904693614
 30
0.0
 11
-155.0613085152311
 21
-845.93242904693614
 31
0.0
  0
LINE
  5
4B
  8
1
  6
DASHDOT
 62
     3
 10
-159.23621304989089
 20
-839.43242904693591
 30
0.0
 11
-152.35433704968059
 21
-839.43242904693591
 31
0.0
  0
LINE
  5
4C
  8
1
 62
     7
 10
-144.64751230119569
 20
-697.87380991183932
 30
0.0
 11
-144.64751230119569
 21
-692.87380991183932
 31
0.0
  0
LINE
  5
4D
  8
1
 62
     7
 10
-145.1871777049673
 20
-697.87380991183932
 30
0.0
 11
-145.1871777049673
 21
-692.87380991183932
 31
0.0
  0
LINE
  5
4E
  8
1
 62
     7
 10
-143.3354393254948
 20
-692.87380991183932
 30
0.0
 11
-143.3354393254948
 21
-697.87380991183932
 31
0.0
  0
LINE
  5
4F
  8
1
 62
     7
 10
-143.87510472926641
 20
-692.87380991183932
 30
0.0
 11
-143.87510472926641
 21
-697.87380991183932
 31
0.0
  0
LINE
  5
50
  8
1
 62
     7
 10
-127.361308515231
 20
-724.43242904693602
 30
0.0
 11
-123.361308515231
 21
-724.43242904693602
 31
0.0
  0
LINE
  5
51
  8
1
 62
     7
 10
-123.361308515231
 20
-740.43242904693602
 30
0.0
 11
-122.661308515231
 21
-740.43242904693602
 31
0.0
  0
LINE
  5
52
  8
1
 62
     7
 10
-127.361308515231
 20
-751.93242904693602
 30
0.0
 11
-122.661308515231
 21
-751.93242904693602
 31
0.0
  0
LINE
  5
53
  8
1
 62
     7
 10
-123.361308515231
 20
-725.43242904693602
 30
0.0
 11
-122.76130851523109
 21
-725.43242904693602
 31
0.0
  0
LINE
  5
54
  8
1
 62
     7
 10
-122.76130851523109
 20
-725.43242904693602
 30
0.0
 11
-122.76130851523109
 21
-737.89106068091451
 31
0.0
  0
LINE
  5
55
  8
1
 62
     7
 10
-122.76130851523109
 20
-737.89106068091451
 30
0.0
 11
-122.061308515231
 21
-740.43242904693602
 31
0.0
  0
LINE
  5
56
  8
1
 62
     7
 10
-123.361308515231
 20
-737.81999348163765
 30
0.0
 11
-122.661308515231
 21
-740.43242904693602
 31
0.0
  0
LINE
  5
57
  8
1
 62
     7
 10
-120.461308515231
 20
-726.93242904693602
 30
0.0
 11
-120.461308515231
 21
-734.93242904693602
 31
0.0
  0
LINE
  5
58
  8
1
 62
     7
 10
-122.76130851523109
 20
-735.43242904693602
 30
0.0
 11
-120.9613085152311
 21
-735.43242904693602
 31
0.0
  0
LINE
  5
59
  8
1
 62
     7
 10
-122.76130851523121
 20
-726.43242904693602
 30
0.0
 11
-120.9613085152311
 21
-726.43242904693602
 31
0.0
  0
LINE
  5
5A
  8
1
 62
     7
 10
-122.0613085152312
 20
-726.43242904693602
 30
0.0
 11
-122.061308515231
 21
-735.43242904693602
 31
0.0
  0
LINE
  5
5B
  8
1
 62
     7
 10
-120.461308515231
 20
-726.93242904693602
 30
0.0
 11
-120.9613085152311
 21
-726.43242904693602
 31
0.0
  0
LINE
  5
5C
  8
1
 62
     7
 10
-120.461308515231
 20
-734.93242904693602
 30
0.0
 11
-120.9613085152311
 21
-735.43242904693602
 31
0.0
  0
LINE
  5
5D
  8
1
 62
     7
 10
-123.361308515231
 20
-736.43242904693602
 30
0.0
 11
-122.76130851523109
 21
-736.43242904693602
 31
0.0
  0
LINE
  5
5E
  8
1
 62
     7
 10
-122.061308515231
 20
-740.43242904693602
 30
0.0
 11
-122.061308515231
 21
-753.93242904693602
 31
0.0
  0
LINE
  5
5F
  8
1
 62
     7
 10
-122.661308515231
 20
-831.43242904693591
 30
0.0
 11
-122.661308515231
 21
-802.93242904693591
 31
0.0
  0
LINE
  5
60
  8
1
 62
     7
 10
-122.661308515231
 20
-804.93242904693602
 30
0.0
 11
-127.361308515231
 21
-804.93242904693602
 31
0.0
  0
LINE
  5
61
  8
1
 62
     7
 10
-123.361308515231
 20
-832.43242904693591
 30
0.0
 11
-127.361308515231
 21
-832.43242904693591
 31
0.0
  0
LINE
  5
62
  8
1
 62
     7
 10
-127.361308515231
 20
-724.43242904693602
 30
0.0
 11
-127.361308515231
 21
-753.93242904693602
 31
0.0
  0
LINE
  5
63
  8
1
 62
     7
 10
-123.361308515231
 20
-821.68242904693591
 30
0.0
 11
-123.361308515231
 21
-832.43242904693591
 31
0.0
  0
LINE
  5
64
  8
1
 62
     7
 10
-122.661308515231
 20
-831.43242904693591
 30
0.0
 11
-122.061308515231
 21
-831.43242904693591
 31
0.0
  0
LINE
  5
65
  8
1
 62
     7
 10
-127.361308515231
 20
-811.18242904693602
 30
0.0
 11
-122.661308515231
 21
-811.18242904693602
 31
0.0
  0
LINE
  5
66
  8
1
 62
     7
 10
-127.361308515231
 20
-821.68242904693591
 30
0.0
 11
-123.361308515231
 21
-821.68242904693591
 31
0.0
  0
LINE
  5
67
  8
1
 62
     7
 10
-122.061308515231
 20
-818.93242904693591
 30
0.0
 11
-122.061308515231
 21
-831.43242904693591
 31
0.0
  0
LINE
  5
68
  8
1
 62
     7
 10
-122.061308515231
 20
-810.93242904693591
 30
0.0
 11
-119.461308515231
 21
-810.93242904693591
 31
0.0
  0
LINE
  5
69
  8
1
 62
     7
 10
-122.061308515231
 20
-821.93242904693602
 30
0.0
 11
-119.461308515231
 21
-821.93242904693602
 31
0.0
  0
LINE
  5
6A
  8
1
 62
     7
 10
-122.661308515231
 20
-808.43242904693614
 30
0.0
 11
-122.0613085152312
 21
-808.43242904693614
 31
0.0
  0
LINE
  5
6B
  8
1
 62
     7
 10
-145.51130851523101
 20
-697.87380991183932
 30
0.0
 11
-145.51130851523101
 21
-724.93242904693602
 31
0.0
  0
LINE
  5
6C
  8
1
 62
     7
 10
-144.2676063639129
 20
-697.87380991183932
 30
0.0
 11
-144.2676063639129
 21
-692.89324356448537
 31
0.0
  0
LINE
  5
6D
  8
1
  6
DASHDOT
 62
     3
 10
-157.461308515231
 20
-778.43242904693602
 30
0.0
 11
-161.4810326723499
 21
-778.43242904693602
 31
0.0
  0
LINE
  5
6E
  8
1
  6
DASHDOT
 62
     3
 10
-110.4613085152311
 20
-778.43242904693602
 30
0.0
 11
-106.6740718641518
 21
-778.43242904693602
 31
0.0
  0
LINE
  5
6F
  8
1
 62
     7
 10
-258.2200544404098
 20
-831.93242904693579
 30
0.0
 11
-236.7200544404098
 21
-831.93242904693579
 31
0.0
  0
LINE
  5
70
  8
1
 62
     7
 10
-236.7200544404098
 20
-724.93242904693602
 30
0.0
 11
-236.7200544404098
 21
-831.93242904693579
 31
0.0
  0
LINE
  5
71
  8
1
 62
     7
 10
-266.62005444040977
 20
-728.43242904693602
 30
0.0
 11
-264.2200544404098
 21
-728.43242904693602
 31
0.0
  0
LINE
  5
72
  8
1
 62
     7
 10
-266.62005444040977
 20
-845.93242904693614
 30
0.0
 11
-264.2200544404098
 21
-845.93242904693614
 31
0.0
  0
LINE
  5
73
  8
1
 62
     7
 10
-253.80625822637441
 20
-697.87380991183932
 30
0.0
 11
-253.80625822637441
 21
-692.87380991183932
 31
0.0
  0
LINE
  5
74
  8
1
 62
     7
 10
-254.34592363014599
 20
-697.87380991183932
 30
0.0
 11
-254.34592363014599
 21
-692.87380991183932
 31
0.0
  0
LINE
  5
75
  8
1
 62
     7
 10
-252.4941852506735
 20
-692.87380991183932
 30
0.0
 11
-252.4941852506735
 21
-697.87380991183932
 31
0.0
  0
LINE
  5
76
  8
1
 62
     7
 10
-253.03385065444519
 20
-692.87380991183932
 30
0.0
 11
-253.03385065444519
 21
-697.87380991183932
 31
0.0
  0
LINE
  5
77
  8
1
 62
     7
 10
-254.67005444040981
 20
-697.87380991183932
 30
0.0
 11
-252.17005444040981
 21
-697.87380991183932
 31
0.0
  0
LINE
  5
78
  8
1
 62
     7
 10
-252.17005444040981
 20
-697.87380991183932
 30
0.0
 11
-252.17005444040981
 21
-724.93242904693602
 31
0.0
  0
LINE
  5
79
  8
1
 62
     7
 10
-236.52005444040969
 20
-724.43242904693602
 30
0.0
 11
-236.52005444040969
 21
-832.43242904693591
 31
0.0
  0
LINE
  5
7A
  8
1
 62
     7
 10
-236.52005444040969
 20
-724.43242904693602
 30
0.0
 11
-232.52005444040969
 21
-724.43242904693602
 31
0.0
  0
LINE
  5
7B
  8
1
 62
     7
 10
-231.82005444040979
 20
-740.43242904693602
 30
0.0
 11
-231.82005444040979
 21
-831.43242904693591
 31
0.0
  0
LINE
  5
7C
  8
1
 62
     7
 10
-232.52005444040969
 20
-725.43242904693602
 30
0.0
 11
-231.92005444040981
 21
-725.43242904693602
 31
0.0
  0
LINE
  5
7D
  8
1
 62
     7
 10
-231.92005444040981
 20
-737.89106068091451
 30
0.0
 11
-231.2200544404098
 21
-740.43242904693602
 31
0.0
  0
LINE
  5
7E
  8
1
 62
     7
 10
-232.52005444040969
 20
-737.81999348163765
 30
0.0
 11
-231.82005444040979
 21
-740.43242904693602
 31
0.0
  0
LINE
  5
7F
  8
1
 62
     7
 10
-231.92005444040981
 20
-725.43242904693602
 30
0.0
 11
-231.92005444040981
 21
-737.89106068091451
 31
0.0
  0
LINE
  5
80
  8
1
 62
     7
 10
-231.2200544404098
 20
-726.43242904693602
 30
0.0
 11
-231.2200544404098
 21
-735.43242904693602
 31
0.0
  0
LINE
  5
81
  8
1
 62
     7
 10
-231.92005444040981
 20
-726.43242904693602
 30
0.0
 11
-230.12005444040969
 21
-726.43242904693602
 31
0.0
  0
LINE
  5
82
  8
1
 62
     7
 10
-229.6200544404098
 20
-726.93242904693602
 30
0.0
 11
-230.12005444040969
 21
-726.43242904693602
 31
0.0
  0
LINE
  5
83
  8
1
 62
     7
 10
-231.82005444040979
 20
-735.43242904693602
 30
0.0
 11
-230.12005444040969
 21
-735.43242904693602
 31
0.0
  0
LINE
  5
84
  8
1
 62
     7
 10
-229.6200544404098
 20
-726.93242904693602
 30
0.0
 11
-229.6200544404098
 21
-734.93242904693602
 31
0.0
  0
LINE
  5
85
  8
1
 62
     7
 10
-229.6200544404098
 20
-734.93242904693602
 30
0.0
 11
-230.12005444040969
 21
-735.43242904693602
 31
0.0
  0
LINE
  5
86
  8
1
 62
     7
 10
-231.2200544404098
 20
-740.43242904693602
 30
0.0
 11
-231.2200544404098
 21
-831.43242904693591
 31
0.0
  0
LINE
  5
87
  8
1
 62
     7
 10
-232.52005444040969
 20
-832.43242904693591
 30
0.0
 11
-236.52005444040969
 21
-832.43242904693591
 31
0.0
  0
LINE
  5
88
  8
1
 62
     7
 10
-231.82005444040979
 20
-831.43242904693591
 30
0.0
 11
-231.2200544404098
 21
-831.43242904693591
 31
0.0
  0
LINE
  5
89
  8
1
 62
     7
 10
-231.2200544404098
 20
-810.93242904693591
 30
0.0
 11
-228.6200544404098
 21
-810.93242904693591
 31
0.0
  0
LINE
  5
8A
  8
1
 62
     7
 10
-231.2200544404098
 20
-821.93242904693602
 30
0.0
 11
-228.6200544404098
 21
-821.93242904693602
 31
0.0
  0
LINE
  5
8B
  8
1
 62
     7
 10
-254.67005444040981
 20
-697.87380991183932
 30
0.0
 11
-254.67005444040981
 21
-724.93242904693602
 31
0.0
  0
LINE
  5
8C
  8
1
 62
     7
 10
-253.4263522890916
 20
-697.87380991183932
 30
0.0
 11
-253.4263522890916
 21
-692.89324356448537
 31
0.0
  0
LINE
  5
8D
  8
1
  6
DASHDOT
 62
     3
 10
-266.62005444040977
 20
-778.43242904693602
 30
0.0
 11
-270.6397785975285
 21
-778.43242904693602
 31
0.0
  0
LINE
  5
8E
  8
1
 62
     7
 10
-119.461308515231
 20
-801.43242904693602
 30
0.0
 11
-119.461308515231
 21
-814.53242904693604
 31
0.0
  0
LINE
  5
8F
  8
1
 62
     7
 10
-119.461308515231
 20
-818.33242904693589
 30
0.0
 11
-119.461308515231
 21
-821.93242904693602
 31
0.0
  0
LINE
  5
90
  8
1
 62
     7
 10
-155.0613085152311
 20
-728.43242904693602
 30
0.0
 11
-155.0613085152311
 21
-757.73242904693609
 31
0.0
  0
LINE
  5
91
  8
1
 62
     7
 10
-157.461308515231
 20
-845.93242904693614
 30
0.0
 11
-157.461308515231
 21
-728.43242904693602
 31
0.0
  0
LINE
  5
92
  8
1
 62
     7
 10
-123.361308515231
 20
-724.43242904693602
 30
0.0
 11
-123.361308515231
 21
-740.43242904693602
 31
0.0
  0
LINE
  5
93
  8
1
 62
     7
 10
-122.661308515231
 20
-820.93242904693614
 30
0.0
 11
-123.26130851523099
 21
-820.93242904693614
 31
0.0
  0
LINE
  5
94
  8
1
 62
     7
 10
-123.26130851523099
 20
-811.93242904693614
 30
0.0
 11
-122.661308515231
 21
-811.93242904693614
 31
0.0
  0
LINE
  5
95
  8
1
 62
     7
 10
-123.26130851523099
 20
-811.68242904693591
 30
0.0
 11
-123.76130851523109
 21
-811.68242904693591
 31
0.0
  0
LINE
  5
96
  8
1
 62
     7
 10
-123.76130851523109
 20
-811.68242904693591
 30
0.0
 11
-123.76130851523109
 21
-821.18242904693602
 31
0.0
  0
LINE
  5
97
  8
1
 62
     7
 10
-123.76130851523109
 20
-821.18242904693602
 30
0.0
 11
-123.26130851523099
 21
-821.18242904693602
 31
0.0
  0
LINE
  5
98
  8
1
 62
     7
 10
-123.26130851523099
 20
-821.18242904693602
 30
0.0
 11
-123.26130851523099
 21
-811.68242904693591
 31
0.0
  0
LINE
  5
99
  8
1
 62
     7
 10
-126.8113085152311
 20
-813.93242904693602
 30
0.0
 11
-126.8113085152311
 21
-818.93242904693591
 31
0.0
  0
LINE
  5
9A
  8
1
 62
     7
 10
-111.861308515231
 20
-813.93242904693602
 30
0.0
 11
-111.26130851523121
 21
-814.53242904693604
 31
0.0
  0
LINE
  5
9B
  8
1
 62
     7
 10
-111.26130851523121
 20
-814.53242904693604
 30
0.0
 11
-111.26130851523121
 21
-818.33242904693589
 31
0.0
  0
LINE
  5
9C
  8
1
 62
     7
 10
-111.26130851523121
 20
-818.33242904693589
 30
0.0
 11
-111.861308515231
 21
-818.93242904693591
 31
0.0
  0
LINE
  5
9D
  8
1
 62
     7
 10
-111.861308515231
 20
-818.93242904693591
 30
0.0
 11
-122.661308515231
 21
-818.93242904693591
 31
0.0
  0
LINE
  5
9E
  8
1
 62
     7
 10
-111.861308515231
 20
-813.93242904693602
 30
0.0
 11
-111.861308515231
 21
-818.93242904693591
 31
0.0
  0
LINE
  5
9F
  8
1
 62
     3
 10
-111.26130851523121
 20
-814.53242904693604
 30
0.0
 11
-121.7220780306897
 21
-814.53242904693604
 31
0.0
  0
LINE
  5
A0
  8
1
 62
     3
 10
-121.7220780306897
 20
-814.53242904693604
 30
0.0
 11
-122.661308515231
 21
-813.990164073855
 31
0.0
  0
LINE
  5
A1
  8
1
 62
     3
 10
-111.26130851523121
 20
-818.33242904693589
 30
0.0
 11
-121.7220780306897
 21
-818.33242904693589
 31
0.0
  0
LINE
  5
A2
  8
1
 62
     3
 10
-121.7220780306897
 20
-818.33242904693589
 30
0.0
 11
-122.661308515231
 21
-818.87469402001705
 31
0.0
  0
LINE
  5
A3
  8
1
 62
     3
 10
-121.7220780306897
 20
-813.93242904693602
 30
0.0
 11
-121.7220780306897
 21
-818.93242904693591
 31
0.0
  0
LINE
  5
A4
  8
1
 62
     7
 10
-122.661308515231
 20
-813.93242904693602
 30
0.0
 11
-111.861308515231
 21
-813.93242904693602
 31
0.0
  0
LINE
  5
A5
  8
1
 62
     7
 10
-231.22005444040971
 20
-801.43242904693602
 30
0.0
 11
-228.6200544404096
 21
-801.43242904693602
 31
0.0
  0
LINE
  5
A6
  8
1
 62
     7
 10
-228.6200544404098
 20
-755.43242904693591
 30
0.0
 11
-231.22005444040971
 21
-755.43242904693591
 31
0.0
  0
LINE
  5
A7
  8
1
 62
     7
 10
-219.62005444040969
 20
-821.43242904693602
 30
0.0
 11
-228.6200544404098
 21
-821.43242904693602
 31
0.0
  0
LINE
  5
A8
  8
1
 62
     7
 10
-219.62005444040969
 20
-735.43242904693602
 30
0.0
 11
-228.6200544404098
 21
-735.43242904693602
 31
0.0
  0
LINE
  5
A9
  8
1
 62
     7
 10
-219.62005444040969
 20
-821.43242904693602
 30
0.0
 11
-219.62005444040969
 21
-735.43242904693602
 31
0.0
  0
LINE
  5
AA
  8
1
 62
     7
 10
-150.961308515231
 20
-798.93242904693602
 30
0.0
 11
-153.66130851523101
 21
-798.93242904693602
 31
0.0
  0
LINE
  5
AB
  8
1
 62
     7
 10
-150.961308515231
 20
-757.93242904693602
 30
0.0
 11
-153.66130851523101
 21
-757.93242904693602
 31
0.0
  0
LINE
  5
AC
  8
1
 62
     7
 10
-153.66130851523101
 20
-795.93242904693602
 30
0.0
 11
-130.961308515231
 21
-795.93242904693602
 31
0.0
  0
LINE
  5
AD
  8
1
 62
     7
 10
-155.1613085152311
 20
-794.93242904693602
 30
0.0
 11
-153.66130851523101
 21
-794.93242904693602
 31
0.0
  0
LINE
  5
AE
  8
1
 62
     7
 10
-153.66130851523101
 20
-794.93242904693602
 30
0.0
 11
-153.66130851523101
 21
-799.13242904693607
 31
0.0
  0
LINE
  5
AF
  8
1
 62
     7
 10
-153.66130851523101
 20
-799.13242904693607
 30
0.0
 11
-155.1613085152311
 21
-799.13242904693607
 31
0.0
  0
LINE
  5
B0
  8
1
 62
     7
 10
-155.1613085152311
 20
-799.13242904693607
 30
0.0
 11
-155.1613085152311
 21
-794.93242904693602
 31
0.0
  0
LINE
  5
B1
  8
1
 62
     7
 10
-155.1613085152311
 20
-760.93242904693602
 30
0.0
 11
-156.461308515231
 21
-760.93242904693602
 31
0.0
  0
LINE
  5
B2
  8
1
 62
     7
 10
-153.66130851523101
 20
-761.93242904693602
 30
0.0
 11
-155.1613085152311
 21
-761.93242904693602
 31
0.0
  0
LINE
  5
B3
  8
1
 62
     7
 10
-153.66130851523101
 20
-757.73242904693609
 30
0.0
 11
-153.66130851523101
 21
-761.93242904693602
 31
0.0
  0
LINE
  5
B4
  8
1
 62
     7
 10
-155.1613085152311
 20
-757.73242904693609
 30
0.0
 11
-153.66130851523101
 21
-757.73242904693609
 31
0.0
  0
LINE
  5
B5
  8
1
 62
     7
 10
-155.1613085152311
 20
-761.93242904693602
 30
0.0
 11
-155.1613085152311
 21
-757.73242904693609
 31
0.0
  0
LINE
  5
B6
  8
1
 62
     7
 10
-129.961308515231
 20
-805.43242904693591
 30
0.0
 11
-127.56130851523091
 21
-805.43242904693591
 31
0.0
  0
LINE
  5
B7
  8
1
 62
     7
 10
-155.0613085152311
 20
-806.082429046936
 30
0.0
 11
-157.461308515231
 21
-806.082429046936
 31
0.0
  0
LINE
  5
B8
  8
1
 62
     7
 10
-129.961308515231
 20
-802.93242904693591
 30
0.0
 11
-129.961308515231
 21
-805.93242904693602
 31
0.0
  0
LINE
  5
B9
  8
1
 62
     7
 10
-129.961308515231
 20
-805.93242904693602
 30
0.0
 11
-151.4592242768874
 21
-805.93242904693602
 31
0.0
  0
LINE
  5
BA
  8
1
 62
     7
 10
-150.961308515231
 20
-805.93242904693602
 30
0.0
 11
-150.961308515231
 21
-795.93242904693602
 31
0.0
  0
LINE
  5
BB
  8
1
 62
     7
 10
-137.461308515231
 20
-803.53050525828928
 30
0.0
 11
-144.461308515231
 21
-803.53050525828928
 31
0.0
  0
LINE
  5
BC
  8
1
 62
     7
 10
-150.961308515231
 20
-803.53050525828928
 30
0.0
 11
-147.461308515231
 21
-803.53050525828928
 31
0.0
  0
LINE
  5
BD
  8
1
 62
     7
 10
-150.961308515231
 20
-798.33435283558276
 30
0.0
 11
-147.461308515231
 21
-798.33435283558276
 31
0.0
  0
LINE
  5
BE
  8
1
 62
     7
 10
-149.961308515231
 20
-803.93242904693614
 30
0.0
 11
-149.961308515231
 21
-797.93242904693602
 31
0.0
  0
LINE
  5
BF
  8
1
 62
     7
 10
-130.961308515231
 20
-803.53050525828928
 30
0.0
 11
-134.461308515231
 21
-803.53050525828928
 31
0.0
  0
LINE
  5
C0
  8
1
 62
     7
 10
-144.461308515231
 20
-798.33435283558276
 30
0.0
 11
-137.461308515231
 21
-798.33435283558276
 31
0.0
  0
LINE
  5
C1
  8
1
 62
     7
 10
-130.961308515231
 20
-798.33435283558276
 30
0.0
 11
-134.461308515231
 21
-798.33435283558276
 31
0.0
  0
LINE
  5
C2
  8
1
 62
     7
 10
-130.961308515231
 20
-805.93242904693602
 30
0.0
 11
-130.961308515231
 21
-795.93242904693602
 31
0.0
  0
LINE
  5
C3
  8
1
 62
     7
 10
-131.961308515231
 20
-803.93242904693614
 30
0.0
 11
-131.961308515231
 21
-797.93242904693602
 31
0.0
  0
LINE
  5
C4
  8
1
 62
     7
 10
-156.461308515231
 20
-795.93242904693602
 30
0.0
 11
-155.1613085152311
 21
-795.93242904693602
 31
0.0
  0
LINE
  5
C5
  8
1
 62
     7
 10
-130.961308515231
 20
-760.93242904693602
 30
0.0
 11
-153.66130851523101
 21
-760.93242904693602
 31
0.0
  0
LINE
  5
C6
  8
1
 62
     7
 10
-129.961308515231
 20
-750.93242904693602
 30
0.0
 11
-129.961308515231
 21
-753.93242904693602
 31
0.0
  0
LINE
  5
C7
  8
1
 62
     7
 10
-151.4592242768874
 20
-750.93242904693602
 30
0.0
 11
-129.961308515231
 21
-750.93242904693602
 31
0.0
  0
LINE
  5
C8
  8
1
 62
     7
 10
-150.961308515231
 20
-760.93242904693602
 30
0.0
 11
-150.961308515231
 21
-750.93242904693602
 31
0.0
  0
LINE
  5
C9
  8
1
 62
     7
 10
-144.461308515231
 20
-753.33435283558265
 30
0.0
 11
-137.461308515231
 21
-753.33435283558265
 31
0.0
  0
LINE
  5
CA
  8
1
 62
     7
 10
-147.461308515231
 20
-753.33435283558265
 30
0.0
 11
-150.961308515231
 21
-753.33435283558265
 31
0.0
  0
LINE
  5
CB
  8
1
 62
     7
 10
-147.461308515231
 20
-758.53050525828905
 30
0.0
 11
-150.961308515231
 21
-758.53050525828905
 31
0.0
  0
LINE
  5
CC
  8
1
 62
     7
 10
-149.961308515231
 20
-758.93242904693602
 30
0.0
 11
-149.961308515231
 21
-752.93242904693602
 31
0.0
  0
LINE
  5
CD
  8
1
 62
     7
 10
-134.461308515231
 20
-753.33435283558265
 30
0.0
 11
-130.961308515231
 21
-753.33435283558265
 31
0.0
  0
LINE
  5
CE
  8
1
 62
     7
 10
-137.461308515231
 20
-758.53050525828905
 30
0.0
 11
-144.461308515231
 21
-758.53050525828905
 31
0.0
  0
LINE
  5
CF
  8
1
 62
     7
 10
-134.461308515231
 20
-758.53050525828905
 30
0.0
 11
-130.961308515231
 21
-758.53050525828905
 31
0.0
  0
LINE
  5
D0
  8
1
 62
     7
 10
-130.961308515231
 20
-760.93242904693602
 30
0.0
 11
-130.961308515231
 21
-750.93242904693602
 31
0.0
  0
LINE
  5
D1
  8
1
 62
     7
 10
-131.961308515231
 20
-758.93242904693602
 30
0.0
 11
-131.961308515231
 21
-752.93242904693602
 31
0.0
  0
LINE
  5
D2
  8
1
 62
     7
 10
-119.461308515231
 20
-801.43242904693602
 30
0.0
 11
-130.961308515231
 21
-801.43242904693602
 31
0.0
  0
LINE
  5
D3
  8
1
 62
     7
 10
-119.461308515231
 20
-755.43242904693591
 30
0.0
 11
-130.961308515231
 21
-755.43242904693591
 31
0.0
  0
LINE
  5
D4
  8
1
 62
     7
 10
-119.461308515231
 20
-735.43242904693602
 30
0.0
 11
-119.461308515231
 21
-755.43242904693591
 31
0.0
  0
LINE
  5
D5
  8
1
 62
     7
 10
-110.4613085152311
 20
-735.43242904693602
 30
0.0
 11
-119.461308515231
 21
-735.43242904693602
 31
0.0
  0
LINE
  5
D6
  8
1
 62
     7
 10
-110.4613085152311
 20
-821.43242904693602
 30
0.0
 11
-110.4613085152311
 21
-735.43242904693602
 31
0.0
  0
LINE
  5
D7
  8
1
 62
     7
 10
-110.4613085152311
 20
-821.43242904693602
 30
0.0
 11
-119.461308515231
 21
-821.43242904693602
 31
0.0
  0
LINE
  5
D8
  8
1
 62
     7
 10
-10.4065321093554
 20
-698.43242904693602
 30
0.0
 11
-10.4065321093554
 21
-703.43242904693602
 31
0.0
  0
LINE
  5
D9
  8
1
 62
     7
 10
-7.9065321093553962
 20
-698.43242904693602
 30
0.0
 11
-7.9065321093553962
 21
-703.43242904693602
 31
0.0
  0
LINE
  5
DA
  8
1
 62
     7
 10
-9.7815321093553962
 20
-698.43242904693602
 30
0.0
 11
-9.7815321093553962
 21
-703.43242904693602
 31
0.0
  0
LINE
  5
DB
  8
1
 62
     7
 10
-9.1565321093553962
 20
-698.43242904693602
 30
0.0
 11
-9.1565321093553962
 21
-703.43242904693602
 31
0.0
  0
LINE
  5
DC
  8
1
 62
     7
 10
-7.2815321093553962
 20
-698.43242904693602
 30
0.0
 11
-7.2815321093553962
 21
-703.43242904693602
 31
0.0
  0
LINE
  5
DD
  8
1
 62
     7
 10
-6.6565321093553962
 20
-698.43242904693602
 30
0.0
 11
-6.6565321093553962
 21
-703.43242904693602
 31
0.0
  0
LINE
  5
DE
  8
1
 62
     7
 10
-11.031532109355391
 20
-703.43242904693602
 30
0.0
 11
-6.0315321093553962
 21
-703.43242904693602
 31
0.0
  0
LINE
  5
DF
  8
1
 62
     7
 10
-6.0315321093553962
 20
-724.49033045965473
 30
0.0
 11
-6.0315321093553962
 21
-703.43242904693602
 31
0.0
  0
LINE
  5
E0
  8
1
 62
     7
 10
-11.031532109355391
 20
-724.49033045965473
 30
0.0
 11
-11.031532109355391
 21
-703.43242904693602
 31
0.0
  0
LINE
  5
E1
  8
1
 62
     7
 10
-58.531532109355432
 20
-733.08653617889343
 30
0.0
 11
-58.531532109355432
 21
-758.03635099256485
 31
0.0
  0
LINE
  5
E2
  8
1
 62
     7
 10
-58.531532109355432
 20
-798.8285071013072
 30
0.0
 11
-58.531532109355432
 21
-823.77832191497862
 31
0.0
  0
LINE
  5
E3
  8
1
 62
     7
 10
-53.877424977398022
 20
-828.43242904693602
 30
0.0
 11
-28.927610163726499
 21
-828.43242904693602
 31
0.0
  0
LINE
  5
E4
  8
1
 62
     7
 10
11.86454594501577
 20
-828.43242904693602
 30
0.0
 11
36.814360758687201
 21
-828.43242904693602
 31
0.0
  0
LINE
  5
E5
  8
1
 62
     7
 10
41.468467890644597
 20
-798.8285071013072
 30
0.0
 11
41.468467890644597
 21
-823.77832191497862
 31
0.0
  0
LINE
  5
E6
  8
1
 62
     7
 10
41.468467890644597
 20
-733.08653617889343
 30
0.0
 11
41.468467890644597
 21
-758.03635099256485
 31
0.0
  0
LINE
  5
E7
  8
1
 62
     7
 10
11.86454594501568
 20
-728.43242904693602
 30
0.0
 11
36.814360758687293
 21
-728.43242904693602
 31
0.0
  0
LINE
  5
E8
  8
1
 62
     7
 10
-53.877424977398022
 20
-728.43242904693602
 30
0.0
 11
-28.927610163726499
 21
-728.43242904693602
 31
0.0
  0
LINE
  5
E9
  8
1
 62
     7
 10
-11.5315321093554
 20
-768.89303703276653
 30
0.0
 11
-11.5315321093554
 21
-765.63242904693618
 31
0.0
  0
LINE
  5
EA
  8
1
 62
     7
 10
-11.5315321093554
 20
-765.63242904693618
 30
0.0
 11
-5.5315321093553962
 21
-765.63242904693618
 31
0.0
  0
LINE
  5
EB
  8
1
 62
     7
 10
-5.5315321093553962
 20
-765.63242904693618
 30
0.0
 11
-5.5315321093553962
 21
-768.89303703276653
 31
0.0
  0
LINE
  5
EC
  8
1
  6
DASHDOT
 62
     3
 10
-8.5315321093553962
 20
-774.43242904693602
 30
0.0
 11
-8.5315321093553962
 21
-782.43242904693602
 31
0.0
  0
LINE
  5
ED
  8
1
  6
DASHDOT
 62
     3
 10
-12.5315321093554
 20
-778.43242904693602
 30
0.0
 11
-4.5315321093553962
 21
-778.43242904693602
 31
0.0
  0
LINE
  5
EE
  8
1
 62
     7
 10
-8.5315321093553962
 20
-703.43242904693602
 30
0.0
 11
-8.5315321093553962
 21
-724.43242904693602
 31
0.0
  0
LINE
  5
EF
  8
1
  6
DASHDOT
 62
     3
 10
31.773554418277801
 20
-738.12734251930283
 30
0.0
 11
37.430408667770202
 21
-732.47048826981052
 31
0.0
  0
LINE
  5
F0
  8
1
  6
DASHDOT
 62
     3
 10
-48.836618636988611
 20
-738.12734251930283
 30
0.0
 11
-54.49347288648098
 21
-732.47048826981052
 31
0.0
  0
LINE
  5
F1
  8
1
  6
DASHDOT
 62
     3
 10
-48.836618636988653
 20
-818.73751557456933
 30
0.0
 11
-54.493472886481037
 21
-824.3943698240613
 31
0.0
  0
LINE
  5
F2
  8
1
  6
DASHDOT
 62
     3
 10
31.773554418277801
 20
-818.73751557456933
 30
0.0
 11
37.430408667770067
 21
-824.3943698240613
 31
0.0
  0
LINE
  5
F3
  8
1
  6
DASHDOT
 62
     3
 10
-219.62005444040969
 20
-778.43242904693602
 30
0.0
 11
-215.83281778933039
 21
-778.43242904693602
 31
0.0
  0
LINE
  5
F4
  8
1
 62
     7
 10
-157.461308515231
 20
-750.78242904693604
 30
0.0
 11
-155.0613085152311
 21
-750.78242904693604
 31
0.0
  0
LINE
  5
F5
  8
1
 62
     7
 10
-127.56130851523091
 20
-751.43242904693602
 30
0.0
 11
-129.961308515231
 21
-751.43242904693602
 31
0.0
  0
LINE
  5
F6
  8
1
 62
     7
 10
-228.6200544404098
 20
-821.93242904693602
 30
0.0
 11
-228.6200544404098
 21
-735.43242904693602
 31
0.0
  0
ARC
  5
F7
  8
1
 62
     7
 10
-149.0613085152311
 20
-825.93242904693602
 30
0.0
 40
6.0
 50
180.0
 51
270.0
  0
ARC
  5
F8
  8
1
 62
     7
 10
-149.0613085152311
 20
-730.93242904693602
 30
0.0
 40
6.0
 50
90.0
 51
180.0
  0
ARC
  5
F9
  8
1
 62
     7
 10
-258.2200544404098
 20
-825.93242904693602
 30
0.0
 40
6.0
 50
180.0
 51
270.0
  0
ARC
  5
FA
  8
1
 62
     7
 10
-258.2200544404098
 20
-730.93242904693602
 30
0.0
 40
6.0
 50
90.0
 51
180.0
  0
ARC
  5
FB
  8
1
 62
     7
 10
-122.4116282261022
 20
-816.70421788331055
 30
0.0
 40
5.1999999999999771
 50
105.0435939075571
 51
147.78916313221441
  0
ARC
  5
FC
  8
1
 62
     7
 10
-122.4116282261022
 20
-816.16064021056127
 30
0.0
 40
5.1999999999999664
 50
212.21083686778559
 51
254.95640609244271
  0
ARC
  5
FD
  8
1
 62
     7
 10
-149.0613085152311
 20
-745.43242904693602
 30
0.0
 40
6.0
 50
180.0
 51
246.4435356908993
  0
ARC
  5
FE
  8
1
 62
     7
 10
5.4684678906446029
 20
-754.1837177409717
 30
0.0
 40
24.999999999999979
 50
7.2416928344777176
 51
60.000000000000099
  0
ARC
  5
FF
  8
1
 62
     7
 10
42.916980969051281
 20
-747.74620329217885
 30
0.0
 40
13.067856656893589
 50
194.56434433361849
 51
213.7524461763316
  0
ARC
  5
100
  8
1
 62
     7
 10
43.767775479732073
 20
-749.21982261147855
 30
0.0
 40
13.06785665689355
 50
206.24755382366789
 51
225.43565566638131
  0
ARC
  5
101
  8
1
 62
     7
 10
19.4684678906446
 20
-778.43242904693602
 30
0.0
 40
25.0
 50
0.0
 51
52.758307165522488
  0
ARC
  5
102
  8
1
 62
     7
 10
-8.5315321093553962
 20
-778.43242904693602
 30
0.0
 40
53.000000000000021
 50
60.000000000000021
 51
119.9999999999999
  0
ARC
  5
103
  8
1
 62
     7
 10
-22.53153210935541
 20
-754.1837177409717
 30
0.0
 40
25.000000000000089
 50
119.9999999999999
 51
172.7583071655223
  0
ARC
  5
104
  8
1
 62
     7
 10
-59.980045187762023
 20
-747.74620329217885
 30
0.0
 40
13.06785665689349
 50
326.24755382366811
 51
345.43565566638131
  0
ARC
  5
105
  8
1
 62
     7
 10
-60.830839698442901
 20
-749.21982261147832
 30
0.0
 40
13.067856656893669
 50
314.56434433361812
 51
333.7524461763312
  0
ARC
  5
106
  8
1
 62
     7
 10
-36.531532109355403
 20
-778.43242904693602
 30
0.0
 40
25.000000000000071
 50
127.24169283447731
 51
180.0
  0
ARC
  5
107
  8
1
 62
     7
 10
-8.5315321093553962
 20
-778.43242904693602
 30
0.0
 40
53.0
 50
180.0
 51
239.99999999999989
  0
ARC
  5
108
  8
1
 62
     7
 10
-22.53153210935551
 20
-802.68114035290023
 30
0.0
 40
25.000000000000028
 50
240.00000000000031
 51
292.75830716552218
  0
ARC
  5
109
  8
1
 62
     7
 10
-9.3823266200363058
 20
-838.33126123715056
 30
0.0
 40
13.06785665689349
 50
86.247553823667545
 51
105.43565566638171
  0
ARC
  5
10A
  8
1
 62
     7
 10
-7.6807375986745967
 20
-838.33126123715056
 30
0.0
 40
13.06785665689358
 50
74.564344333618834
 51
93.752446176332441
  0
ARC
  5
10B
  8
1
 62
     7
 10
5.4684678906446029
 20
-802.68114035290023
 30
0.0
 40
25.00000000000005
 50
247.2416928344775
 51
299.99999999999977
  0
ARC
  5
10C
  8
1
 62
     7
 10
-8.5315321093553962
 20
-778.43242904693602
 30
0.0
 40
53.000000000000021
 50
299.99999999999989
 51
0.0
  0
ARC
  5
10D
  8
1
 62
     7
 10
24.377433234453282
 20
-759.43242904693614
 30
0.0
 40
5.5000000000000266
 50
3.7057771055217539
 51
56.294222894479319
  0
ARC
  5
10E
  8
1
 62
     7
 10
-8.5315321093553962
 20
-778.43242904693602
 30
0.0
 40
67.499999999999901
 50
42.205446403732203
 51
47.794553596267683
  0
ARC
  5
10F
  8
1
 62
     7
 10
-8.5315321093553962
 20
-778.43242904693602
 30
0.0
 40
67.5
 50
132.20544640373231
 51
137.79455359626769
  0
ARC
  5
110
  8
1
 62
     7
 10
-8.5315321093553962
 20
-778.43242904693602
 30
0.0
 40
67.500000000000014
 50
222.2054464037322
 51
227.79455359626769
  0
ARC
  5
111
  8
1
 62
     7
 10
-8.5315321093553962
 20
-778.43242904693602
 30
0.0
 40
67.499999999999972
 50
312.20544640373231
 51
317.7945535962678
  0
ARC
  5
112
  8
1
 62
     7
 10
-8.5315321093553962
 20
-816.43242904693614
 30
0.0
 40
5.4999999999999218
 50
243.70577710551979
 51
296.29422289447882
  0
ARC
  5
113
  8
1
 62
     7
 10
-41.440497453164099
 20
-759.43242904693614
 30
0.0
 40
5.5000000000000258
 50
123.7057771055207
 51
176.2942228944782
  0
ARC
  5
114
  8
1
 62
     7
 10
-8.5315321093553962
 20
-778.43242904693602
 30
0.0
 40
10.00000000000003
 50
107.45760312372209
 51
72.542396876277977
  0
ARC
  5
115
  8
1
  6
DASHDOT
 62
     3
 10
-8.5315321093553962
 20
-778.43242904693602
 30
0.0
 40
60.999999999999943
 50
41.240201942662388
 51
48.759798057337569
  0
ARC
  5
116
  8
1
  6
DASHDOT
 62
     3
 10
-8.5315321093553962
 20
-778.43242904693602
 30
0.0
 40
61.000000000000043
 50
131.2402019426624
 51
138.75979805733749
  0
ARC
  5
117
  8
1
  6
DASHDOT
 62
     3
 10
-8.5315321093553962
 20
-778.43242904693602
 30
0.0
 40
60.999999999999972
 50
221.24020194266231
 51
228.75979805733741
  0
ARC
  5
118
  8
1
  6
DASHDOT
 62
     3
 10
-8.5315321093553962
 20
-778.43242904693602
 30
0.0
 40
60.999999999999972
 50
311.24020194266228
 51
318.7597980573376
  0
ARC
  5
119
  8
1
 62
     7
 10
-149.0613085152311
 20
-811.43242904693602
 30
0.0
 40
5.9999999999999716
 50
113.5564643091006
 51
180.0
  0
CIRCLE
  5
11A
  8
1
 62
     7
 10
-145.961308515231
 20
-800.93242904693602
 30
0.0
 40
3.0
  0
CIRCLE
  5
11B
  8
1
 62
     7
 10
-135.961308515231
 20
-800.93242904693602
 30
0.0
 40
3.0
  0
CIRCLE
  5
11C
  8
1
 62
     7
 10
-145.961308515231
 20
-755.93242904693602
 30
0.0
 40
3.0
  0
CIRCLE
  5
11D
  8
1
 62
     7
 10
-135.961308515231
 20
-755.93242904693602
 30
0.0
 40
3.0
  0
CIRCLE
  5
11E
  8
1
 62
     7
 10
-8.5315321093553962
 20
-778.43242904693602
 30
0.0
 40
53.999999999999979
  0
CIRCLE
  5
11F
  8
1
 62
     7
 10
-8.5315321093553962
 20
-730.93242904693602
 30
0.0
 40
4.5000000000000044
  0
CIRCLE
  5
120
  8
1
 62
     7
 10
-8.5315321093553962
 20
-816.43242904693614
 30
0.0
 40
2.500000000000008
  0
CIRCLE
  5
121
  8
1
 62
     7
 10
-8.5315321093553962
 20
-816.43242904693614
 30
0.0
 40
2.0000000000000648
  0
CIRCLE
  5
122
  8
1
 62
     7
 10
-49.667738789116243
 20
-802.18242904693614
 30
0.0
 40
4.49999999999996
  0
CIRCLE
  5
123
  8
1
 62
     7
 10
32.604674570405471
 20
-802.18242904693614
 30
0.0
 40
4.4999999999998774
  0
CIRCLE
  5
124
  8
1
 62
     7
 10
24.377433234453282
 20
-759.43242904693614
 30
0.0
 40
2.500000000000008
  0
CIRCLE
  5
125
  8
1
 62
     7
 10
24.377433234453282
 20
-759.43242904693614
 30
0.0
 40
2.0000000000000648
  0
CIRCLE
  5
126
  8
1
 62
     7
 10
-41.440497453164099
 20
-759.43242904693614
 30
0.0
 40
2.0000000000001639
  0
CIRCLE
  5
127
  8
1
 62
     7
 10
-51.665045761734802
 20
-735.29891539455673
 30
0.0
 40
3.25
  0
CIRCLE
  5
128
  8
1
 62
     7
 10
34.601981543023982
 20
-735.29891539455673
 30
0.0
 40
3.25
  0
CIRCLE
  5
129
  8
1
 62
     7
 10
34.601981543023982
 20
-821.5659426993152
 30
0.0
 40
3.25
  0
CIRCLE
  5
12A
  8
1
 62
     7
 10
-51.665045761734802
 20
-821.5659426993152
 30
0.0
 40
3.25
  0
CIRCLE
  5
12B
  8
1
 62
     7
 10
-41.440497453164099
 20
-759.43242904693614
 30
0.0
 40
2.5
  0
CIRCLE
  5
12C
  8
1
 62
     7
 10
-8.5315321093553962
 20
-778.43242904693602
 30
0.0
 40
42.999999999999993
  0
TEXT
  5
12D
  8
1
 62
     7
 10
-259.75430946224981
 20
-669.13539557515287
 30
0.0
 40
4.0
  1
VBEH 2.5P
 41
0.9
  7
SIMPLEX
  0
ENDSEC
  0
EOF
