  0
SECTION
  2
HEADER
  9
$ACADVER
  1
AC1009
  9
$INSBASE
 10
0.0
 20
0.0
 30
0.0
  9
$EXTMIN
 10
-123.52885410256179
 20
-82.500000000000014
 30
0.0
  9
$EXTMAX
 10
252.9612069777917
 20
125.13305584326299
 30
0.0
  9
$LIMMIN
 10
-123.52885410256179
 20
-82.500000000000014
  9
$LIMMAX
 10
246.18750492423439
 20
125.13305584326299
  9
$ORTHOMODE
 70
     0
  9
$REGENMODE
 70
     1
  9
$FILLMODE
 70
     1
  9
$QTEXTMODE
 70
     0
  9
$MIRRTEXT
 70
     1
  9
$DRAGMODE
 70
     2
  9
$LTSCALE
 40
1.0
  9
$OSMODE
 70
    37
  9
$ATTMODE
 70
     1
  9
$TEXTSIZE
 40
3.5
  9
$TRACEWID
 40
0.5
  9
$TEXTSTYLE
  7
STANDARD
  9
$CLAYER
  8
0
  9
$CELTYPE
  6
BYLAYER
  9
$CECOLOR
 62
   256
  9
$DIMSCALE
 40
1.0
  9
$DIMASZ
 40
0.18
  9
$DIMEXO
 40
0.0625
  9
$DIMDLI
 40
0.38
  9
$DIMRND
 40
0.0
  9
$DIMDLE
 40
0.0
  9
$DIMEXE
 40
0.18
  9
$DIMTP
 40
0.0
  9
$DIMTM
 40
0.0
  9
$DIMTXT
 40
0.18
  9
$DIMCEN
 40
0.09
  9
$DIMTSZ
 40
0.0
  9
$DIMTOL
 70
     0
  9
$DIMLIM
 70
     0
  9
$DIMTIH
 70
     1
  9
$DIMTOH
 70
     1
  9
$DIMSE1
 70
     0
  9
$DIMSE2
 70
     0
  9
$DIMTAD
 70
     0
  9
$DIMZIN
 70
     0
  9
$DIMBLK
  1

  9
$DIMASO
 70
     1
  9
$DIMSHO
 70
     1
  9
$DIMPOST
  1

  9
$DIMAPOST
  1

  9
$DIMALT
 70
     0
  9
$DIMALTD
 70
     2
  9
$DIMALTF
 40
25.399999999999999
  9
$DIMLFAC
 40
1.0
  9
$DIMTOFL
 70
     0
  9
$DIMTVP
 40
0.0
  9
$DIMTIX
 70
     0
  9
$DIMSOXD
 70
     0
  9
$DIMSAH
 70
     0
  9
$DIMBLK1
  1

  9
$DIMBLK2
  1

  9
$DIMSTYLE
  2
STANDARD
  9
$DIMCLRD
 70
     0
  9
$DIMCLRE
 70
     0
  9
$DIMCLRT
 70
     0
  9
$DIMTFAC
 40
1.0
  9
$DIMGAP
 40
0.09
  9
$LUNITS
 70
     2
  9
$LUPREC
 70
     4
  9
$SKETCHINC
 40
0.1
  9
$FILLETRAD
 40
2.0
  9
$AUNITS
 70
     0
  9
$AUPREC
 70
     0
  9
$MENU
  1
ACAD
  9
$ELEVATION
 40
0.0
  9
$PELEVATION
 40
0.0
  9
$THICKNESS
 40
0.0
  9
$LIMCHECK
 70
     0
  9
$BLIPMODE
 70
     0
  9
$CHAMFERA
 40
0.0
  9
$CHAMFERB
 40
0.0
  9
$SKPOLY
 70
     0
  9
$TDCREATE
 40
2452095.4386975691
  9
$TDUPDATE
 40
2452095.4394420129
  9
$TDINDWG
 40
0.0007546296
  9
$TDUSRTIMER
 40
0.0007546296
  9
$USRTIMER
 70
     1
  9
$ANGBASE
 50
0.0
  9
$ANGDIR
 70
     0
  9
$PDMODE
 70
     0
  9
$PDSIZE
 40
0.0
  9
$PLINEWID
 40
0.0
  9
$COORDS
 70
     1
  9
$SPLFRAME
 70
     0
  9
$SPLINETYPE
 70
     6
  9
$SPLINESEGS
 70
     8
  9
$ATTDIA
 70
     0
  9
$ATTREQ
 70
     1
  9
$HANDLING
 70
 10241
  9
$HANDSEED
  5
145
  9
$SURFTAB1
 70
     6
  9
$SURFTAB2
 70
     6
  9
$SURFTYPE
 70
     6
  9
$SURFU
 70
     6
  9
$SURFV
 70
     6
  9
$UCSNAME
  2

  9
$UCSORG
 10
0.0
 20
0.0
 30
0.0
  9
$UCSXDIR
 10
1.0
 20
0.0
 30
0.0
  9
$UCSYDIR
 10
0.0
 20
1.0
 30
0.0
  9
$PUCSNAME
  2

  9
$PUCSORG
 10
0.0
 20
0.0
 30
0.0
  9
$PUCSXDIR
 10
1.0
 20
0.0
 30
0.0
  9
$PUCSYDIR
 10
0.0
 20
1.0
 30
0.0
  9
$USERI1
 70
     0
  9
$USERI2
 70
     0
  9
$USERI3
 70
     0
  9
$USERI4
 70
     0
  9
$USERI5
 70
     0
  9
$USERR1
 40
0.0
  9
$USERR2
 40
0.0
  9
$USERR3
 40
0.0
  9
$USERR4
 40
0.0
  9
$USERR5
 40
0.0
  9
$WORLDVIEW
 70
     1
  9
$SHADEDGE
 70
     3
  9
$SHADEDIF
 70
    70
  9
$TILEMODE
 70
     1
  9
$MAXACTVP
 70
    64
  9
$PLIMCHECK
 70
     0
  9
$PEXTMIN
 10
1.0000000000000000E+020
 20
1.0000000000000000E+020
 30
1.0000000000000000E+020
  9
$PEXTMAX
 10
-1.0000000000000000E+020
 20
-1.0000000000000000E+020
 30
-1.0000000000000000E+020
  9
$PLIMMIN
 10
0.0
 20
0.0
  9
$PLIMMAX
 10
12.0
 20
9.0
  9
$UNITMODE
 70
     0
  9
$VISRETAIN
 70
     1
  9
$PLINEGEN
 70
     0
  9
$PSLTSCALE
 70
     1
  0
ENDSEC
  0
SECTION
  2
TABLES
  0
TABLE
  2
VPORT
 70
     2
  0
VPORT
  2
*ACTIVE
 70
     0
 10
0.0
 20
0.0
 11
1.0
 21
1.0
 12
-92.993698540179906
 22
117.58141256772009
 13
0.0
 23
0.0
 14
1.0
 24
1.0
 15
0.0
 25
0.0
 16
0.0
 26
0.0
 36
1.0
 17
0.0
 27
0.0
 37
0.0
 40
8.9999999674337232
 41
3.0569948186528491
 42
50.0
 43
0.0
 44
0.0
 50
0.0
 51
0.0
 71
     0
 72
   100
 73
     1
 74
     1
 75
     0
 76
     0
 77
     0
 78
     0
  0
ENDTAB
  0
TABLE
  2
LTYPE
 70
     9
  0
LTYPE
  2
CONTINUOUS
 70
     0
  3
Solid line
 72
    65
 73
     0
 40
0.0
  0
LTYPE
  2
BORDER
 70
     0
  3
__ __ . __ __ .
 72
    65
 73
     6
 40
17.026411270970879
 49
4.8646889345631079
 49
-2.432344467281554
 49
4.8646889345631079
 49
-2.432344467281554
 49
0.0
 49
-2.432344467281554
  0
LTYPE
  2
CENTER
 70
     0
  3
____ _ ____ _
 72
    65
 73
     4
 40
19.458755738252439
 49
12.16172233640776
 49
-2.432344467281554
 49
2.432344467281554
 49
-2.432344467281554
  0
LTYPE
  2
DASHDOT
 70
     0
  3
__ . __ . __ .
 72
    65
 73
     4
 40
9.7293778691262176
 49
4.8646889345631079
 49
-2.432344467281554
 49
0.0
 49
-2.432344467281554
  0
LTYPE
  2
DASHED
 70
     0
  3
__ __ __ __ __
 72
    65
 73
     2
 40
7.2970334018446623
 49
4.8646889345631079
 49
-2.432344467281554
  0
LTYPE
  2
DIVIDE
 70
     0
  3
__ . . __ . . 
 72
    65
 73
     6
 40
12.16172233640776
 49
4.8646889345631079
 49
-2.432344467281554
 49
0.0
 49
-2.432344467281554
 49
0.0
 49
-2.432344467281554
  0
LTYPE
  2
DOT
 70
     0
  3
..............
 72
    65
 73
     4
 40
4.8646889345631079
 49
0.0
 49
-2.432344467281554
 49
0.0
 49
-2.432344467281554
  0
LTYPE
  2
HIDDEN
 70
     0
  3
_ _ _ _ _ _ _
 72
    65
 73
     2
 40
3.6485167009223312
 49
2.432344467281554
 49
-1.216172233640777
  0
LTYPE
  2
PHANTOM
 70
     0
  3
_____ _ _ _____ _ _ 
 72
    65
 73
     6
 40
24.32344467281553
 49
12.16172233640776
 49
-2.432344467281554
 49
2.432344467281554
 49
-2.432344467281554
 49
2.432344467281554
 49
-2.432344467281554
  0
ENDTAB
  0
TABLE
  2
LAYER
 70
     2
  0
LAYER
  2
0
 70
     0
 62
     7
  6
CONTINUOUS
  0
LAYER
  2
1
 70
     0
 62
     7
  6
CONTINUOUS
  0
ENDTAB
  0
TABLE
  2
STYLE
 70
     4
  0
STYLE
  2
STANDARD
 70
     0
 40
0.0
 41
1.0
 50
0.0
 71
     0
 42
3.5
  3
txt
  4

  0
STYLE
  2
SIMPLEX
 70
     0
 40
0.0
 41
1.0
 50
0.0
 71
     0
 42
3.5
  3
simplex
  4

  0
STYLE
  2
COMPLEX
 70
     0
 40
0.0
 41
1.0
 50
0.0
 71
     0
 42
3.5
  3
complex
  4

  0
STYLE
  2
ITALIC
 70
     0
 40
0.0
 41
1.0
 50
0.0
 71
     0
 42
3.5
  3
italic
  4

  0
ENDTAB
  0
TABLE
  2
VIEW
 70
     0
  0
ENDTAB
  0
TABLE
  2
UCS
 70
     0
  0
ENDTAB
  0
TABLE
  2
APPID
 70
     1
  0
APPID
  2
ACAD
 70
     0
  0
ENDTAB
  0
TABLE
  2
DIMSTYLE
 70
     1
  0
DIMSTYLE
  2
STANDARD
 70
     0
  3

  4

  5

  6

  7

 40
1.0
 41
0.18
 42
0.0625
 43
0.38
 44
0.18
 45
0.0
 46
0.0
 47
0.0
 48
0.0
140
0.18
141
0.09
142
0.0
143
25.399999999999999
144
1.0
145
0.0
146
1.0
147
0.09
 71
     0
 72
     0
 73
     1
 74
     1
 75
     0
 76
     0
 77
     0
 78
     0
170
     0
171
     2
172
     0
173
     0
174
     0
175
     0
176
     0
177
     0
178
     0
  0
ENDTAB
  0
ENDSEC
  0
SECTION
  2
BLOCKS
  0
BLOCK
  8
0
  2
$MODEL_SPACE
 70
     0
 10
0.0
 20
0.0
 30
0.0
  3
$MODEL_SPACE
  1

  0
ENDBLK
  5
20
  8
0
  0
BLOCK
 67
     1
  8
0
  2
$PAPER_SPACE
 70
     0
 10
0.0
 20
0.0
 30
0.0
  3
$PAPER_SPACE
  1

  0
ENDBLK
  5
1C
 67
     1
  8
0
  0
ENDSEC
  0
SECTION
  2
ENTITIES
  0
LINE
  5
33
  8
1
 62
     7
 10
-78.673687078978773
 20
-53.999999999999993
 30
0.0
 11
-78.673687078978773
 21
53.500000000000028
 31
0.0
  0
LINE
  5
34
  8
1
  6
DASHDOT
 62
     3
 10
-121.0744900269078
 20
-75.0
 30
0.0
 11
-116.6680738274557
 21
-75.0
 31
0.0
  0
LINE
  5
35
  8
1
  6
DASHDOT
 62
     3
 10
46.000000000000107
 20
0.0
 30
0.0
 11
49.765538203574948
 21
0.0
 31
0.0
  0
LINE
  5
36
  8
1
  6
DASHDOT
 62
     3
 10
-67.673687078978773
 20
-0.0000000000000036
 30
0.0
 11
-65.009430049664189
 21
-0.0000000000000036
 31
0.0
  0
LINE
  5
37
  8
1
  6
DASHDOT
 62
     3
 10
-120.1736870789787
 20
0.0
 30
0.0
 11
-123.52885410256179
 21
0.0
 31
0.0
  0
LINE
  5
38
  8
1
 62
     7
 10
-81.573687078978779
 20
-53.999999999999993
 30
0.0
 11
-78.673687078978773
 21
-53.999999999999993
 31
0.0
  0
LINE
  5
39
  8
1
 62
     7
 10
-81.573687078978779
 20
-40.999999999999993
 30
0.0
 11
-78.673687078978773
 21
-40.999999999999993
 31
0.0
  0
LINE
  5
3A
  8
1
 62
     7
 10
-82.573687078978779
 20
-66.536725737242591
 30
0.0
 11
-81.573687078978779
 21
-66.536725737242591
 31
0.0
  0
LINE
  5
3B
  8
1
 62
     7
 10
-81.573687078978779
 20
-65.77328821041904
 30
0.0
 11
-81.573687078978779
 21
-66.536725737242591
 31
0.0
  0
LINE
  5
3C
  8
1
 62
     7
 10
-82.37368707897879
 20
50.61729314364247
 30
0.0
 11
-81.573687078978779
 21
47.631652497587382
 31
0.0
  0
LINE
  5
3D
  8
1
 62
     7
 10
-83.373687078978776
 20
50.485640646055103
 30
0.0
 11
-82.573687078978779
 21
47.5
 31
0.0
  0
LINE
  5
3E
  8
1
 62
     7
 10
-82.37368707897879
 20
66.5
 30
0.0
 11
-82.37368707897879
 21
50.61729314364247
 31
0.0
  0
LINE
  5
3F
  8
1
 62
     7
 10
-80.073687078978779
 20
55.5
 30
0.0
 11
-79.573687078978764
 21
56.000000000000007
 31
0.0
  0
LINE
  5
40
  8
1
 62
     7
 10
-80.073687078978779
 20
65.5
 30
0.0
 11
-79.573687078978764
 21
65.0
 31
0.0
  0
LINE
  5
41
  8
1
 62
     7
 10
-81.673687078978801
 20
65.5
 30
0.0
 11
-81.673687078978801
 21
55.5
 31
0.0
  0
LINE
  5
42
  8
1
 62
     7
 10
-83.373687078978776
 20
66.5
 30
0.0
 11
-82.37368707897879
 21
66.5
 31
0.0
  0
LINE
  5
43
  8
1
 62
     7
 10
-82.37368707897879
 20
65.5
 30
0.0
 11
-80.073687078978779
 21
65.5
 31
0.0
  0
LINE
  5
44
  8
1
 62
     7
 10
-82.37368707897879
 20
55.5
 30
0.0
 11
-80.073687078978779
 21
55.5
 31
0.0
  0
LINE
  5
45
  8
1
 62
     7
 10
-79.573687078978764
 20
65.0
 30
0.0
 11
-79.573687078978764
 21
56.000000000000007
 31
0.0
  0
LINE
  5
46
  8
1
 62
     7
 10
-83.373687078978776
 20
-68.0
 30
0.0
 11
-88.273687078978796
 21
-68.0
 31
0.0
  0
LINE
  5
47
  8
1
 62
     7
 10
-82.573687078978779
 20
47.5
 30
0.0
 11
-82.573687078978779
 21
-66.536725737242591
 31
0.0
  0
LINE
  5
48
  8
1
 62
     7
 10
-88.273687078978796
 20
68.0
 30
0.0
 11
-83.373687078978776
 21
68.0
 31
0.0
  0
LINE
  5
49
  8
1
 62
     7
 10
-88.273687078978796
 20
68.0
 30
0.0
 11
-88.273687078978796
 21
-68.0
 31
0.0
  0
LINE
  5
4A
  8
1
 62
     7
 10
-106.9210010849682
 20
94.033768074585055
 30
0.0
 11
-106.9210010849682
 21
99.033768074585055
 31
0.0
  0
LINE
  5
4B
  8
1
 62
     7
 10
-106.5132926278184
 20
94.033768074585055
 30
0.0
 11
-106.5132926278184
 21
99.033768074585055
 31
0.0
  0
LINE
  5
4C
  8
1
 62
     7
 10
-105.6263730729891
 20
99.033768074585055
 30
0.0
 11
-105.6263730729891
 21
94.033768074585055
 31
0.0
  0
LINE
  5
4D
  8
1
 62
     7
 10
-106.0340815301391
 20
99.033768074585055
 30
0.0
 11
-106.0340815301391
 21
94.033768074585055
 31
0.0
  0
LINE
  5
4E
  8
1
 62
     7
 10
-107.57368707897879
 20
94.033768074585055
 30
0.0
 11
-104.9736870789788
 21
94.033768074585055
 31
0.0
  0
LINE
  5
4F
  8
1
 62
     7
 10
-104.9736870789788
 20
94.033768074585055
 30
0.0
 11
-104.9736870789788
 21
67.5
 31
0.0
  0
LINE
  5
50
  8
1
 62
     7
 10
-107.57368707897879
 20
94.033768074585055
 30
0.0
 11
-107.57368707897879
 21
67.5
 31
0.0
  0
LINE
  5
51
  8
1
 62
     7
 10
-111.8736870789788
 20
-67.500000000000014
 30
0.0
 11
-88.473687078978784
 21
-67.500000000000014
 31
0.0
  0
LINE
  5
52
  8
1
 62
     7
 10
-88.473687078978784
 20
67.5
 30
0.0
 11
-88.473687078978784
 21
-67.500000000000014
 31
0.0
  0
LINE
  5
53
  8
1
 62
     7
 10
-88.473687078978784
 20
67.5
 30
0.0
 11
-111.8736870789788
 21
67.5
 31
0.0
  0
LINE
  5
54
  8
1
 62
     7
 10
-120.1736870789787
 20
62.5
 30
0.0
 11
-117.7736870789788
 21
62.500000000000071
 31
0.0
  0
LINE
  5
55
  8
1
 62
     7
 10
-120.1736870789787
 20
-82.500000000000014
 30
0.0
 11
-117.7736870789788
 21
-82.500000000000014
 31
0.0
  0
LINE
  5
56
  8
1
  6
DASHDOT
 62
     3
 10
-6.499999999999897
 20
0.0
 30
0.0
 11
-9.8551670235829043
 21
0.0
 31
0.0
  0
LINE
  5
57
  8
1
 62
     7
 10
31.100000000000009
 20
-58.281226189436751
 30
0.0
 11
32.100000000000001
 21
-58.281226189436751
 31
0.0
  0
LINE
  5
58
  8
1
 62
     7
 10
32.100000000000051
 20
-50.499999999999993
 30
0.0
 11
32.100000000000051
 21
-66.536725737242591
 31
0.0
  0
LINE
  5
59
  8
1
 62
     7
 10
32.100000000000051
 20
-53.999999999999993
 30
0.0
 11
35.000000000000028
 21
-53.999999999999993
 31
0.0
  0
LINE
  5
5A
  8
1
 62
     7
 10
32.100000000000051
 20
-40.999999999999993
 30
0.0
 11
35.000000000000028
 21
-40.999999999999993
 31
0.0
  0
LINE
  5
5B
  8
1
 62
     7
 10
30.30000000000005
 20
-53.499999999999993
 30
0.0
 11
30.30000000000005
 21
-68.0
 31
0.0
  0
LINE
  5
5C
  8
1
 62
     7
 10
25.400000000000041
 20
-53.499999999999993
 30
0.0
 11
30.30000000000005
 21
-53.499999999999993
 31
0.0
  0
LINE
  5
5D
  8
1
 62
     7
 10
25.400000000000041
 20
-41.499999999999993
 30
0.0
 11
31.100000000000051
 21
-41.499999999999993
 31
0.0
  0
LINE
  5
5E
  8
1
 62
     7
 10
31.100000000000009
 20
-38.499999999999993
 30
0.0
 11
32.100000000000001
 21
-38.499999999999993
 31
0.0
  0
LINE
  5
5F
  8
1
 62
     7
 10
31.100000000000051
 20
-66.536725737242591
 30
0.0
 11
32.100000000000051
 21
-66.536725737242591
 31
0.0
  0
LINE
  5
60
  8
1
 62
     7
 10
32.100000000000051
 20
47.631652497587382
 30
0.0
 11
32.100000000000051
 21
28.5
 31
0.0
  0
LINE
  5
61
  8
1
 62
     7
 10
31.300000000000061
 20
50.61729314364247
 30
0.0
 11
32.100000000000051
 21
47.631652497587382
 31
0.0
  0
LINE
  5
62
  8
1
 62
     7
 10
30.30000000000005
 20
50.485640646055103
 30
0.0
 11
31.100000000000051
 21
47.5
 31
0.0
  0
LINE
  5
63
  8
1
 62
     7
 10
30.30000000000005
 20
54.500000000000007
 30
0.0
 11
31.300000000000061
 21
54.500000000000007
 31
0.0
  0
LINE
  5
64
  8
1
 62
     7
 10
33.600000000000072
 20
55.5
 30
0.0
 11
34.100000000000072
 21
56.000000000000007
 31
0.0
  0
LINE
  5
65
  8
1
 62
     7
 10
33.600000000000072
 20
65.5
 30
0.0
 11
34.100000000000072
 21
65.0
 31
0.0
  0
LINE
  5
66
  8
1
 62
     7
 10
32.00000000000005
 20
65.5
 30
0.0
 11
32.00000000000005
 21
55.5
 31
0.0
  0
LINE
  5
67
  8
1
 62
     7
 10
30.30000000000005
 20
66.5
 30
0.0
 11
31.300000000000061
 21
66.5
 31
0.0
  0
LINE
  5
68
  8
1
 62
     7
 10
31.300000000000061
 20
65.5
 30
0.0
 11
33.600000000000072
 21
65.5
 31
0.0
  0
LINE
  5
69
  8
1
 62
     7
 10
31.300000000000061
 20
55.5
 30
0.0
 11
33.600000000000072
 21
55.5
 31
0.0
  0
LINE
  5
6A
  8
1
 62
     7
 10
34.100000000000072
 20
65.0
 30
0.0
 11
34.100000000000072
 21
56.000000000000007
 31
0.0
  0
LINE
  5
6B
  8
1
 62
     7
 10
25.400000000000041
 20
68.0
 30
0.0
 11
25.400000000000041
 21
31.5
 31
0.0
  0
LINE
  5
6C
  8
1
 62
     7
 10
30.30000000000005
 20
-68.0
 30
0.0
 11
25.400000000000041
 21
-68.0
 31
0.0
  0
LINE
  5
6D
  8
1
 62
     7
 10
31.100000000000051
 20
-32.999999999999993
 30
0.0
 11
25.400000000000041
 21
-32.999999999999993
 31
0.0
  0
LINE
  5
6E
  8
1
 62
     7
 10
25.400000000000041
 20
32.999999999999993
 30
0.0
 11
31.100000000000051
 21
32.999999999999993
 31
0.0
  0
LINE
  5
6F
  8
1
 62
     7
 10
31.100000000000051
 20
47.5
 30
0.0
 11
31.100000000000051
 21
28.5
 31
0.0
  0
LINE
  5
70
  8
1
 62
     7
 10
30.30000000000005
 20
47.5
 30
0.0
 11
31.100000000000051
 21
47.5
 31
0.0
  0
LINE
  5
71
  8
1
 62
     7
 10
25.400000000000041
 20
68.0
 30
0.0
 11
30.30000000000005
 21
68.0
 31
0.0
  0
LINE
  5
72
  8
1
 62
     7
 10
6.7526859940106077
 20
94.033768074585055
 30
0.0
 11
6.7526859940106077
 21
99.033768074585055
 31
0.0
  0
LINE
  5
73
  8
1
 62
     7
 10
7.1603944511604594
 20
94.033768074585055
 30
0.0
 11
7.1603944511604594
 21
99.033768074585055
 31
0.0
  0
LINE
  5
74
  8
1
 62
     7
 10
8.0473140059896675
 20
99.033768074585055
 30
0.0
 11
8.0473140059896675
 21
94.033768074585055
 31
0.0
  0
LINE
  5
75
  8
1
 62
     7
 10
7.6396055488398176
 20
99.033768074585055
 30
0.0
 11
7.6396055488398176
 21
94.033768074585055
 31
0.0
  0
LINE
  5
76
  8
1
 62
     7
 10
6.100000000000068
 20
94.033768074585055
 30
0.0
 11
8.7000000000000881
 21
94.033768074585055
 31
0.0
  0
LINE
  5
77
  8
1
 62
     7
 10
8.7000000000000881
 20
94.033768074585055
 30
0.0
 11
8.7000000000000881
 21
67.5
 31
0.0
  0
LINE
  5
78
  8
1
 62
     7
 10
1.800000000000058
 20
-67.500000000000014
 30
0.0
 11
25.200000000000049
 21
-67.500000000000014
 31
0.0
  0
LINE
  5
79
  8
1
 62
     7
 10
25.200000000000049
 20
67.5
 30
0.0
 11
25.200000000000049
 21
31.5
 31
0.0
  0
LINE
  5
7A
  8
1
 62
     7
 10
25.200000000000049
 20
67.5
 30
0.0
 11
1.8000000000000549
 21
67.5
 31
0.0
  0
LINE
  5
7B
  8
1
 62
     7
 10
-6.499999999999897
 20
62.5
 30
0.0
 11
-4.0999999999999188
 21
62.500000000000071
 31
0.0
  0
LINE
  5
7C
  8
1
 62
     7
 10
-6.499999999999897
 20
62.5
 30
0.0
 11
-6.499999999999897
 21
-82.500000000000014
 31
0.0
  0
LINE
  5
7D
  8
1
 62
     7
 10
-6.499999999999897
 20
-78.250000000000014
 30
0.0
 11
-4.099999999999806
 21
-78.25
 31
0.0
  0
LINE
  5
7E
  8
1
  6
DASHDOT
 62
     3
 10
-7.7630974495256284
 20
-75.000000000000014
 30
0.0
 11
-2.374253620611523
 21
-75.0
 31
0.0
  0
LINE
  5
7F
  8
1
 62
     7
 10
-6.499999999999897
 20
-71.750000000000014
 30
0.0
 11
-4.0999999999999188
 21
-71.750000000000014
 31
0.0
  0
LINE
  5
80
  8
1
 62
     7
 10
-6.499999999999897
 20
-82.500000000000014
 30
0.0
 11
-4.0999999999999188
 21
-82.500000000000014
 31
0.0
  0
LINE
  5
81
  8
1
 62
     7
 10
35.000000000000028
 20
-49.899999999999991
 30
0.0
 11
35.000000000000028
 21
-53.999999999999993
 31
0.0
  0
LINE
  5
82
  8
1
 62
     7
 10
-4.0999999999999188
 20
64.266961640367526
 30
0.0
 11
-4.0999999999999188
 21
-82.500000000000014
 31
0.0
  0
LINE
  5
83
  8
1
 62
     7
 10
30.30000000000005
 20
47.5
 30
0.0
 11
30.30000000000005
 21
68.0
 31
0.0
  0
LINE
  5
84
  8
1
 62
     7
 10
31.300000000000061
 20
66.5
 30
0.0
 11
31.300000000000061
 21
50.61729314364247
 31
0.0
  0
LINE
  5
85
  8
1
 62
     7
 10
31.100000000000051
 20
-52.5
 30
0.0
 11
30.400000000000048
 21
-52.5
 31
0.0
  0
LINE
  5
86
  8
1
 62
     7
 10
30.400000000000048
 20
-42.499999999999993
 30
0.0
 11
31.100000000000051
 21
-42.499999999999993
 31
0.0
  0
LINE
  5
87
  8
1
 62
     7
 10
30.400000000000048
 20
-42.249999999999993
 30
0.0
 11
29.900000000000048
 21
-42.249999999999993
 31
0.0
  0
LINE
  5
88
  8
1
 62
     7
 10
29.900000000000048
 20
-42.249999999999993
 30
0.0
 11
29.900000000000048
 21
-52.749999999999993
 31
0.0
  0
LINE
  5
89
  8
1
 62
     7
 10
29.900000000000048
 20
-52.749999999999993
 30
0.0
 11
30.400000000000048
 21
-52.749999999999993
 31
0.0
  0
LINE
  5
8A
  8
1
 62
     7
 10
30.400000000000048
 20
-52.749999999999993
 30
0.0
 11
30.400000000000048
 21
-42.249999999999993
 31
0.0
  0
LINE
  5
8B
  8
1
 62
     7
 10
26.200000000000049
 20
-44.499999999999993
 30
0.0
 11
26.200000000000049
 21
-50.499999999999993
 31
0.0
  0
LINE
  5
8C
  8
1
 62
     7
 10
44.80000000000004
 20
-44.499999999999993
 30
0.0
 11
45.400000000000048
 21
-45.09999999999998
 31
0.0
  0
LINE
  5
8D
  8
1
 62
     7
 10
45.400000000000048
 20
-45.09999999999998
 30
0.0
 11
45.400000000000048
 21
-49.899999999999991
 31
0.0
  0
LINE
  5
8E
  8
1
 62
     7
 10
45.400000000000048
 20
-49.899999999999991
 30
0.0
 11
44.80000000000004
 21
-50.499999999999993
 31
0.0
  0
LINE
  5
8F
  8
1
 62
     7
 10
44.80000000000004
 20
-50.499999999999993
 30
0.0
 11
31.100000000000051
 21
-50.499999999999993
 31
0.0
  0
LINE
  5
90
  8
1
 62
     7
 10
44.80000000000004
 20
-44.499999999999993
 30
0.0
 11
44.80000000000004
 21
-50.499999999999993
 31
0.0
  0
LINE
  5
91
  8
1
 62
     3
 10
45.400000000000048
 20
-45.09999999999998
 30
0.0
 11
31.93923048454138
 21
-45.09999999999998
 31
0.0
  0
LINE
  5
92
  8
1
 62
     3
 10
31.93923048454138
 20
-45.09999999999998
 30
0.0
 11
31.100000000000051
 21
-44.61547005383791
 31
0.0
  0
LINE
  5
93
  8
1
 62
     3
 10
45.400000000000048
 20
-49.899999999999991
 30
0.0
 11
31.93923048454138
 21
-49.899999999999991
 31
0.0
  0
LINE
  5
94
  8
1
 62
     3
 10
31.93923048454138
 20
-49.899999999999991
 30
0.0
 11
31.100000000000051
 21
-50.384529946162068
 31
0.0
  0
LINE
  5
95
  8
1
 62
     3
 10
31.93923048454138
 20
-44.499999999999993
 30
0.0
 11
31.93923048454138
 21
-50.499999999999993
 31
0.0
  0
LINE
  5
96
  8
1
 62
     7
 10
31.100000000000051
 20
-44.499999999999993
 30
0.0
 11
44.80000000000004
 21
-44.499999999999993
 31
0.0
  0
LINE
  5
97
  8
1
 62
     7
 10
6.100000000000068
 20
94.033768074585055
 30
0.0
 11
6.100000000000068
 21
67.5
 31
0.0
  0
LINE
  5
98
  8
1
 62
     7
 10
-117.7736870789788
 20
64.266961640367526
 30
0.0
 11
-117.7736870789788
 21
-82.500000000000014
 31
0.0
  0
LINE
  5
99
  8
1
 62
     7
 10
-120.1736870789787
 20
-82.500000000000014
 30
0.0
 11
-120.1736870789787
 21
62.5
 31
0.0
  0
LINE
  5
9A
  8
1
 62
     7
 10
-81.573687078978779
 20
-65.77328821041904
 30
0.0
 11
-81.573687078978779
 21
47.631652497587382
 31
0.0
  0
LINE
  5
9B
  8
1
 62
     7
 10
-83.373687078978776
 20
-68.0
 30
0.0
 11
-83.373687078978776
 21
68.0
 31
0.0
  0
LINE
  5
9C
  8
1
 62
     7
 10
-82.573687078978779
 20
47.5
 30
0.0
 11
-83.373687078978776
 21
47.5
 31
0.0
  0
LINE
  5
9D
  8
1
 62
     7
 10
25.200000000000038
 20
33.5
 30
0.0
 11
22.000000000000089
 21
33.5
 31
0.0
  0
LINE
  5
9E
  8
1
 62
     7
 10
-6.4999999999999014
 20
34.25
 30
0.0
 11
-4.0999999999999233
 21
34.25
 31
0.0
  0
LINE
  5
9F
  8
1
 62
     7
 10
-4.0999999999999188
 20
-34.25
 30
0.0
 11
-6.499999999999897
 21
-34.25
 31
0.0
  0
LINE
  5
A0
  8
1
 62
     7
 10
175.6875049242345
 20
94.033768074585055
 30
0.0
 11
180.6875049242345
 21
94.033768074585055
 31
0.0
  0
LINE
  5
A1
  8
1
 62
     7
 10
180.6875049242345
 20
68.000000000000028
 30
0.0
 11
180.6875049242345
 21
94.033768074585055
 31
0.0
  0
LINE
  5
A2
  8
1
 62
     7
 10
175.6875049242345
 20
68.000000000000028
 30
0.0
 11
175.6875049242345
 21
94.033768074585055
 31
0.0
  0
LINE
  5
A3
  8
1
 62
     7
 10
178.18750492423439
 20
67.999999999999972
 30
0.0
 11
178.18750492423439
 21
94.033768074585055
 31
0.0
  0
LINE
  5
A4
  8
1
 62
     7
 10
124.33585685288951
 20
62.500000000000028
 30
0.0
 11
151.39664827499689
 21
62.500000000000028
 31
0.0
  0
LINE
  5
A5
  8
1
 62
     7
 10
204.978361573472
 20
62.500000000000028
 30
0.0
 11
232.03915299557951
 21
62.500000000000028
 31
0.0
  0
LINE
  5
A6
  8
1
 62
     7
 10
124.33585685288951
 20
-62.499999999999972
 30
0.0
 11
151.39664827499681
 21
-62.499999999999972
 31
0.0
  0
LINE
  5
A7
  8
1
 62
     7
 10
204.978361573472
 20
-62.499999999999972
 30
0.0
 11
232.03915299557951
 21
-62.499999999999972
 31
0.0
  0
LINE
  5
A8
  8
1
 62
     7
 10
240.6875049242345
 20
53.851648071345082
 30
0.0
 11
240.6875049242345
 21
26.790856649237671
 31
0.0
  0
LINE
  5
A9
  8
1
 62
     7
 10
240.6875049242345
 20
-26.790856649237639
 30
0.0
 11
240.6875049242345
 21
-53.851648071345039
 31
0.0
  0
LINE
  5
AA
  8
1
 62
     7
 10
115.6875049242344
 20
-26.790856649237611
 30
0.0
 11
115.6875049242344
 21
-53.851648071345011
 31
0.0
  0
LINE
  5
AB
  8
1
 62
     7
 10
115.6875049242344
 20
53.851648071345011
 30
0.0
 11
115.6875049242344
 21
26.790856649237611
 31
0.0
  0
LINE
  5
AC
  8
1
 62
     7
 10
182.18750492423439
 20
11.84271928232701
 30
0.0
 11
182.18750492423439
 21
15.800000000000029
 31
0.0
  0
LINE
  5
AD
  8
1
 62
     7
 10
182.18750492423439
 20
15.800000000000029
 30
0.0
 11
174.1875049242345
 21
15.800000000000029
 31
0.0
  0
LINE
  5
AE
  8
1
 62
     7
 10
174.1875049242345
 20
15.800000000000029
 30
0.0
 11
174.1875049242345
 21
11.84271928232701
 31
0.0
  0
LINE
  5
AF
  8
1
  6
DASHDOT
 62
     3
 10
174.1875049242345
 20
0.0
 30
0.0
 11
182.18750492423439
 21
0.0
 31
0.0
  0
LINE
  5
B0
  8
1
  6
DASHDOT
 62
     3
 10
178.18750492423439
 20
4.0
 30
0.0
 11
178.18750492423439
 21
-4.0
 31
0.0
  0
LINE
  5
B1
  8
1
  6
DASHDOT
 62
     3
 10
234.75604741915831
 20
-56.56854249492379
 30
0.0
 11
227.684979607293
 21
-49.497474683058321
 31
0.0
  0
LINE
  5
B2
  8
1
 62
     7
 10
180.0625049242345
 20
99.033768074585055
 30
0.0
 11
180.0625049242345
 21
94.033768074585055
 31
0.0
  0
LINE
  5
B3
  8
1
 62
     7
 10
178.8125049242345
 20
99.033768074585055
 30
0.0
 11
178.8125049242345
 21
94.033768074585055
 31
0.0
  0
LINE
  5
B4
  8
1
 62
     7
 10
179.4375049242345
 20
99.033768074585055
 30
0.0
 11
179.4375049242345
 21
94.033768074585055
 31
0.0
  0
LINE
  5
B5
  8
1
 62
     7
 10
177.5625049242345
 20
99.033768074585055
 30
0.0
 11
177.5625049242345
 21
94.033768074585055
 31
0.0
  0
LINE
  5
B6
  8
1
 62
     7
 10
176.9375049242345
 20
99.033768074585055
 30
0.0
 11
176.9375049242345
 21
94.033768074585055
 31
0.0
  0
LINE
  5
B7
  8
1
 62
     7
 10
176.3125049242345
 20
99.033768074585055
 30
0.0
 11
176.3125049242345
 21
94.033768074585055
 31
0.0
  0
LINE
  5
B8
  8
1
 62
     7
 10
46.000000000000107
 20
53.500000000000028
 30
0.0
 11
46.000000000000107
 21
-53.5
 31
0.0
  0
LINE
  5
B9
  8
1
 62
     7
 10
46.000000000000107
 20
-53.5
 30
0.0
 11
35.000000000000099
 21
-53.5
 31
0.0
  0
LINE
  5
BA
  8
1
 62
     7
 10
35.000000000000099
 20
-45.09999999999998
 30
0.0
 11
35.000000000000099
 21
-25.5
 31
0.0
  0
LINE
  5
BB
  8
1
 62
     7
 10
46.000000000000107
 20
53.500000000000028
 30
0.0
 11
35.000000000000099
 21
53.500000000000028
 31
0.0
  0
LINE
  5
BC
  8
1
 62
     7
 10
35.000000000000099
 20
25.5
 30
0.0
 11
35.000000000000099
 21
53.500000000000028
 31
0.0
  0
LINE
  5
BD
  8
1
 62
     7
 10
35.000000000000099
 20
25.5
 30
0.0
 11
27.000000000000089
 21
25.5
 31
0.0
  0
LINE
  5
BE
  8
1
 62
     7
 10
35.000000000000099
 20
-25.5
 30
0.0
 11
27.000000000000089
 21
-25.5
 31
0.0
  0
LINE
  5
BF
  8
1
 62
     7
 10
27.000000000000089
 20
20.0
 30
0.0
 11
1.150000000000019
 21
20.0
 31
0.0
  0
LINE
  5
C0
  8
1
 62
     7
 10
-2.9999999999999818
 20
-20.0
 30
0.0
 11
-0.5999999999999837
 21
-20.0
 31
0.0
  0
LINE
  5
C1
  8
1
 62
     7
 10
22.000000000000089
 20
34.0
 30
0.0
 11
-0.7980762113532621
 21
34.0
 31
0.0
  0
LINE
  5
C2
  8
1
 62
     7
 10
22.000000000000089
 20
34.0
 30
0.0
 11
22.000000000000089
 21
33.264192705830197
 31
0.0
  0
LINE
  5
C3
  8
1
 62
     7
 10
-0.7980762113532585
 20
-34.0
 30
0.0
 11
22.000000000000089
 21
-34.0
 31
0.0
  0
LINE
  5
C4
  8
1
 62
     7
 10
22.000000000000089
 20
-33.5
 30
0.0
 11
25.200000000000038
 21
-33.5
 31
0.0
  0
LINE
  5
C5
  8
1
 62
     7
 10
0.0000000000000995
 20
26.0
 30
0.0
 11
3.000000000000103
 21
26.0
 31
0.0
  0
LINE
  5
C6
  8
1
 62
     7
 10
0.0000000000000995
 20
25.0
 30
0.0
 11
0.0000000000000995
 21
34.0
 31
0.0
  0
LINE
  5
C7
  8
1
 62
     7
 10
25.000000000000099
 20
30.0
 30
0.0
 11
21.000000000000099
 21
34.0
 31
0.0
  0
LINE
  5
C8
  8
1
 62
     7
 10
25.000000000000099
 20
28.5
 30
0.0
 11
25.000000000000099
 21
30.0
 31
0.0
  0
LINE
  5
C9
  8
1
 62
     7
 10
0.000000000000103
 20
-34.0
 30
0.0
 11
0.000000000000103
 21
-25.0
 31
0.0
  0
LINE
  5
CA
  8
1
 62
     7
 10
3.000000000000103
 20
-28.5
 30
0.0
 11
3.000000000000103
 21
-20.0
 31
0.0
  0
LINE
  5
CB
  8
1
 62
     7
 10
27.000000000000089
 20
-28.5
 30
0.0
 11
3.000000000000103
 21
-28.5
 31
0.0
  0
LINE
  5
CC
  8
1
 62
     7
 10
3.000000000000103
 20
-26.0
 30
0.0
 11
0.000000000000103
 21
-26.0
 31
0.0
  0
LINE
  5
CD
  8
1
 62
     7
 10
21.000000000000099
 20
-34.0
 30
0.0
 11
25.000000000000099
 21
-30.0
 31
0.0
  0
LINE
  5
CE
  8
1
 62
     7
 10
22.000000000000089
 20
-33.264192705830197
 30
0.0
 11
22.000000000000089
 21
-34.0
 31
0.0
  0
LINE
  5
CF
  8
1
 62
     7
 10
25.000000000000099
 20
-30.0
 30
0.0
 11
25.000000000000099
 21
-28.5
 31
0.0
  0
LINE
  5
D0
  8
1
 62
     7
 10
3.000000000000103
 20
22.04163522034969
 30
0.0
 11
7.7250000000000973
 21
22.041635220349619
 31
0.0
  0
LINE
  5
D1
  8
1
 62
     7
 10
3.000000000000103
 20
26.458364779650239
 30
0.0
 11
7.7250000000000973
 21
26.458364779650299
 31
0.0
  0
LINE
  5
D2
  8
1
 62
     7
 10
19.725000000000101
 20
26.458364779650299
 30
0.0
 11
10.27500000000011
 21
26.458364779650299
 31
0.0
  0
LINE
  5
D3
  8
1
 62
     7
 10
5.000000000000103
 20
21.699999999999989
 30
0.0
 11
5.000000000000103
 21
26.799999999999962
 31
0.0
  0
LINE
  5
D4
  8
1
 62
     7
 10
27.000000000000089
 20
20.0
 30
0.0
 11
27.000000000000089
 21
28.5
 31
0.0
  0
LINE
  5
D5
  8
1
 62
     7
 10
27.000000000000089
 20
26.458364779650239
 30
0.0
 11
22.275000000000102
 21
26.458364779650299
 31
0.0
  0
LINE
  5
D6
  8
1
 62
     7
 10
27.000000000000089
 20
22.04163522034969
 30
0.0
 11
22.275000000000102
 21
22.041635220349619
 31
0.0
  0
LINE
  5
D7
  8
1
 62
     7
 10
10.27500000000011
 20
22.041635220349619
 30
0.0
 11
19.72500000000008
 21
22.041635220349619
 31
0.0
  0
LINE
  5
D8
  8
1
 62
     7
 10
25.000000000000099
 20
26.799999999999962
 30
0.0
 11
25.000000000000099
 21
21.699999999999989
 31
0.0
  0
LINE
  5
D9
  8
1
 62
     7
 10
3.000000000000103
 20
28.5
 30
0.0
 11
3.000000000000103
 21
20.0
 31
0.0
  0
LINE
  5
DA
  8
1
 62
     7
 10
5.000000000000103
 20
-26.799999999999962
 30
0.0
 11
5.000000000000103
 21
-21.699999999999989
 31
0.0
  0
LINE
  5
DB
  8
1
 62
     7
 10
7.7250000000000973
 20
-22.041635220349619
 30
0.0
 11
3.000000000000103
 21
-22.04163522034969
 31
0.0
  0
LINE
  5
DC
  8
1
 62
     7
 10
7.7250000000000973
 20
-26.458364779650299
 30
0.0
 11
3.000000000000103
 21
-26.458364779650239
 31
0.0
  0
LINE
  5
DD
  8
1
 62
     7
 10
10.27500000000011
 20
-26.458364779650299
 30
0.0
 11
19.725000000000101
 21
-26.458364779650299
 31
0.0
  0
LINE
  5
DE
  8
1
 62
     7
 10
19.72500000000008
 20
-22.041635220349619
 30
0.0
 11
10.27500000000011
 21
-22.041635220349619
 31
0.0
  0
LINE
  5
DF
  8
1
 62
     7
 10
22.275000000000102
 20
-22.041635220349619
 30
0.0
 11
27.000000000000089
 21
-22.04163522034969
 31
0.0
  0
LINE
  5
E0
  8
1
 62
     7
 10
25.000000000000099
 20
-21.699999999999989
 30
0.0
 11
25.000000000000099
 21
-26.799999999999962
 31
0.0
  0
LINE
  5
E1
  8
1
 62
     7
 10
22.275000000000102
 20
-26.458364779650299
 30
0.0
 11
27.000000000000089
 21
-26.458364779650239
 31
0.0
  0
LINE
  5
E2
  8
1
 62
     7
 10
27.000000000000089
 20
-28.5
 30
0.0
 11
27.000000000000089
 21
-20.0
 31
0.0
  0
LINE
  5
E3
  8
1
 62
     7
 10
3.000000000000103
 20
28.5
 30
0.0
 11
27.000000000000089
 21
28.5
 31
0.0
  0
LINE
  5
E4
  8
1
 62
     7
 10
-0.5999999999999801
 20
19.0
 30
0.0
 11
-0.5999999999999801
 21
23.59999999999998
 31
0.0
  0
LINE
  5
E5
  8
1
 62
     7
 10
-0.5999999999999801
 20
23.59999999999998
 30
0.0
 11
1.150000000000019
 21
23.59999999999998
 31
0.0
  0
LINE
  5
E6
  8
1
 62
     7
 10
1.150000000000019
 20
25.0
 30
0.0
 11
1.150000000000019
 21
19.0
 31
0.0
  0
LINE
  5
E7
  8
1
 62
     7
 10
1.150000000000019
 20
19.0
 30
0.0
 11
-0.5999999999999801
 21
19.0
 31
0.0
  0
LINE
  5
E8
  8
1
 62
     7
 10
-0.5999999999999837
 20
-23.59999999999998
 30
0.0
 11
-0.5999999999999837
 21
-19.0
 31
0.0
  0
LINE
  5
E9
  8
1
 62
     7
 10
1.150000000000015
 20
-23.59999999999998
 30
0.0
 11
-0.5999999999999837
 21
-23.59999999999998
 31
0.0
  0
LINE
  5
EA
  8
1
 62
     7
 10
1.150000000000015
 20
-19.0
 30
0.0
 11
1.150000000000015
 21
-25.0
 31
0.0
  0
LINE
  5
EB
  8
1
 62
     7
 10
-0.5999999999999837
 20
-19.0
 30
0.0
 11
1.150000000000015
 21
-19.0
 31
0.0
  0
LINE
  5
EC
  8
1
 62
     7
 10
-0.5999999999999801
 20
20.0
 30
0.0
 11
-2.9999999999999818
 21
20.0
 31
0.0
  0
LINE
  5
ED
  8
1
 62
     7
 10
1.150000000000015
 20
-20.0
 30
0.0
 11
27.000000000000089
 21
-20.0
 31
0.0
  0
LINE
  5
EE
  8
1
 62
     7
 10
3.000000000000103
 20
25.0
 30
0.0
 11
1.150000000000019
 21
25.0
 31
0.0
  0
LINE
  5
EF
  8
1
 62
     7
 10
3.000000000000103
 20
-25.0
 30
0.0
 11
1.150000000000015
 21
-25.0
 31
0.0
  0
LINE
  5
F0
  8
1
 62
     7
 10
-67.673687078978773
 20
53.500000000000028
 30
0.0
 11
-67.673687078978773
 21
-53.5
 31
0.0
  0
LINE
  5
F1
  8
1
 62
     7
 10
-67.673687078978773
 20
53.500000000000028
 30
0.0
 11
-78.673687078978773
 21
53.500000000000028
 31
0.0
  0
LINE
  5
F2
  8
1
 62
     7
 10
-67.673687078978773
 20
-53.5
 30
0.0
 11
-78.673687078978773
 21
-53.5
 31
0.0
  0
LINE
  5
F3
  8
1
 62
     7
 10
-78.673687078978773
 20
25.5
 30
0.0
 11
-81.573687078978779
 21
25.5
 31
0.0
  0
LINE
  5
F4
  8
1
 62
     7
 10
-81.573687078978779
 20
-25.5
 30
0.0
 11
-78.673687078978773
 21
-25.5
 31
0.0
  0
LINE
  5
F5
  8
1
 62
     7
 10
25.400000000000041
 20
-31.5
 30
0.0
 11
25.400000000000041
 21
-68.0
 31
0.0
  0
LINE
  5
F6
  8
1
 62
     7
 10
25.200000000000049
 20
-31.5
 30
0.0
 11
25.200000000000049
 21
-67.500000000000014
 31
0.0
  0
LINE
  5
F7
  8
1
 62
     7
 10
-2.9999999999999818
 20
20.0
 30
0.0
 11
-2.9999999999999818
 21
-20.0
 31
0.0
  0
LINE
  5
F8
  8
1
 62
     7
 10
32.100000000000051
 20
-28.5
 30
0.0
 11
32.100000000000051
 21
-44.499999999999993
 31
0.0
  0
LINE
  5
F9
  8
1
 62
     7
 10
31.100000000000051
 20
-28.5
 30
0.0
 11
31.100000000000051
 21
-66.536725737242591
 31
0.0
  0
LINE
  5
FA
  8
1
 62
     7
 10
46.000000000000092
 20
-12.5
 30
0.0
 11
-2.9999999999999711
 21
-12.5
 31
0.0
  0
LINE
  5
FB
  8
1
 62
     7
 10
46.000000000000092
 20
15.800000000000029
 30
0.0
 11
-2.9999999999999818
 21
15.800000000000029
 31
0.0
  0
LINE
  5
FC
  8
1
 62
     7
 10
-2.9999999999999711
 20
12.5
 30
0.0
 11
46.000000000000092
 21
12.5
 31
0.0
  0
LINE
  5
FD
  8
1
  6
DASHDOT
 62
     3
 10
234.75604741915831
 20
56.568542494923861
 30
0.0
 11
227.6849796072928
 21
49.497474683058471
 31
0.0
  0
LINE
  5
FE
  8
1
  6
DASHDOT
 62
     3
 10
121.6189624293105
 20
56.56854249492379
 30
0.0
 11
128.690030241176
 21
49.497474683058321
 31
0.0
  0
LINE
  5
FF
  8
1
  6
DASHDOT
 62
     3
 10
121.6189624293106
 20
-56.568542494923932
 30
0.0
 11
128.6900302411762
 21
-49.497474683058527
 31
0.0
  0
ARC
  5
100
  8
1
 62
     7
 10
-111.8736870789788
 20
-60.5
 30
0.0
 40
6.999999999999968
 50
212.55693183745399
 51
270.0
  0
ARC
  5
101
  8
1
 62
     7
 10
-111.8736870789788
 20
60.5
 30
0.0
 40
6.999999999999992
 50
90.0
 51
147.4430681625453
  0
ARC
  5
102
  8
1
 62
     7
 10
1.800000000000058
 20
-60.5
 30
0.0
 40
6.9999999999999547
 50
212.55693183745399
 51
270.0
  0
ARC
  5
103
  8
1
 62
     7
 10
1.800000000000058
 20
60.5
 30
0.0
 40
6.999999999999992
 50
90.0
 51
147.4430681625453
  0
ARC
  5
104
  8
1
 62
     7
 10
30.733364714403962
 20
-47.787644197019752
 30
0.0
 40
5.6000000000000121
 50
98.558267717352734
 51
144.04997927382931
  0
ARC
  5
105
  8
1
 62
     7
 10
30.733364714403951
 20
-47.212355802980241
 30
0.0
 40
5.599999999999997
 50
215.95002072617049
 51
261.44173228264742
  0
ARC
  5
106
  8
1
 62
     7
 10
1.800000000000058
 20
-40.499999999999993
 30
0.0
 40
7.0
 50
111.78678929826179
 51
147.44306816254601
  0
ARC
  5
107
  8
1
 62
     7
 10
159.6875049242345
 20
32.04293994002424
 30
0.0
 40
30.0
 50
119.9999999999999
 51
175.61978746556429
  0
ARC
  5
108
  8
1
 62
     7
 10
111.0705361309404
 20
38.750000000000028
 30
0.0
 40
19.218773810563292
 50
313.28329168614459
 51
346.71670831385518
  0
ARC
  5
109
  8
1
 62
     7
 10
178.18750492423439
 20
-0.0000000000000036
 30
0.0
 40
67.000000000000014
 50
60.0
 51
119.9999999999999
  0
ARC
  5
10A
  8
1
 62
     7
 10
178.18750492423439
 20
-0.0000000000000036
 30
0.0
 40
54.000000000000007
 50
64.999999999999957
 51
115.0
  0
ARC
  5
10B
  8
1
 62
     7
 10
178.18750492423439
 20
-0.0000000000000036
 30
0.0
 40
54.00000000000005
 50
185.0
 51
235.0
  0
ARC
  5
10C
  8
1
 62
     7
 10
178.18750492423439
 20
-0.0000000000000036
 30
0.0
 40
67.0
 50
180.0
 51
239.99999999999989
  0
ARC
  5
10D
  8
1
 62
     7
 10
141.1875049242345
 20
-0.0000000000000284
 30
0.0
 40
30.0
 50
124.3802125344356
 51
180.0
  0
ARC
  5
10E
  8
1
 62
     7
 10
142.3244957929316
 20
-3.1376067389157059
 30
0.0
 40
18.00000000000005
 50
168.44089368683791
 51
185.00000000000011
  0
ARC
  5
10F
  8
1
 62
     7
 10
198.83625663287199
 20
-29.48947359440368
 30
0.0
 40
18.000000000000028
 50
288.44089368683802
 51
305.00000000000011
  0
ARC
  5
110
  8
1
 62
     7
 10
196.6875049242345
 20
-32.042939940024212
 30
0.0
 40
29.999999999999979
 50
244.3802125344356
 51
300.00000000000011
  0
ARC
  5
111
  8
1
 62
     7
 10
178.18750492423439
 20
-77.5
 30
0.0
 40
19.218773810563281
 50
73.283291686144693
 51
106.71670831385531
  0
ARC
  5
112
  8
1
 62
     7
 10
178.18750492423439
 20
-0.0000000000000036
 30
0.0
 40
66.999999999999986
 50
300.00000000000011
 51
359.99999999999977
  0
ARC
  5
113
  8
1
 62
     7
 10
178.18750492423439
 20
-0.0000000000000036
 30
0.0
 40
54.000000000000007
 50
305.0
 51
355.0
  0
ARC
  5
114
  8
1
 62
     7
 10
159.6875049242345
 20
-32.042939940024212
 30
0.0
 40
30.000000000000028
 50
239.9999999999998
 51
295.61978746556429
  0
ARC
  5
115
  8
1
 62
     7
 10
193.40176234689969
 20
32.627080333319412
 30
0.0
 40
17.99999999999995
 50
48.44089368683813
 51
64.999999999999872
  0
ARC
  5
116
  8
1
 62
     7
 10
196.6875049242345
 20
32.04293994002424
 30
0.0
 40
29.999999999999869
 50
4.3802125344355858
 51
60.0
  0
ARC
  5
117
  8
1
 62
     7
 10
245.30447371752851
 20
38.749999999999957
 30
0.0
 40
19.218773810563359
 50
193.28329168614451
 51
226.71670831385541
  0
ARC
  5
118
  8
1
 62
     7
 10
215.1875049242345
 20
-0.0000000000000284
 30
0.0
 40
30.0
 50
359.99999999999977
 51
55.619787465564187
  0
ARC
  5
119
  8
1
 62
     7
 10
178.18750492423439
 20
-0.0000000000000036
 30
0.0
 40
82.5
 50
130.74905437747029
 51
139.25094562252951
  0
ARC
  5
11A
  8
1
 62
     7
 10
178.18750492423439
 20
-0.0000000000000036
 30
0.0
 40
82.500000000000014
 50
40.749054377470401
 51
49.250945622529642
  0
ARC
  5
11B
  8
1
 62
     7
 10
178.18750492423439
 20
-0.0000000000000036
 30
0.0
 40
82.499999999999986
 50
310.74905437747032
 51
319.25094562252963
  0
ARC
  5
11C
  8
1
 62
     7
 10
178.18750492423439
 20
-0.0000000000000036
 30
0.0
 40
82.499999999999986
 50
220.7490543774704
 51
229.2509456225296
  0
ARC
  5
11D
  8
1
 62
     7
 10
137.05129824447349
 20
23.750000000000028
 30
0.0
 40
6.4999999999999458
 50
125.917024494551
 51
174.0829755054483
  0
ARC
  5
11E
  8
1
 62
     7
 10
157.53875321559681
 20
-29.48947359440368
 30
0.0
 40
18.000000000000011
 50
235.0
 51
251.5591063131622
  0
ARC
  5
11F
  8
1
 62
     7
 10
178.18750492423439
 20
-47.5
 30
0.0
 40
6.500000000000024
 50
245.91702449455121
 51
294.08297550544808
  0
ARC
  5
120
  8
1
 62
     7
 10
214.05051405553741
 20
-3.137606738915736
 30
0.0
 40
17.999999999999961
 50
354.99999999999977
 51
10.03859331823473
  0
ARC
  5
121
  8
1
 62
     7
 10
219.32371160399529
 20
23.749999999999961
 30
0.0
 40
6.4999999999999813
 50
5.9170244945517521
 51
54.082975505448047
  0
ARC
  5
122
  8
1
 62
     7
 10
162.97324750156929
 20
32.627080333319412
 30
0.0
 40
17.999999999999979
 50
115.0
 51
131.559106313162
  0
ARC
  5
123
  8
1
 62
     7
 10
178.18750492423439
 20
-0.0000000000000036
 30
0.0
 40
12.5
 50
108.6629248849424
 51
71.337075115057516
  0
ARC
  5
124
  8
1
 62
     7
 10
1.800000000000054
 20
40.499999999999957
 30
0.0
 40
6.9999999999999973
 50
212.55693183745461
 51
248.21321070173809
  0
ARC
  5
125
  8
1
  6
DASHDOT
 62
     3
 10
178.18750492423439
 20
-0.0000000000000036
 30
0.0
 40
75.0
 50
311.17744627072562
 51
318.82255372927432
  0
ARC
  5
126
  8
1
  6
DASHDOT
 62
     3
 10
178.18750492423439
 20
-0.0000000000000036
 30
0.0
 40
74.999999999999986
 50
41.177446270725703
 51
48.82255372927434
  0
ARC
  5
127
  8
1
  6
DASHDOT
 62
     3
 10
178.18750492423439
 20
-0.0000000000000036
 30
0.0
 40
75.000000000000071
 50
131.17744627072571
 51
138.8225537292744
  0
ARC
  5
128
  8
1
  6
DASHDOT
 62
     3
 10
178.18750492423439
 20
-0.0000000000000036
 30
0.0
 40
75.000000000000028
 50
221.17744627072571
 51
228.8225537292744
  0
CIRCLE
  5
129
  8
1
 62
     7
 10
178.18750492423439
 20
60.500000000000028
 30
0.0
 40
5.0
  0
CIRCLE
  5
12A
  8
1
 62
     7
 10
137.05129824447349
 20
23.750000000000028
 30
0.0
 40
3.0
  0
CIRCLE
  5
12B
  8
1
 62
     7
 10
137.05129824447349
 20
23.750000000000028
 30
0.0
 40
2.5000000000001141
  0
CIRCLE
  5
12C
  8
1
 62
     7
 10
125.7929679952759
 20
-30.249999999999961
 30
0.0
 40
4.9999999999999876
  0
CIRCLE
  5
12D
  8
1
 62
     7
 10
230.58204185319309
 20
-30.250000000000028
 30
0.0
 40
5.000000000000016
  0
CIRCLE
  5
12E
  8
1
 62
     7
 10
178.18750492423439
 20
-47.5
 30
0.0
 40
3.0000000000000062
  0
CIRCLE
  5
12F
  8
1
 62
     7
 10
219.32371160399529
 20
23.749999999999961
 30
0.0
 40
2.999999999999996
  0
CIRCLE
  5
130
  8
1
 62
     7
 10
178.18750492423439
 20
-47.5
 30
0.0
 40
2.499999999999984
  0
CIRCLE
  5
131
  8
1
 62
     7
 10
219.32371160399529
 20
23.749999999999961
 30
0.0
 40
2.500000000000004
  0
CIRCLE
  5
132
  8
1
 62
     7
 10
178.18750492423439
 20
-0.0000000000000036
 30
0.0
 40
68.0
  0
CIRCLE
  5
133
  8
1
 62
     7
 10
231.22051351322571
 20
-53.033008588991059
 30
0.0
 40
3.25
  0
CIRCLE
  5
134
  8
1
 62
     7
 10
178.18750492423439
 20
-0.0000000000000036
 30
0.0
 40
53.5
  0
CIRCLE
  5
135
  8
1
 62
     7
 10
9.0000000000001013
 20
24.25
 30
0.0
 40
2.5499999999999972
  0
CIRCLE
  5
136
  8
1
 62
     7
 10
21.000000000000099
 20
24.25
 30
0.0
 40
2.5499999999999901
  0
CIRCLE
  5
137
  8
1
 62
     7
 10
9.0000000000001013
 20
-24.25
 30
0.0
 40
2.5499999999999958
  0
CIRCLE
  5
138
  8
1
 62
     7
 10
21.000000000000099
 20
-24.25
 30
0.0
 40
2.5499999999999901
  0
CIRCLE
  5
139
  8
1
 62
     7
 10
231.22051351322551
 20
53.033008588991187
 30
0.0
 40
3.25
  0
CIRCLE
  5
13A
  8
1
 62
     7
 10
125.15449633524319
 20
53.033008588991059
 30
0.0
 40
3.25
  0
CIRCLE
  5
13B
  8
1
 62
     7
 10
125.15449633524339
 20
-53.033008588991237
 30
0.0
 40
3.25
  0
TEXT
  5
13C
  8
1
 62
     7
 10
-111.84105134516891
 20
120.13305584326309
 30
0.0
 40
5.0
  1
VBEH 5P
 41
0.9
  7
SIMPLEX
  0
ENDSEC
  0
EOF
