  0
SECTION
  2
HEADER
  9
$ACADVER
  1
AC1009
  9
$INSBASE
 10
0.0
 20
0.0
 30
0.0
  9
$EXTMIN
 10
369.8866826318278
 20
-164.99385908257651
 30
0.0
  9
$EXTMAX
 10
707.92750861900743
 20
8.32248214482291
 30
0.0
  9
$LIMMIN
 10
369.8866826318278
 20
-164.99385908257651
  9
$LIMMAX
 10
702.77816221843216
 20
8.32248214482291
  9
$ORTHOMODE
 70
     0
  9
$REGENMODE
 70
     1
  9
$FILLMODE
 70
     1
  9
$QTEXTMODE
 70
     0
  9
$MIRRTEXT
 70
     1
  9
$DRAGMODE
 70
     2
  9
$LTSCALE
 40
1.0
  9
$OSMODE
 70
    37
  9
$ATTMODE
 70
     1
  9
$TEXTSIZE
 40
3.5
  9
$TRACEWID
 40
0.5
  9
$TEXTSTYLE
  7
STANDARD
  9
$CLAYER
  8
0
  9
$CELTYPE
  6
BYLAYER
  9
$CECOLOR
 62
   256
  9
$DIMSCALE
 40
1.0
  9
$DIMASZ
 40
0.18
  9
$DIMEXO
 40
0.0625
  9
$DIMDLI
 40
0.38
  9
$DIMRND
 40
0.0
  9
$DIMDLE
 40
0.0
  9
$DIMEXE
 40
0.18
  9
$DIMTP
 40
0.0
  9
$DIMTM
 40
0.0
  9
$DIMTXT
 40
0.18
  9
$DIMCEN
 40
0.09
  9
$DIMTSZ
 40
0.0
  9
$DIMTOL
 70
     0
  9
$DIMLIM
 70
     0
  9
$DIMTIH
 70
     1
  9
$DIMTOH
 70
     1
  9
$DIMSE1
 70
     0
  9
$DIMSE2
 70
     0
  9
$DIMTAD
 70
     0
  9
$DIMZIN
 70
     0
  9
$DIMBLK
  1

  9
$DIMASO
 70
     1
  9
$DIMSHO
 70
     1
  9
$DIMPOST
  1

  9
$DIMAPOST
  1

  9
$DIMALT
 70
     0
  9
$DIMALTD
 70
     2
  9
$DIMALTF
 40
25.399999999999999
  9
$DIMLFAC
 40
1.0
  9
$DIMTOFL
 70
     0
  9
$DIMTVP
 40
0.0
  9
$DIMTIX
 70
     0
  9
$DIMSOXD
 70
     0
  9
$DIMSAH
 70
     0
  9
$DIMBLK1
  1

  9
$DIMBLK2
  1

  9
$DIMSTYLE
  2
STANDARD
  9
$DIMCLRD
 70
     0
  9
$DIMCLRE
 70
     0
  9
$DIMCLRT
 70
     0
  9
$DIMTFAC
 40
1.0
  9
$DIMGAP
 40
0.09
  9
$LUNITS
 70
     2
  9
$LUPREC
 70
     4
  9
$SKETCHINC
 40
0.1
  9
$FILLETRAD
 40
2.0
  9
$AUNITS
 70
     0
  9
$AUPREC
 70
     0
  9
$MENU
  1
ACAD
  9
$ELEVATION
 40
0.0
  9
$PELEVATION
 40
0.0
  9
$THICKNESS
 40
0.0
  9
$LIMCHECK
 70
     0
  9
$BLIPMODE
 70
     0
  9
$CHAMFERA
 40
0.0
  9
$CHAMFERB
 40
0.0
  9
$SKPOLY
 70
     0
  9
$TDCREATE
 40
2452095.3857384259
  9
$TDUPDATE
 40
2452095.3861878468
  9
$TDINDWG
 40
0.0004577546
  9
$TDUSRTIMER
 40
0.0004577546
  9
$USRTIMER
 70
     1
  9
$ANGBASE
 50
0.0
  9
$ANGDIR
 70
     0
  9
$PDMODE
 70
     0
  9
$PDSIZE
 40
0.0
  9
$PLINEWID
 40
0.0
  9
$COORDS
 70
     1
  9
$SPLFRAME
 70
     0
  9
$SPLINETYPE
 70
     6
  9
$SPLINESEGS
 70
     8
  9
$ATTDIA
 70
     0
  9
$ATTREQ
 70
     1
  9
$HANDLING
 70
 10241
  9
$HANDSEED
  5
14E
  9
$SURFTAB1
 70
     6
  9
$SURFTAB2
 70
     6
  9
$SURFTYPE
 70
     6
  9
$SURFU
 70
     6
  9
$SURFV
 70
     6
  9
$UCSNAME
  2

  9
$UCSORG
 10
0.0
 20
0.0
 30
0.0
  9
$UCSXDIR
 10
1.0
 20
0.0
 30
0.0
  9
$UCSYDIR
 10
0.0
 20
1.0
 30
0.0
  9
$PUCSNAME
  2

  9
$PUCSORG
 10
0.0
 20
0.0
 30
0.0
  9
$PUCSXDIR
 10
1.0
 20
0.0
 30
0.0
  9
$PUCSYDIR
 10
0.0
 20
1.0
 30
0.0
  9
$USERI1
 70
     0
  9
$USERI2
 70
     0
  9
$USERI3
 70
     0
  9
$USERI4
 70
     0
  9
$USERI5
 70
     0
  9
$USERR1
 40
0.0
  9
$USERR2
 40
0.0
  9
$USERR3
 40
0.0
  9
$USERR4
 40
0.0
  9
$USERR5
 40
0.0
  9
$WORLDVIEW
 70
     1
  9
$SHADEDGE
 70
     3
  9
$SHADEDIF
 70
    70
  9
$TILEMODE
 70
     1
  9
$MAXACTVP
 70
    64
  9
$PLIMCHECK
 70
     0
  9
$PEXTMIN
 10
1.0000000000000000E+020
 20
1.0000000000000000E+020
 30
1.0000000000000000E+020
  9
$PEXTMAX
 10
-1.0000000000000000E+020
 20
-1.0000000000000000E+020
 30
-1.0000000000000000E+020
  9
$PLIMMIN
 10
0.0
 20
0.0
  9
$PLIMMAX
 10
12.0
 20
9.0
  9
$UNITMODE
 70
     0
  9
$VISRETAIN
 70
     1
  9
$PLINEGEN
 70
     0
  9
$PSLTSCALE
 70
     1
  0
ENDSEC
  0
SECTION
  2
TABLES
  0
TABLE
  2
VPORT
 70
     2
  0
VPORT
  2
*ACTIVE
 70
     0
 10
0.0
 20
0.0
 11
1.0
 21
1.0
 12
390.40895456851769
 22
-2.5290003838756538
 13
0.0
 23
0.0
 14
1.0
 24
1.0
 15
0.0
 25
0.0
 16
0.0
 26
0.0
 36
1.0
 17
0.0
 27
0.0
 37
0.0
 40
8.9999997739435003
 41
2.4144144144144142
 42
50.0
 43
0.0
 44
0.0
 50
0.0
 51
0.0
 71
     0
 72
   100
 73
     1
 74
     1
 75
     0
 76
     0
 77
     0
 78
     0
  0
ENDTAB
  0
TABLE
  2
LTYPE
 70
     9
  0
LTYPE
  2
CONTINUOUS
 70
     0
  3
Solid line
 72
    65
 73
     0
 40
0.0
  0
LTYPE
  2
BORDER
 70
     0
  3
__ __ . __ __ .
 72
    65
 73
     6
 40
15.330528665172571
 49
4.3801510471921619
 49
-2.19007552359608
 49
4.3801510471921619
 49
-2.19007552359608
 49
0.0
 49
-2.19007552359608
  0
LTYPE
  2
CENTER
 70
     0
  3
____ _ ____ _
 72
    65
 73
     4
 40
17.520604188768651
 49
10.95037761798041
 49
-2.19007552359608
 49
2.19007552359608
 49
-2.19007552359608
  0
LTYPE
  2
DASHDOT
 70
     0
  3
__ . __ . __ .
 72
    65
 73
     4
 40
8.7603020943843255
 49
4.3801510471921619
 49
-2.19007552359608
 49
0.0
 49
-2.19007552359608
  0
LTYPE
  2
DASHED
 70
     0
  3
__ __ __ __ __
 72
    65
 73
     2
 40
6.5702265707882441
 49
4.3801510471921619
 49
-2.19007552359608
  0
LTYPE
  2
DIVIDE
 70
     0
  3
__ . . __ . . 
 72
    65
 73
     6
 40
10.95037761798041
 49
4.3801510471921619
 49
-2.19007552359608
 49
0.0
 49
-2.19007552359608
 49
0.0
 49
-2.19007552359608
  0
LTYPE
  2
DOT
 70
     0
  3
..............
 72
    65
 73
     4
 40
4.3801510471921619
 49
0.0
 49
-2.19007552359608
 49
0.0
 49
-2.19007552359608
  0
LTYPE
  2
HIDDEN
 70
     0
  3
_ _ _ _ _ _ _
 72
    65
 73
     2
 40
3.2851132853941221
 49
2.19007552359608
 49
-1.09503776179804
  0
LTYPE
  2
PHANTOM
 70
     0
  3
_____ _ _ _____ _ _ 
 72
    65
 73
     6
 40
21.900755235960819
 49
10.95037761798041
 49
-2.19007552359608
 49
2.19007552359608
 49
-2.19007552359608
 49
2.19007552359608
 49
-2.19007552359608
  0
ENDTAB
  0
TABLE
  2
LAYER
 70
     2
  0
LAYER
  2
0
 70
     0
 62
     7
  6
CONTINUOUS
  0
LAYER
  2
1
 70
     0
 62
     7
  6
CONTINUOUS
  0
ENDTAB
  0
TABLE
  2
STYLE
 70
     4
  0
STYLE
  2
STANDARD
 70
     0
 40
0.0
 41
1.0
 50
0.0
 71
     0
 42
3.5
  3
txt
  4

  0
STYLE
  2
SIMPLEX
 70
     0
 40
0.0
 41
1.0
 50
0.0
 71
     0
 42
3.5
  3
simplex
  4

  0
STYLE
  2
COMPLEX
 70
     0
 40
0.0
 41
1.0
 50
0.0
 71
     0
 42
3.5
  3
complex
  4

  0
STYLE
  2
ITALIC
 70
     0
 40
0.0
 41
1.0
 50
0.0
 71
     0
 42
3.5
  3
italic
  4

  0
ENDTAB
  0
TABLE
  2
VIEW
 70
     0
  0
ENDTAB
  0
TABLE
  2
UCS
 70
     0
  0
ENDTAB
  0
TABLE
  2
APPID
 70
     1
  0
APPID
  2
ACAD
 70
     0
  0
ENDTAB
  0
TABLE
  2
DIMSTYLE
 70
     1
  0
DIMSTYLE
  2
STANDARD
 70
     0
  3

  4

  5

  6

  7

 40
1.0
 41
0.18
 42
0.0625
 43
0.38
 44
0.18
 45
0.0
 46
0.0
 47
0.0
 48
0.0
140
0.18
141
0.09
142
0.0
143
25.399999999999999
144
1.0
145
0.0
146
1.0
147
0.09
 71
     0
 72
     0
 73
     1
 74
     1
 75
     0
 76
     0
 77
     0
 78
     0
170
     0
171
     2
172
     0
173
     0
174
     0
175
     0
176
     0
177
     0
178
     0
  0
ENDTAB
  0
ENDSEC
  0
SECTION
  2
BLOCKS
  0
BLOCK
  8
0
  2
$MODEL_SPACE
 70
     0
 10
0.0
 20
0.0
 30
0.0
  3
$MODEL_SPACE
  1

  0
ENDBLK
  5
20
  8
0
  0
BLOCK
 67
     1
  8
0
  2
$PAPER_SPACE
 70
     0
 10
0.0
 20
0.0
 30
0.0
  3
$PAPER_SPACE
  1

  0
ENDBLK
  5
1C
 67
     1
  8
0
  0
ENDSEC
  0
SECTION
  2
ENTITIES
  0
POINT
  5
33
  8
1
  6
CENTER
 62
     7
 10
630.14622010478672
 20
-111.0399262696353
 30
0.0
  0
LINE
  5
34
  8
1
 62
     7
 10
417.63629433599999
 20
-114.99385908257651
 30
0.0
 11
415.7362943359999
 21
-114.99385908257651
 31
0.0
  0
LINE
  5
35
  8
1
 62
     7
 10
417.63629433599999
 20
-79.993859082576634
 30
0.0
 11
415.7362943359999
 21
-79.993859082576634
 31
0.0
  0
LINE
  5
36
  8
1
  6
DASHDOT
 62
     3
 10
673.51579819526819
 20
-83.211578292235345
 30
0.0
 11
667.55848922230894
 21
-86.651032231419265
 31
0.0
  0
LINE
  5
37
  8
1
  6
DASHDOT
 62
     3
 10
431.63629433599988
 20
-97.493859082576606
 30
0.0
 11
438.63629433599988
 21
-97.493859082576606
 31
0.0
  0
LINE
  5
38
  8
1
  6
DASHDOT
 62
     3
 10
381.87810197967491
 20
-158.49385908257659
 30
0.0
 11
376.87810197967491
 21
-158.49385908257659
 31
0.0
  0
LINE
  5
39
  8
1
 62
     7
 10
415.7362943359999
 20
-65.493859082576606
 30
0.0
 11
416.13629433599999
 21
-65.493859082576606
 31
0.0
  0
LINE
  5
3A
  8
1
 62
     7
 10
415.7362943359999
 20
-53.49385908257662
 30
0.0
 11
416.13629433599999
 21
-53.49385908257662
 31
0.0
  0
LINE
  5
3B
  8
1
 62
     7
 10
408.436294336
 20
-43.493859082576613
 30
0.0
 11
408.4362943360008
 21
-151.49385908257651
 31
0.0
  0
LINE
  5
3C
  8
1
 62
     7
 10
412.436294336
 20
-43.493859082576613
 30
0.0
 11
408.436294336
 21
-43.493859082576613
 31
0.0
  0
LINE
  5
3D
  8
1
 62
     7
 10
413.13629433599999
 20
-50.493859082576613
 30
0.0
 11
413.7362943359999
 21
-50.493859082576613
 31
0.0
  0
LINE
  5
3E
  8
1
 62
     7
 10
417.63629433599999
 20
-44.49385908257662
 30
0.0
 11
417.63629433599999
 21
-127.49385908257651
 31
0.0
  0
LINE
  5
3F
  8
1
 62
     7
 10
417.63629433599999
 20
-44.49385908257662
 30
0.0
 11
431.63629433599988
 21
-44.49385908257679
 31
0.0
  0
LINE
  5
40
  8
1
 62
     7
 10
413.13629433599999
 20
-67.49385908257662
 30
0.0
 11
413.73629433600013
 21
-67.49385908257662
 31
0.0
  0
LINE
  5
41
  8
1
 62
     7
 10
413.13629433599999
 20
-135.49385908257651
 30
0.0
 11
413.13629433599999
 21
-50.493859082576613
 31
0.0
  0
LINE
  5
42
  8
1
 62
     7
 10
413.7362943359999
 20
-48.493859082576598
 30
0.0
 11
415.7362943359999
 21
-48.493859082576598
 31
0.0
  0
LINE
  5
43
  8
1
 62
     7
 10
413.7362943359999
 20
-48.493859082576598
 30
0.0
 11
413.7362943359999
 21
-139.49385908257651
 31
0.0
  0
LINE
  5
44
  8
1
 62
     7
 10
431.63629433599988
 20
-44.49385908257679
 30
0.0
 11
431.63629433599988
 21
-126.99385908257661
 31
0.0
  0
LINE
  5
45
  8
1
 62
     7
 10
416.13629433599988
 20
-51.99385908257662
 30
0.0
 11
416.13629433599988
 21
-66.993859082576677
 31
0.0
  0
LINE
  5
46
  8
1
 62
     7
 10
380.53629433599991
 20
-47.493859082576591
 30
0.0
 11
380.53629433599991
 21
-164.99385908257651
 31
0.0
  0
LINE
  5
47
  8
1
 62
     7
 10
380.53629433599991
 20
-47.493859082576591
 30
0.0
 11
378.13629433599999
 21
-47.493859082576591
 31
0.0
  0
LINE
  5
48
  8
1
 62
     7
 10
378.13629433599999
 20
-47.493859082576591
 30
0.0
 11
378.13629433599999
 21
-164.99385908257651
 31
0.0
  0
LINE
  5
49
  8
1
 62
     7
 10
380.53629433599991
 20
-164.99385908257651
 30
0.0
 11
378.13629433599999
 21
-164.99385908257651
 31
0.0
  0
LINE
  5
4A
  8
1
 62
     7
 10
408.03629433599991
 20
-43.99385908257662
 30
0.0
 11
408.03629433599991
 21
-150.99385908257651
 31
0.0
  0
LINE
  5
4B
  8
1
 62
     7
 10
431.13629433599988
 20
-127.49385908257651
 30
0.0
 11
431.63629433599988
 21
-126.99385908257661
 31
0.0
  0
LINE
  5
4C
  8
1
 62
     7
 10
428.13629433599999
 20
-134.94175324998901
 30
0.0
 11
428.13629433599999
 21
-130.49385908257659
 31
0.0
  0
LINE
  5
4D
  8
1
 62
     7
 10
422.63629433599988
 20
-136.94175324998901
 30
0.0
 11
426.13629433599988
 21
-136.94175324998901
 31
0.0
  0
LINE
  5
4E
  8
1
 62
     7
 10
420.63629433599999
 20
-130.49385908257659
 30
0.0
 11
420.63629433599999
 21
-134.94175324998901
 31
0.0
  0
LINE
  5
4F
  8
1
 62
     7
 10
415.08629433599992
 20
-149.19385908257661
 30
0.0
 11
415.08629433599992
 21
-140.7938590825766
 31
0.0
  0
LINE
  5
50
  8
1
 62
     7
 10
413.4862943359999
 20
-140.74385908257651
 30
0.0
 11
413.4862943359999
 21
-149.24385908257659
 31
0.0
  0
LINE
  5
51
  8
1
 62
     7
 10
413.0362943359998
 20
-149.49385908257651
 30
0.0
 11
412.436294336
 21
-149.49385908257651
 31
0.0
  0
LINE
  5
52
  8
1
 62
     7
 10
413.4862943359999
 20
-140.74385908257651
 30
0.0
 11
413.0362943359998
 21
-140.74385908257651
 31
0.0
  0
LINE
  5
53
  8
1
 62
     7
 10
413.4862943359999
 20
-149.24385908257659
 30
0.0
 11
413.0362943359998
 21
-149.24385908257659
 31
0.0
  0
LINE
  5
54
  8
1
 62
     7
 10
412.436294336
 20
-43.493859082576613
 30
0.0
 11
412.436294336
 21
-151.49385908257651
 31
0.0
  0
LINE
  5
55
  8
1
 62
     7
 10
412.436294336
 20
-151.49385908257651
 30
0.0
 11
408.4362943360008
 21
-151.49385908257651
 31
0.0
  0
LINE
  5
56
  8
1
  6
DASHDOT
 62
     3
 10
378.13629433599999
 20
-97.493859082576606
 30
0.0
 11
371.13629433599999
 21
-97.493859082576606
 31
0.0
  0
LINE
  5
57
  8
1
 62
     7
 10
386.53629433599991
 20
-43.993859082576598
 30
0.0
 11
408.03629433599991
 21
-43.99385908257662
 31
0.0
  0
LINE
  5
58
  8
1
 62
     7
 10
386.53629433599991
 20
-150.99385908257651
 30
0.0
 11
408.03629433599991
 21
-150.99385908257651
 31
0.0
  0
LINE
  5
59
  8
1
 62
     7
 10
390.08629433599992
 20
-20.756134472680341
 30
0.0
 11
390.08629433599992
 21
-43.99385908257662
 31
0.0
  0
LINE
  5
5A
  8
1
 62
     7
 10
392.58629433599992
 20
-43.99385908257662
 30
0.0
 11
392.58629433599992
 21
-20.756134472680341
 31
0.0
  0
LINE
  5
5B
  8
1
 62
     7
 10
390.08629433599992
 20
-20.756134472680341
 30
0.0
 11
392.58629433599992
 21
-20.756134472680341
 31
0.0
  0
LINE
  5
5C
  8
1
 62
     7
 10
391.7362943359999
 20
-20.756134472680341
 30
0.0
 11
391.7362943359999
 21
-15.756134472680341
 31
0.0
  0
LINE
  5
5D
  8
1
 62
     7
 10
391.53629433599991
 20
-20.756134472680341
 30
0.0
 11
391.53629433599991
 21
-15.756134472680341
 31
0.0
  0
LINE
  5
5E
  8
1
 62
     7
 10
391.33629433599992
 20
-20.756134472680341
 30
0.0
 11
391.33629433599992
 21
-15.756134472680341
 31
0.0
  0
LINE
  5
5F
  8
1
 62
     7
 10
391.13629433599988
 20
-20.756134472680341
 30
0.0
 11
391.13629433599988
 21
-15.756134472680341
 31
0.0
  0
LINE
  5
60
  8
1
 62
     7
 10
390.936294336
 20
-20.756134472680341
 30
0.0
 11
390.936294336
 21
-15.756134472680341
 31
0.0
  0
LINE
  5
61
  8
1
 62
     7
 10
413.7362943359999
 20
-139.49385908257651
 30
0.0
 11
415.7362943359999
 21
-139.49385908257651
 31
0.0
  0
LINE
  5
62
  8
1
 62
     7
 10
415.7362943359999
 20
-139.49385908257651
 30
0.0
 11
415.7362943359999
 21
-48.493859082576598
 31
0.0
  0
LINE
  5
63
  8
1
 62
     7
 10
417.63629433599999
 20
-51.99385908257662
 30
0.0
 11
416.13629433599988
 21
-51.99385908257662
 31
0.0
  0
LINE
  5
64
  8
1
 62
     7
 10
417.63629433599999
 20
-66.993859082576677
 30
0.0
 11
416.13629433599988
 21
-66.993859082576677
 31
0.0
  0
LINE
  5
65
  8
1
 62
     7
 10
496.53629433600008
 20
-155.24385908257651
 30
0.0
 11
494.13629433600022
 21
-155.24385908257651
 31
0.0
  0
LINE
  5
66
  8
1
  6
DASHDOT
 62
     3
 10
497.87810197967508
 20
-158.49385908257659
 30
0.0
 11
492.87810197967508
 21
-158.49385908257659
 31
0.0
  0
LINE
  5
67
  8
1
 62
     7
 10
496.53629433600008
 20
-161.74385908257659
 30
0.0
 11
494.13629433600022
 21
-161.74385908257659
 31
0.0
  0
LINE
  5
68
  8
1
 62
     7
 10
647.94142898396365
 20
-20.756134472680341
 30
0.0
 11
647.94142898396365
 21
-15.756134472680341
 31
0.0
  0
LINE
  5
69
  8
1
 62
     7
 10
647.74142898396383
 20
-20.756134472680341
 30
0.0
 11
647.74142898396383
 21
-15.756134472680341
 31
0.0
  0
LINE
  5
6A
  8
1
 62
     7
 10
647.54142898396378
 20
-20.756134472680341
 30
0.0
 11
647.54142898396378
 21
-15.756134472680341
 31
0.0
  0
LINE
  5
6B
  8
1
 62
     7
 10
647.34142898396385
 20
-20.756134472680341
 30
0.0
 11
647.34142898396385
 21
-15.756134472680341
 31
0.0
  0
LINE
  5
6C
  8
1
 62
     7
 10
647.14142898396369
 20
-20.756134472680341
 30
0.0
 11
647.14142898396369
 21
-15.756134472680341
 31
0.0
  0
LINE
  5
6D
  8
1
 62
     7
 10
650.42816221843225
 20
-20.756134472680341
 30
0.0
 11
650.42816221843225
 21
-15.756134472680341
 31
0.0
  0
LINE
  5
6E
  8
1
 62
     7
 10
650.22816221843209
 20
-20.756134472680341
 30
0.0
 11
650.22816221843209
 21
-15.756134472680341
 31
0.0
  0
LINE
  5
6F
  8
1
 62
     7
 10
650.02816221843216
 20
-20.756134472680341
 30
0.0
 11
650.02816221843216
 21
-15.756134472680341
 31
0.0
  0
LINE
  5
70
  8
1
 62
     7
 10
649.82816221843245
 20
-20.756134472680341
 30
0.0
 11
649.82816221843245
 21
-15.756134472680341
 31
0.0
  0
LINE
  5
71
  8
1
 62
     7
 10
649.62816221843241
 20
-20.756134472680341
 30
0.0
 11
649.62816221843241
 21
-15.756134472680341
 31
0.0
  0
LINE
  5
72
  8
1
 62
     7
 10
646.27816221843227
 20
-20.756134472680341
 30
0.0
 11
646.27816221843227
 21
-43.551760495295063
 31
0.0
  0
LINE
  5
73
  8
1
 62
     7
 10
651.27816221843227
 20
-20.756134472680341
 30
0.0
 11
651.27816221843227
 21
-43.551760495295063
 31
0.0
  0
LINE
  5
74
  8
1
 62
     7
 10
646.27816221843227
 20
-20.756134472680341
 30
0.0
 11
651.27816221843227
 21
-20.756134472680341
 31
0.0
  0
LINE
  5
75
  8
1
  6
DASHDOT
 62
     3
 10
648.77816221843216
 20
-92.258301340582079
 30
0.0
 11
648.77816221843216
 21
-102.5123149349369
 31
0.0
  0
LINE
  5
76
  8
1
  6
DASHDOT
 62
     3
 10
644.60644773597085
 20
-97.493859082576606
 30
0.0
 11
652.99696544869607
 21
-97.493859082576606
 31
0.0
  0
LINE
  5
77
  8
1
 62
     7
 10
698.77816221843216
 20
-117.8933677454998
 30
0.0
 11
698.77816221843216
 21
-142.83975195061919
 31
0.0
  0
LINE
  5
78
  8
1
 62
     7
 10
598.77816221843216
 20
-117.9147237491632
 30
0.0
 11
598.77816221843216
 21
-142.83975195061919
 31
0.0
  0
LINE
  5
79
  8
1
 62
     7
 10
614.31110127586237
 20
-135.9007701936207
 30
0.0
 11
683.2452231610016
 21
-135.9007701936207
 31
0.0
  0
LINE
  5
7A
  8
1
 62
     7
 10
632.75033198666165
 20
-48.441053157002962
 30
0.0
 11
598.2832710440922
 21
-108.139753897106
 31
0.0
  0
LINE
  5
7B
  8
1
 62
     7
 10
699.27305339277166
 20
-108.139753897106
 30
0.0
 11
664.80599245020244
 21
-48.441053157002891
 31
0.0
  0
LINE
  5
7C
  8
1
  6
DASHDOT
 62
     3
 10
629.99783521455561
 20
-86.651032231419265
 30
0.0
 11
624.04052624159635
 21
-83.211578292235515
 31
0.0
  0
LINE
  5
7D
  8
1
 62
     7
 10
645.77816221843216
 20
-84.69385908257658
 30
0.0
 11
645.77816221843216
 21
-87.954467068407155
 31
0.0
  0
LINE
  5
7E
  8
1
 62
     7
 10
651.77816221843216
 20
-84.69385908257658
 30
0.0
 11
651.77816221843216
 21
-87.954467068407155
 31
0.0
  0
LINE
  5
7F
  8
1
 62
     7
 10
645.77816221843216
 20
-84.69385908257658
 30
0.0
 11
651.77816221843216
 21
-84.69385908257658
 31
0.0
  0
LINE
  5
80
  8
1
 62
     7
 10
698.77816221843216
 20
-52.147966214533938
 30
0.0
 11
698.77816221843216
 21
-76.973442115341584
 31
0.0
  0
LINE
  5
81
  8
1
 62
     7
 10
603.43226935038979
 20
-47.493859082576591
 30
0.0
 11
628.21095342607441
 21
-47.493859082576591
 31
0.0
  0
LINE
  5
82
  8
1
 62
     7
 10
694.12405508647498
 20
-147.49385908257651
 30
0.0
 11
669.61548629965864
 21
-147.49385908257651
 31
0.0
  0
LINE
  5
83
  8
1
 62
     7
 10
668.82587555561543
 20
-47.493859082576591
 30
0.0
 11
694.12405508647498
 21
-47.493859082576591
 31
0.0
  0
LINE
  5
84
  8
1
 62
     7
 10
628.15949567603343
 20
-147.49385908257651
 30
0.0
 11
603.43226935038979
 21
-147.49385908257651
 31
0.0
  0
LINE
  5
85
  8
1
 62
     7
 10
598.77816221843216
 20
-77.052524081772674
 30
0.0
 11
598.77816221843216
 21
-52.147966214533938
 31
0.0
  0
LINE
  5
86
  8
1
  6
DASHDOT
 62
     3
 10
601.78980270187958
 20
-50.50549956602385
 30
0.0
 11
609.19835702897694
 21
-57.914053893121149
 31
0.0
  0
LINE
  5
87
  8
1
  6
DASHDOT
 62
     3
 10
601.78980270187958
 20
-144.48221859912931
 30
0.0
 11
609.19835702897694
 21
-137.073664272032
 31
0.0
  0
LINE
  5
88
  8
1
  6
DASHDOT
 62
     3
 10
695.76652173498519
 20
-144.48221859912931
 30
0.0
 11
688.35796740788771
 21
-137.073664272032
 31
0.0
  0
LINE
  5
89
  8
1
  6
DASHDOT
 62
     3
 10
695.76652173498519
 20
-50.505499566023779
 30
0.0
 11
688.35796740788771
 21
-57.914053893121149
 31
0.0
  0
LINE
  5
8A
  8
1
 62
     7
 10
648.76489545290076
 20
-20.756134472680341
 30
0.0
 11
648.7648954529011
 21
-43.493860712271669
 31
0.0
  0
LINE
  5
8B
  8
1
 62
     7
 10
623.53930329018419
 20
-139.49385908257651
 30
0.0
 11
674.01702114668024
 21
-139.49385908257651
 31
0.0
  0
LINE
  5
8C
  8
1
 62
     7
 10
697.77065864150268
 20
-98.351352076970997
 30
0.0
 11
672.53179971325483
 21
-54.636366088182278
 31
0.0
  0
LINE
  5
8D
  8
1
 62
     7
 10
625.0245247236096
 20
-54.636366088182342
 30
0.0
 11
599.78566579536187
 21
-98.351352076971054
 31
0.0
  0
LINE
  5
8E
  8
1
 62
     7
 10
494.13629433600022
 20
-123.49385908257661
 30
0.0
 11
496.53629433600008
 21
-123.49385908257661
 31
0.0
  0
LINE
  5
8F
  8
1
 62
     7
 10
529.73629433600001
 20
-116.99385908257661
 30
0.0
 11
529.73629433600001
 21
-139.49385908257651
 31
0.0
  0
LINE
  5
90
  8
1
 62
     7
 10
512.63629433600011
 20
-79.993859082576634
 30
0.0
 11
512.63629433600011
 21
-114.99385908257651
 31
0.0
  0
LINE
  5
91
  8
1
 62
     7
 10
531.73629433600001
 20
-65.493859082576606
 30
0.0
 11
532.13629433599988
 21
-65.493859082576606
 31
0.0
  0
LINE
  5
92
  8
1
 62
     7
 10
531.73629433600001
 20
-53.49385908257662
 30
0.0
 11
531.73629433600001
 21
-56.99385908257662
 31
0.0
  0
LINE
  5
93
  8
1
 62
     7
 10
531.73629433600001
 20
-53.49385908257662
 30
0.0
 11
532.13629433599988
 21
-53.49385908257662
 31
0.0
  0
LINE
  5
94
  8
1
 62
     7
 10
528.43629433600006
 20
-43.493859082576613
 30
0.0
 11
528.43629433600006
 21
-59.493859082576598
 31
0.0
  0
LINE
  5
95
  8
1
 62
     7
 10
524.43629433600006
 20
-43.493859082576613
 30
0.0
 11
524.43629433599995
 21
-77.993859082576634
 31
0.0
  0
LINE
  5
96
  8
1
 62
     7
 10
524.43629433599983
 20
-70.993859082576634
 30
0.0
 11
529.13629433599999
 21
-70.993859082576634
 31
0.0
  0
LINE
  5
97
  8
1
 62
     7
 10
528.43629433600006
 20
-43.493859082576613
 30
0.0
 11
524.43629433600006
 21
-43.493859082576613
 31
0.0
  0
LINE
  5
98
  8
1
 62
     7
 10
529.13629433599999
 20
-50.493859082576613
 30
0.0
 11
529.73629433600001
 21
-50.493859082576613
 31
0.0
  0
LINE
  5
99
  8
1
 62
     7
 10
533.63629433599999
 20
-44.49385908257662
 30
0.0
 11
533.63629433599999
 21
-79.993859082576634
 31
0.0
  0
LINE
  5
9A
  8
1
 62
     7
 10
533.63629433599999
 20
-44.49385908257662
 30
0.0
 11
547.63629433599976
 21
-44.49385908257679
 31
0.0
  0
LINE
  5
9B
  8
1
 62
     7
 10
524.03629433599997
 20
-43.99385908257662
 30
0.0
 11
524.03629433599997
 21
-77.993859082576634
 31
0.0
  0
LINE
  5
9C
  8
1
 62
     3
 10
547.63629433599976
 20
-124.99385908257661
 30
0.0
 11
533.63629433599999
 21
-124.99385908257661
 31
0.0
  0
LINE
  5
9D
  8
1
 62
     7
 10
533.63629433599999
 20
-124.5938590825766
 30
0.0
 11
547.63629433599976
 21
-124.5938590825766
 31
0.0
  0
LINE
  5
9E
  8
1
  6
DASHDOT
 62
     3
 10
548.38079354863589
 20
-122.49385908257661
 30
0.0
 11
532.84129232386488
 21
-122.49385908257661
 31
0.0
  0
LINE
  5
9F
  8
1
 62
     7
 10
533.63629433599999
 20
-120.3938590825766
 30
0.0
 11
547.63629433599976
 21
-120.3938590825766
 31
0.0
  0
LINE
  5
A0
  8
1
 62
     3
 10
547.63629433599976
 20
-119.99385908257661
 30
0.0
 11
533.63629433599999
 21
-119.99385908257661
 31
0.0
  0
LINE
  5
A1
  8
1
 62
     7
 10
529.13629433599999
 20
-67.49385908257662
 30
0.0
 11
529.73629433600013
 21
-67.49385908257662
 31
0.0
  0
LINE
  5
A2
  8
1
 62
     7
 10
529.13629433599999
 20
-77.993859082576634
 30
0.0
 11
529.13629433599999
 21
-50.493859082576613
 31
0.0
  0
LINE
  5
A3
  8
1
 62
     7
 10
529.73629433600001
 20
-48.493859082576598
 30
0.0
 11
531.73629433600001
 21
-48.493859082576598
 31
0.0
  0
LINE
  5
A4
  8
1
 62
     7
 10
531.73629433600001
 20
-48.493859082576598
 30
0.0
 11
531.73629433600001
 21
-77.993859082576634
 31
0.0
  0
LINE
  5
A5
  8
1
 62
     7
 10
529.73629433600001
 20
-48.493859082576598
 30
0.0
 11
529.73629433600001
 21
-77.993859082576634
 31
0.0
  0
LINE
  5
A6
  8
1
 62
     7
 10
547.63629433599976
 20
-44.49385908257679
 30
0.0
 11
547.63629433599988
 21
-126.99385908257661
 31
0.0
  0
LINE
  5
A7
  8
1
 62
     7
 10
532.13629433600011
 20
-51.99385908257662
 30
0.0
 11
532.13629433600011
 21
-66.993859082576677
 31
0.0
  0
LINE
  5
A8
  8
1
 62
     7
 10
529.73629433600013
 20
-69.993859082576677
 30
0.0
 11
531.7362943359999
 21
-69.993859082576677
 31
0.0
  0
LINE
  5
A9
  8
1
 62
     7
 10
524.03629433599997
 20
-70.493859082576634
 30
0.0
 11
502.53629433600008
 21
-70.493859082576634
 31
0.0
  0
LINE
  5
AA
  8
1
 62
     7
 10
496.53629433600008
 20
-47.493859082576591
 30
0.0
 11
496.53629433600008
 21
-164.99385908257651
 31
0.0
  0
LINE
  5
AB
  8
1
 62
     7
 10
512.63629433600011
 20
-79.993859082576634
 30
0.0
 11
533.63629433599999
 21
-79.993859082576634
 31
0.0
  0
LINE
  5
AC
  8
1
 62
     7
 10
512.63629433600011
 20
-84.693859082576608
 30
0.0
 11
547.63629433599976
 21
-84.693859082576608
 31
0.0
  0
LINE
  5
AD
  8
1
 62
     7
 10
547.63629433599976
 20
-87.493859082576634
 30
0.0
 11
512.63629433600011
 21
-87.493859082576634
 31
0.0
  0
LINE
  5
AE
  8
1
 62
     7
 10
496.53629433600008
 20
-47.493859082576591
 30
0.0
 11
494.13629433600022
 21
-47.493859082576591
 31
0.0
  0
LINE
  5
AF
  8
1
 62
     7
 10
494.13629433600022
 20
-47.493859082576591
 30
0.0
 11
494.13629433600022
 21
-164.99385908257651
 31
0.0
  0
LINE
  5
B0
  8
1
 62
     7
 10
496.53629433600008
 20
-164.99385908257651
 30
0.0
 11
494.13629433600022
 21
-164.99385908257651
 31
0.0
  0
LINE
  5
B1
  8
1
 62
     7
 10
524.03629433600076
 20
-116.99385908257661
 30
0.0
 11
524.03629433599997
 21
-150.99385908257651
 31
0.0
  0
LINE
  5
B2
  8
1
 62
     7
 10
512.63629433600011
 20
-107.49385908257661
 30
0.0
 11
547.63629433599988
 21
-107.49385908257661
 31
0.0
  0
LINE
  5
B3
  8
1
 62
     7
 10
512.63629433600011
 20
-114.99385908257651
 30
0.0
 11
533.63629433599988
 21
-114.99385908257651
 31
0.0
  0
LINE
  5
B4
  8
1
 62
     7
 10
547.13629433599988
 20
-127.49385908257651
 30
0.0
 11
547.63629433599988
 21
-126.99385908257661
 31
0.0
  0
LINE
  5
B5
  8
1
 62
     7
 10
533.63629433599999
 20
-127.49385908257651
 30
0.0
 11
533.63629433599988
 21
-114.99385908257651
 31
0.0
  0
LINE
  5
B6
  8
1
 62
     7
 10
544.13629433599988
 20
-134.94175324998901
 30
0.0
 11
544.13629433599988
 21
-130.49385908257659
 31
0.0
  0
LINE
  5
B7
  8
1
 62
     7
 10
538.63629433599988
 20
-136.94175324998901
 30
0.0
 11
542.13629433599999
 21
-136.94175324998901
 31
0.0
  0
LINE
  5
B8
  8
1
 62
     7
 10
536.63629433600011
 20
-130.49385908257659
 30
0.0
 11
536.63629433599999
 21
-134.94175324998901
 31
0.0
  0
LINE
  5
B9
  8
1
 62
     7
 10
531.08629433599992
 20
-149.19385908257661
 30
0.0
 11
531.08629433599992
 21
-140.7938590825766
 31
0.0
  0
LINE
  5
BA
  8
1
 62
     7
 10
528.43629433600006
 20
-135.49385908257651
 30
0.0
 11
528.43629433600006
 21
-151.49385908257651
 31
0.0
  0
LINE
  5
BB
  8
1
 62
     7
 10
529.03629433599986
 20
-149.49385908257651
 30
0.0
 11
528.43629433600006
 21
-149.49385908257651
 31
0.0
  0
LINE
  5
BC
  8
1
 62
     7
 10
529.4862943359999
 20
-140.74385908257651
 30
0.0
 11
529.03629433599986
 21
-140.74385908257651
 31
0.0
  0
LINE
  5
BD
  8
1
 62
     7
 10
529.4862943359999
 20
-149.24385908257659
 30
0.0
 11
529.03629433599986
 21
-149.24385908257659
 31
0.0
  0
LINE
  5
BE
  8
1
 62
     7
 10
529.13629433599999
 20
-123.99385908257661
 30
0.0
 11
524.43629433599961
 21
-123.99385908257661
 31
0.0
  0
LINE
  5
BF
  8
1
 62
     7
 10
524.43629433599961
 20
-116.99385908257661
 30
0.0
 11
524.43629433600006
 21
-151.49385908257651
 31
0.0
  0
LINE
  5
C0
  8
1
 62
     7
 10
528.43629433600006
 20
-151.49385908257651
 30
0.0
 11
524.43629433600006
 21
-151.49385908257651
 31
0.0
  0
LINE
  5
C1
  8
1
  6
DASHDOT
 62
     3
 10
494.13629433600022
 20
-97.493859082576606
 30
0.0
 11
487.13629433600022
 21
-97.493859082576606
 31
0.0
  0
LINE
  5
C2
  8
1
 62
     7
 10
496.53629433600008
 20
-71.493859082576634
 30
0.0
 11
494.13629433600022
 21
-71.493859082576606
 31
0.0
  0
LINE
  5
C3
  8
1
 62
     7
 10
502.53629433600008
 20
-43.993859082576598
 30
0.0
 11
524.03629433599997
 21
-43.99385908257662
 31
0.0
  0
LINE
  5
C4
  8
1
 62
     7
 10
502.53629433600008
 20
-124.49385908257661
 30
0.0
 11
524.03629433599997
 21
-124.49385908257661
 31
0.0
  0
LINE
  5
C5
  8
1
 62
     7
 10
502.53629433600008
 20
-150.99385908257651
 30
0.0
 11
524.03629433599997
 21
-150.99385908257651
 31
0.0
  0
LINE
  5
C6
  8
1
 62
     7
 10
506.08629433600009
 20
-20.756134472680341
 30
0.0
 11
506.08629433600009
 21
-43.99385908257662
 31
0.0
  0
LINE
  5
C7
  8
1
 62
     7
 10
508.58629433600021
 20
-43.99385908257662
 30
0.0
 11
508.58629433600021
 21
-20.756134472680341
 31
0.0
  0
LINE
  5
C8
  8
1
 62
     7
 10
506.08629433600009
 20
-20.756134472680341
 30
0.0
 11
508.58629433600021
 21
-20.756134472680341
 31
0.0
  0
LINE
  5
C9
  8
1
 62
     7
 10
507.73629433600013
 20
-20.756134472680341
 30
0.0
 11
507.73629433600013
 21
-15.756134472680341
 31
0.0
  0
LINE
  5
CA
  8
1
 62
     7
 10
507.53629433600008
 20
-20.756134472680341
 30
0.0
 11
507.53629433600008
 21
-15.756134472680341
 31
0.0
  0
LINE
  5
CB
  8
1
 62
     7
 10
507.33629433600021
 20
-20.756134472680341
 30
0.0
 11
507.33629433600021
 21
-15.756134472680341
 31
0.0
  0
LINE
  5
CC
  8
1
 62
     7
 10
507.13629433600022
 20
-20.756134472680341
 30
0.0
 11
507.13629433600022
 21
-15.756134472680341
 31
0.0
  0
LINE
  5
CD
  8
1
 62
     7
 10
506.93629433600012
 20
-20.756134472680341
 30
0.0
 11
506.93629433600012
 21
-15.756134472680341
 31
0.0
  0
LINE
  5
CE
  8
1
 62
     7
 10
529.73629433600001
 20
-139.49385908257651
 30
0.0
 11
531.73629433600001
 21
-139.49385908257651
 31
0.0
  0
LINE
  5
CF
  8
1
 62
     7
 10
531.73629433600001
 20
-139.49385908257651
 30
0.0
 11
531.73629433600001
 21
-116.99385908257661
 31
0.0
  0
LINE
  5
D0
  8
1
 62
     7
 10
533.63629433599999
 20
-51.99385908257662
 30
0.0
 11
532.13629433600011
 21
-51.99385908257662
 31
0.0
  0
LINE
  5
D1
  8
1
 62
     7
 10
533.63629433599999
 20
-66.993859082576677
 30
0.0
 11
532.13629433600011
 21
-66.993859082576677
 31
0.0
  0
LINE
  5
D2
  8
1
  6
DASHDOT
 62
     3
 10
547.63629433599988
 20
-97.493859082576606
 30
0.0
 11
554.63629433599999
 21
-97.493859082576606
 31
0.0
  0
LINE
  5
D3
  8
1
  6
DASHDOT
 62
     3
 10
648.77816221843216
 20
-127.99385908257661
 30
0.0
 11
648.77816221843216
 21
-116.99385908257661
 31
0.0
  0
LINE
  5
D4
  8
1
 62
     7
 10
529.13629433599999
 20
-135.49385908257651
 30
0.0
 11
528.43629433600006
 21
-138.10629464787471
 31
0.0
  0
LINE
  5
D5
  8
1
 62
     7
 10
529.73629433600001
 20
-135.49385908257651
 30
0.0
 11
529.03629433599997
 21
-138.03522744859811
 31
0.0
  0
LINE
  5
D6
  8
1
 62
     7
 10
529.03629433599997
 20
-138.03522744859811
 30
0.0
 11
529.03629433599986
 21
-149.49385908257651
 31
0.0
  0
LINE
  5
D7
  8
1
 62
     7
 10
529.13629433599999
 20
-135.49385908257651
 30
0.0
 11
529.13629433599999
 21
-116.99385908257661
 31
0.0
  0
LINE
  5
D8
  8
1
 62
     7
 10
529.4862943359999
 20
-140.74385908257651
 30
0.0
 11
529.4862943359999
 21
-149.24385908257659
 31
0.0
  0
LINE
  5
D9
  8
1
 62
     7
 10
413.13629433599999
 20
-135.49385908257651
 30
0.0
 11
412.43629433599978
 21
-138.10629464787471
 31
0.0
  0
LINE
  5
DA
  8
1
 62
     7
 10
413.7362943359999
 20
-135.49385908257651
 30
0.0
 11
413.03629433599991
 21
-138.03522744859811
 31
0.0
  0
LINE
  5
DB
  8
1
 62
     7
 10
413.03629433599991
 20
-138.03522744859811
 30
0.0
 11
413.0362943359998
 21
-149.49385908257651
 31
0.0
  0
LINE
  5
DC
  8
1
 62
     7
 10
529.13629433600011
 20
-59.493859082576598
 30
0.0
 11
528.43629433600006
 21
-59.493859082576598
 31
0.0
  0
LINE
  5
DD
  8
1
 62
     7
 10
528.43629433600006
 20
-135.49385908257651
 30
0.0
 11
529.13629433599999
 21
-135.49385908257651
 31
0.0
  0
LINE
  5
DE
  8
1
 62
     7
 10
413.13629433599999
 20
-59.493859082576598
 30
0.0
 11
412.436294336
 21
-59.493859082576598
 31
0.0
  0
LINE
  5
DF
  8
1
 62
     7
 10
413.13629433599999
 20
-135.49385908257651
 30
0.0
 11
412.436294336
 21
-135.49385908257651
 31
0.0
  0
ARC
  5
E0
  8
1
 62
     7
 10
634.77816221843239
 20
-73.2451477766122
 30
0.0
 40
25.0
 50
94.489205277217806
 51
119.9999999999999
  0
ARC
  5
E1
  8
1
 62
     7
 10
676.77816221843216
 20
-97.493859082576705
 30
0.0
 40
25.00000000000011
 50
334.48920527721742
 51
0.0
  0
ARC
  5
E2
  8
1
 62
     7
 10
648.77816221843216
 20
-97.493859082576606
 30
0.0
 40
53.0
 50
119.9999999999997
 51
180.0
  0
ARC
  5
E3
  8
1
 62
     7
 10
648.77816221843216
 20
-97.493859082576606
 30
0.0
 40
53.0
 50
0.0
 51
59.999999999999751
  0
ARC
  5
E4
  8
1
 62
     7
 10
620.77816221843239
 20
-97.493859082576606
 30
0.0
 40
25.0
 50
180.0
 51
205.51079472278181
  0
ARC
  5
E5
  8
1
 62
     7
 10
662.77816221843216
 20
-73.245147776612257
 30
0.0
 40
25.0
 50
59.999999999999389
 51
85.510794722781654
  0
ARC
  5
E6
  8
1
 62
     7
 10
662.77816221843239
 20
-121.7425703885409
 30
0.0
 40
24.999999999999911
 50
299.9999999999996
 51
325.51079472278178
  0
ARC
  5
E7
  8
1
 62
     7
 10
648.77816221843216
 20
-97.493859082576606
 30
0.0
 40
53.000000000000028
 50
239.99999999999989
 51
299.99999999999977
  0
ARC
  5
E8
  8
1
 62
     7
 10
634.77816221843227
 20
-121.7425703885407
 30
0.0
 40
25.000000000000028
 50
214.48920527721779
 51
239.99999999999989
  0
ARC
  5
E9
  8
1
 62
     7
 10
618.83079668795403
 20
-61.270174872050227
 30
0.0
 40
15.000000000000069
 50
309.58170974180911
 51
3.3944986889147479
  0
ARC
  5
EA
  8
1
 62
     7
 10
695.12247572865203
 20
-89.670521862027414
 30
0.0
 40
15.000000000000069
 50
189.58170974180831
 51
243.39449868891509
  0
ARC
  5
EB
  8
1
 62
     7
 10
648.77816221843216
 20
-97.493859082576606
 30
0.0
 40
32.000000000000071
 50
129.5817097418084
 51
170.41829025819189
  0
ARC
  5
EC
  8
1
 62
     7
 10
648.77816221843216
 20
-97.493859082576606
 30
0.0
 40
31.999999999999599
 50
9.5817097418086323
 51
50.418290258191448
  0
ARC
  5
ED
  8
1
 62
     7
 10
602.43384870821228
 20
-89.670521862027144
 30
0.0
 40
14.99999999999992
 50
296.60550131108357
 51
350.41829025818959
  0
ARC
  5
EE
  8
1
 62
     7
 10
678.72552774891005
 20
-61.270174872050227
 30
0.0
 40
14.999999999999631
 50
176.60550131108511
 51
230.4182902581924
  0
ARC
  5
EF
  8
1
 62
     7
 10
648.77816221843216
 20
-97.493859082576606
 30
0.0
 40
32.000000000000291
 50
249.58170974180791
 51
290.41829025819209
  0
ARC
  5
F0
  8
1
 62
     7
 10
665.17511019817425
 20
-141.5408805136523
 30
0.0
 40
14.99999999999986
 50
56.605501311085881
 51
110.4182902581896
  0
ARC
  5
F1
  8
1
  6
DASHDOT
 62
     3
 10
648.77816221843216
 20
-97.493859082576606
 30
0.0
 40
24.999999999999979
 50
20.588267738444699
 51
39.042651948180357
  0
ARC
  5
F2
  8
1
 62
     7
 10
414.28629433599991
 20
-140.7938590825766
 30
0.0
 40
0.8000000000001249
 50
0.0
 51
180.0
  0
ARC
  5
F3
  8
1
 62
     7
 10
414.28629433599991
 20
-149.19385908257661
 30
0.0
 40
0.7999999999998977
 50
180.0
 51
0.0
  0
ARC
  5
F4
  8
1
 62
     7
 10
386.53629433599991
 20
-49.993859082576613
 30
0.0
 40
6.0
 50
90.0
 51
180.0
  0
ARC
  5
F5
  8
1
 62
     7
 10
386.53629433599991
 20
-144.99385908257659
 30
0.0
 40
6.0
 50
180.0
 51
270.0
  0
ARC
  5
F6
  8
1
  6
DASHDOT
 62
     3
 10
648.77816221843216
 20
-97.493859082576606
 30
0.0
 40
25.00000000000005
 50
259.262689633089
 51
279.75274140195182
  0
ARC
  5
F7
  8
1
  6
DASHDOT
 62
     3
 10
648.77816221843216
 20
-97.493859082576606
 30
0.0
 40
24.999999999999918
 50
140.95734805181959
 51
159.41173226155519
  0
ARC
  5
F8
  8
1
 62
     7
 10
648.77816221843216
 20
-59.493859082576591
 30
0.0
 40
15.00000000000008
 50
356.60550131108522
 51
183.39449868891481
  0
ARC
  5
F9
  8
1
 62
     7
 10
678.72552774891005
 20
-61.270174872050227
 30
0.0
 40
14.999999999999631
 50
176.60550131108511
 51
230.4182902581924
  0
ARC
  5
FA
  8
1
 62
     7
 10
615.86919687462364
 20
-116.49385908257671
 30
0.0
 40
15.00000000000027
 50
116.6055013110859
 51
303.39449868891421
  0
ARC
  5
FB
  8
1
 62
     7
 10
681.6871275622409
 20
-116.49385908257671
 30
0.0
 40
15.000000000000091
 50
236.60550131108431
 51
63.39449868891564
  0
ARC
  5
FC
  8
1
 62
     7
 10
618.83079668795403
 20
-61.270174872050227
 30
0.0
 40
15.000000000000069
 50
309.58170974180911
 51
3.3944986889147479
  0
ARC
  5
FD
  8
1
 62
     7
 10
632.38121423869029
 20
-141.5408805136523
 30
0.0
 40
14.999999999999771
 50
69.581709741810329
 51
123.3944986889155
  0
ARC
  5
FE
  8
1
 62
     7
 10
602.61339806301453
 20
-110.639753897106
 30
0.0
 40
5.000000000000016
 50
150.0
 51
195.8948521830753
  0
ARC
  5
FF
  8
1
 62
     7
 10
648.77816221843216
 20
-97.493859082576606
 30
0.0
 40
53.000000000000107
 50
195.89485218307459
 51
224.1051478169253
  0
ARC
  5
100
  8
1
 62
     7
 10
614.31110127586237
 20
-130.9007701936207
 30
0.0
 40
5.0000000000000906
 50
224.1051478169264
 51
270.0
  0
ARC
  5
101
  8
1
 62
     7
 10
683.2452231610016
 20
-130.90077019362059
 30
0.0
 40
5.0
 50
270.0
 51
315.89485218307283
  0
ARC
  5
102
  8
1
 62
     7
 10
660.47586543128023
 20
-50.941053157002891
 30
0.0
 40
5.000000000000016
 50
29.99999999999989
 51
75.894852183075614
  0
ARC
  5
103
  8
1
 62
     7
 10
694.94292637384967
 20
-110.639753897106
 30
0.0
 40
4.9999999999999201
 50
344.10514781692581
 51
29.99999999999989
  0
ARC
  5
104
  8
1
 62
     7
 10
637.08045900558375
 20
-50.941053157002891
 30
0.0
 40
4.9999999999999929
 50
104.1051478169245
 51
150.0000000000006
  0
ARC
  5
105
  8
1
 62
     7
 10
648.77816221843216
 20
-97.493859082576606
 30
0.0
 40
53.000000000000071
 50
75.894852183074889
 51
104.10514781692549
  0
ARC
  5
106
  8
1
 62
     7
 10
648.77816221843216
 20
-97.493859082576606
 30
0.0
 40
53.000000000000057
 50
315.89485218307431
 51
344.10514781692518
  0
ARC
  5
107
  8
1
 62
     7
 10
648.77816221843216
 20
-97.493859082576606
 30
0.0
 40
9.9999999999999822
 50
107.45760312372209
 51
72.542396876277877
  0
ARC
  5
108
  8
1
 62
     7
 10
648.77816221843216
 20
-97.493859082576606
 30
0.0
 40
67.500000000000043
 50
312.20544640373231
 51
317.7945535962678
  0
ARC
  5
109
  8
1
 62
     7
 10
648.77816221843216
 20
-97.493859082576606
 30
0.0
 40
67.499999999999972
 50
222.2054464037322
 51
227.7945535962678
  0
ARC
  5
10A
  8
1
 62
     7
 10
648.77816221843216
 20
-97.493859082576606
 30
0.0
 40
67.499999999999901
 50
132.20544640373211
 51
137.7945535962676
  0
ARC
  5
10B
  8
1
 62
     7
 10
648.77816221843216
 20
-97.493859082576606
 30
0.0
 40
67.500000000000014
 50
42.205446403732317
 51
47.794553596267669
  0
ARC
  5
10C
  8
1
  6
DASHDOT
 62
     3
 10
648.77816221843216
 20
-97.493859082576606
 30
0.0
 40
60.999999999999901
 50
130.45230437260491
 51
139.3546870887063
  0
ARC
  5
10D
  8
1
  6
DASHDOT
 62
     3
 10
648.77816221843216
 20
-97.493859082576606
 30
0.0
 40
60.999999999999851
 50
220.452304372605
 51
229.3546870887065
  0
ARC
  5
10E
  8
1
  6
DASHDOT
 62
     3
 10
648.77816221843216
 20
-97.493859082576606
 30
0.0
 40
61.000000000000057
 50
310.45230437260511
 51
319.35468708870633
  0
ARC
  5
10F
  8
1
  6
DASHDOT
 62
     3
 10
648.77816221843216
 20
-97.493859082576606
 30
0.0
 40
61.000000000000028
 50
40.452304372604999
 51
49.354687088706321
  0
ARC
  5
110
  8
1
 62
     7
 10
648.77816221843216
 20
-97.493859082576606
 30
0.0
 40
48.999999999999893
 50
231.6111677157626
 51
238.99728086612589
  0
ARC
  5
111
  8
1
 62
     7
 10
648.77816221843216
 20
-97.493859082576606
 30
0.0
 40
49.000000000000021
 50
301.00271913387388
 51
308.38883228423759
  0
ARC
  5
112
  8
1
 62
     7
 10
648.77816221843216
 20
-97.493859082576606
 30
0.0
 40
48.999999999999957
 50
351.61116771576241
 51
358.997280866126
  0
ARC
  5
113
  8
1
 62
     7
 10
648.77816221843216
 20
-97.493859082576606
 30
0.0
 40
48.999999999999773
 50
111.61116771576251
 51
118.9972808661261
  0
ARC
  5
114
  8
1
 62
     7
 10
648.77816221843216
 20
-97.493859082576606
 30
0.0
 40
49.000000000000007
 50
61.002719133873718
 51
68.388832284237381
  0
ARC
  5
115
  8
1
 62
     7
 10
648.77816221843216
 20
-97.493859082576606
 30
0.0
 40
49.000000000000007
 50
181.002719133874
 51
188.38883228423759
  0
ARC
  5
116
  8
1
 62
     7
 10
530.28629433599986
 20
-140.7938590825766
 30
0.0
 40
0.8000000000000682
 50
0.0
 51
180.0
  0
ARC
  5
117
  8
1
 62
     7
 10
530.28629433599986
 20
-149.19385908257661
 30
0.0
 40
0.7999999999999546
 50
180.0
 51
0.0
  0
ARC
  5
118
  8
1
 62
     7
 10
502.53629433600008
 20
-49.993859082576613
 30
0.0
 40
6.0
 50
90.0
 51
180.0
  0
ARC
  5
119
  8
1
 62
     7
 10
502.53629433600008
 20
-64.49385908257662
 30
0.0
 40
6.0
 50
180.0
 51
270.0
  0
ARC
  5
11A
  8
1
 62
     7
 10
502.53629433600008
 20
-144.99385908257659
 30
0.0
 40
6.0
 50
180.0
 51
270.0
  0
ARC
  5
11B
  8
1
 62
     7
 10
502.53629433600008
 20
-130.49385908257659
 30
0.0
 40
5.9999999999999858
 50
90.0
 51
180.0
  0
CIRCLE
  5
11C
  8
1
 62
     7
 10
648.77816221843216
 20
-97.493859082576606
 30
0.0
 40
54.0
  0
CIRCLE
  5
11D
  8
1
 62
     7
 10
681.6871275622409
 20
-116.49385908257671
 30
0.0
 40
7.5
  0
CIRCLE
  5
11E
  8
1
 62
     7
 10
615.86919687462364
 20
-116.49385908257671
 30
0.0
 40
7.5
  0
CIRCLE
  5
11F
  8
1
 62
     7
 10
648.77816221843216
 20
-59.493859082576591
 30
0.0
 40
7.5
  0
CIRCLE
  5
120
  8
1
 62
     7
 10
648.77816221843216
 20
-59.493859082576591
 30
0.0
 40
9.5
  0
CIRCLE
  5
121
  8
1
 62
     7
 10
615.86919687462364
 20
-116.49385908257671
 30
0.0
 40
9.5000000000001172
  0
CIRCLE
  5
122
  8
1
 62
     7
 10
681.6871275622409
 20
-116.49385908257671
 30
0.0
 40
9.5000000000000266
  0
CIRCLE
  5
123
  8
1
 62
     7
 10
681.6871275622409
 20
-116.49385908257671
 30
0.0
 40
5.9999999999999636
  0
CIRCLE
  5
124
  8
1
 62
     7
 10
681.6871275622409
 20
-116.49385908257671
 30
0.0
 40
2.499999999999996
  0
CIRCLE
  5
125
  8
1
 62
     7
 10
681.6871275622409
 20
-116.49385908257671
 30
0.0
 40
2.0000000000000151
  0
CIRCLE
  5
126
  8
1
 62
     7
 10
615.86919687462364
 20
-116.49385908257671
 30
0.0
 40
5.9999999999999751
  0
CIRCLE
  5
127
  8
1
 62
     7
 10
615.86919687462364
 20
-116.49385908257671
 30
0.0
 40
2.500000000000008
  0
CIRCLE
  5
128
  8
1
 62
     7
 10
615.86919687462364
 20
-116.49385908257671
 30
0.0
 40
2.000000000000028
  0
CIRCLE
  5
129
  8
1
 62
     7
 10
648.77816221843216
 20
-59.493859082576591
 30
0.0
 40
6.0
  0
CIRCLE
  5
12A
  8
1
 62
     7
 10
648.77816221843216
 20
-59.493859082576591
 30
0.0
 40
2.5
  0
CIRCLE
  5
12B
  8
1
 62
     7
 10
648.77816221843216
 20
-59.493859082576591
 30
0.0
 40
2.0
  0
CIRCLE
  5
12C
  8
1
 62
     7
 10
605.64464856605321
 20
-54.360345430197192
 30
0.0
 40
3.25
  0
CIRCLE
  5
12D
  8
1
 62
     7
 10
605.64464856605275
 20
-140.62737273495591
 30
0.0
 40
3.25
  0
CIRCLE
  5
12E
  8
1
 62
     7
 10
691.91167587081179
 20
-140.62737273495591
 30
0.0
 40
3.25
  0
CIRCLE
  5
12F
  8
1
 62
     7
 10
691.91167587081179
 20
-54.360345430197292
 30
0.0
 40
3.25
  0
CIRCLE
  5
130
  8
1
 62
     7
 10
648.77816221843216
 20
-144.99385908257659
 30
0.0
 40
4.5
  0
CIRCLE
  5
131
  8
1
 62
     7
 10
689.91436889819295
 20
-73.743859082576591
 30
0.0
 40
4.4999999999999742
  0
CIRCLE
  5
132
  8
1
 62
     7
 10
607.64195553867137
 20
-73.743859082576762
 30
0.0
 40
4.4999999999999742
  0
CIRCLE
  5
133
  8
1
 62
     7
 10
648.77816221843216
 20
-122.49385908257661
 30
0.0
 40
1.8999999999999759
  0
CIRCLE
  5
134
  8
1
 62
     3
 10
648.77816221843216
 20
-122.49385908257661
 30
0.0
 40
2.5
  0
CIRCLE
  5
135
  8
1
 62
     7
 10
670.42879731304322
 20
-84.993859082576591
 30
0.0
 40
1.8999999999999759
  0
CIRCLE
  5
136
  8
1
 62
     3
 10
670.42879731304322
 20
-84.993859082576591
 30
0.0
 40
2.5
  0
CIRCLE
  5
137
  8
1
 62
     7
 10
627.12752712382121
 20
-84.993859082576591
 30
0.0
 40
1.9000000000000901
  0
CIRCLE
  5
138
  8
1
 62
     3
 10
627.12752712382121
 20
-84.993859082576591
 30
0.0
 40
2.5000000000001141
  0
ARC
  5
139
  8
1
 62
     7
 10
419.63629433599988
 20
-130.49385908257659
 30
0.0
 40
1.0
 50
0.0
 51
90.0
  0
ARC
  5
13A
  8
1
 62
     7
 10
429.13629433599999
 20
-130.49385908257659
 30
0.0
 40
1.0
 50
90.0
 51
180.0
  0
ARC
  5
13B
  8
1
 62
     7
 10
419.63629433599988
 20
-127.49385908257651
 30
0.0
 40
2.0
 50
180.0
 51
270.0
  0
ARC
  5
13C
  8
1
 62
     7
 10
422.63629433599988
 20
-134.94175324998901
 30
0.0
 40
2.0
 50
180.0
 51
270.0
  0
ARC
  5
13D
  8
1
 62
     7
 10
426.13629433599988
 20
-134.94175324998901
 30
0.0
 40
2.0
 50
270.0
 51
0.0
  0
ARC
  5
13E
  8
1
 62
     7
 10
429.13629433599999
 20
-127.49385908257651
 30
0.0
 40
1.9999999999999849
 50
270.0
 51
0.0
  0
ARC
  5
13F
  8
1
 62
     7
 10
535.63629433599988
 20
-130.49385908257659
 30
0.0
 40
1.000000000000113
 50
0.0
 51
90.0
  0
ARC
  5
140
  8
1
 62
     7
 10
545.13629433600011
 20
-130.49385908257659
 30
0.0
 40
1.0
 50
90.0
 51
180.0
  0
ARC
  5
141
  8
1
 62
     7
 10
535.63629433599988
 20
-127.49385908257651
 30
0.0
 40
2.0
 50
180.0
 51
270.0
  0
ARC
  5
142
  8
1
 62
     7
 10
538.63629433599988
 20
-134.94175324998901
 30
0.0
 40
2.0
 50
180.0
 51
270.0
  0
ARC
  5
143
  8
1
 62
     7
 10
542.13629433599999
 20
-134.94175324998901
 30
0.0
 40
2.0
 50
270.0
 51
0.0
  0
ARC
  5
144
  8
1
 62
     7
 10
545.13629433599999
 20
-127.49385908257651
 30
0.0
 40
1.9999999999999849
 50
270.0
 51
0.0
  0
TEXT
  5
145
  8
1
 62
     7
 10
370.62405803969182
 20
4.32248214482291
 30
0.0
 40
4.0
  1
VBEHA 2.5
 41
0.9
  7
SIMPLEX
  0
ENDSEC
  0
EOF
