  0
SECTION
  2
HEADER
  9
$ACADVER
  1
AC1009
  9
$INSBASE
 10
0.0
 20
0.0
 30
0.0
  9
$EXTMIN
 10
-214.6953695647999
 20
-292.74514597170111
 30
0.0
  9
$EXTMAX
 10
37.750818450105527
 20
-132.91160147806411
 30
0.0
  9
$LIMMIN
 10
-214.6953695647999
 20
-292.74514597170111
  9
$LIMMAX
 10
33.877751491159131
 20
-132.9116014780642
  9
$ORTHOMODE
 70
     0
  9
$REGENMODE
 70
     1
  9
$FILLMODE
 70
     1
  9
$QTEXTMODE
 70
     0
  9
$MIRRTEXT
 70
     1
  9
$DRAGMODE
 70
     2
  9
$LTSCALE
 40
1.0
  9
$OSMODE
 70
    37
  9
$ATTMODE
 70
     1
  9
$TEXTSIZE
 40
3.5
  9
$TRACEWID
 40
0.5
  9
$TEXTSTYLE
  7
STANDARD
  9
$CLAYER
  8
0
  9
$CELTYPE
  6
BYLAYER
  9
$CECOLOR
 62
   256
  9
$DIMSCALE
 40
1.0
  9
$DIMASZ
 40
0.18
  9
$DIMEXO
 40
0.0625
  9
$DIMDLI
 40
0.38
  9
$DIMRND
 40
0.0
  9
$DIMDLE
 40
0.0
  9
$DIMEXE
 40
0.18
  9
$DIMTP
 40
0.0
  9
$DIMTM
 40
0.0
  9
$DIMTXT
 40
0.18
  9
$DIMCEN
 40
0.09
  9
$DIMTSZ
 40
0.0
  9
$DIMTOL
 70
     0
  9
$DIMLIM
 70
     0
  9
$DIMTIH
 70
     1
  9
$DIMTOH
 70
     1
  9
$DIMSE1
 70
     0
  9
$DIMSE2
 70
     0
  9
$DIMTAD
 70
     0
  9
$DIMZIN
 70
     0
  9
$DIMBLK
  1

  9
$DIMASO
 70
     1
  9
$DIMSHO
 70
     1
  9
$DIMPOST
  1

  9
$DIMAPOST
  1

  9
$DIMALT
 70
     0
  9
$DIMALTD
 70
     2
  9
$DIMALTF
 40
25.399999999999999
  9
$DIMLFAC
 40
1.0
  9
$DIMTOFL
 70
     0
  9
$DIMTVP
 40
0.0
  9
$DIMTIX
 70
     0
  9
$DIMSOXD
 70
     0
  9
$DIMSAH
 70
     0
  9
$DIMBLK1
  1

  9
$DIMBLK2
  1

  9
$DIMSTYLE
  2
STANDARD
  9
$DIMCLRD
 70
     0
  9
$DIMCLRE
 70
     0
  9
$DIMCLRT
 70
     0
  9
$DIMTFAC
 40
1.0
  9
$DIMGAP
 40
0.09
  9
$LUNITS
 70
     2
  9
$LUPREC
 70
     4
  9
$SKETCHINC
 40
0.1
  9
$FILLETRAD
 40
2.0
  9
$AUNITS
 70
     0
  9
$AUPREC
 70
     0
  9
$MENU
  1
ACAD
  9
$ELEVATION
 40
0.0
  9
$PELEVATION
 40
0.0
  9
$THICKNESS
 40
0.0
  9
$LIMCHECK
 70
     0
  9
$BLIPMODE
 70
     0
  9
$CHAMFERA
 40
0.0
  9
$CHAMFERB
 40
0.0
  9
$SKPOLY
 70
     0
  9
$TDCREATE
 40
2452095.4253940969
  9
$TDUPDATE
 40
2452095.4260914349
  9
$TDINDWG
 40
0.0007126157
  9
$TDUSRTIMER
 40
0.0007126157
  9
$USRTIMER
 70
     1
  9
$ANGBASE
 50
0.0
  9
$ANGDIR
 70
     0
  9
$PDMODE
 70
     0
  9
$PDSIZE
 40
0.0
  9
$PLINEWID
 40
0.0
  9
$COORDS
 70
     1
  9
$SPLFRAME
 70
     0
  9
$SPLINETYPE
 70
     6
  9
$SPLINESEGS
 70
     8
  9
$ATTDIA
 70
     0
  9
$ATTREQ
 70
     1
  9
$HANDLING
 70
 10241
  9
$HANDSEED
  5
14B
  9
$SURFTAB1
 70
     6
  9
$SURFTAB2
 70
     6
  9
$SURFTYPE
 70
     6
  9
$SURFU
 70
     6
  9
$SURFV
 70
     6
  9
$UCSNAME
  2

  9
$UCSORG
 10
0.0
 20
0.0
 30
0.0
  9
$UCSXDIR
 10
1.0
 20
0.0
 30
0.0
  9
$UCSYDIR
 10
0.0
 20
1.0
 30
0.0
  9
$PUCSNAME
  2

  9
$PUCSORG
 10
0.0
 20
0.0
 30
0.0
  9
$PUCSXDIR
 10
1.0
 20
0.0
 30
0.0
  9
$PUCSYDIR
 10
0.0
 20
1.0
 30
0.0
  9
$USERI1
 70
     0
  9
$USERI2
 70
     0
  9
$USERI3
 70
     0
  9
$USERI4
 70
     0
  9
$USERI5
 70
     0
  9
$USERR1
 40
0.0
  9
$USERR2
 40
0.0
  9
$USERR3
 40
0.0
  9
$USERR4
 40
0.0
  9
$USERR5
 40
0.0
  9
$WORLDVIEW
 70
     1
  9
$SHADEDGE
 70
     3
  9
$SHADEDIF
 70
    70
  9
$TILEMODE
 70
     1
  9
$MAXACTVP
 70
    64
  9
$PLIMCHECK
 70
     0
  9
$PEXTMIN
 10
1.0000000000000000E+020
 20
1.0000000000000000E+020
 30
1.0000000000000000E+020
  9
$PEXTMAX
 10
-1.0000000000000000E+020
 20
-1.0000000000000000E+020
 30
-1.0000000000000000E+020
  9
$PLIMMIN
 10
0.0
 20
0.0
  9
$PLIMMAX
 10
12.0
 20
9.0
  9
$UNITMODE
 70
     0
  9
$VISRETAIN
 70
     1
  9
$PLINEGEN
 70
     0
  9
$PSLTSCALE
 70
     1
  0
ENDSEC
  0
SECTION
  2
TABLES
  0
TABLE
  2
VPORT
 70
     2
  0
VPORT
  2
*ACTIVE
 70
     0
 10
0.0
 20
0.0
 11
1.0
 21
1.0
 12
-196.58684289384851
 22
-137.13325140489209
 13
0.0
 23
0.0
 14
1.0
 24
1.0
 15
0.0
 25
0.0
 16
0.0
 26
0.0
 36
1.0
 17
0.0
 27
0.0
 37
0.0
 40
9.0000000552815891
 41
3.0569948186528491
 42
50.0
 43
0.0
 44
0.0
 50
0.0
 51
0.0
 71
     0
 72
   100
 73
     1
 74
     1
 75
     0
 76
     0
 77
     0
 78
     0
  0
ENDTAB
  0
TABLE
  2
LTYPE
 70
     9
  0
LTYPE
  2
CONTINUOUS
 70
     0
  3
Solid line
 72
    65
 73
     0
 40
0.0
  0
LTYPE
  2
BORDER
 70
     0
  3
__ __ . __ __ .
 72
    65
 73
     6
 40
11.447446364419161
 49
3.2706989612626178
 49
-1.6353494806313089
 49
3.2706989612626178
 49
-1.6353494806313089
 49
0.0
 49
-1.6353494806313089
  0
LTYPE
  2
CENTER
 70
     0
  3
____ _ ____ _
 72
    65
 73
     4
 40
13.08279584505048
 49
8.176747403156547
 49
-1.6353494806313089
 49
1.6353494806313089
 49
-1.6353494806313089
  0
LTYPE
  2
DASHDOT
 70
     0
  3
__ . __ . __ .
 72
    65
 73
     4
 40
6.5413979225252374
 49
3.2706989612626178
 49
-1.6353494806313089
 49
0.0
 49
-1.6353494806313089
  0
LTYPE
  2
DASHED
 70
     0
  3
__ __ __ __ __
 72
    65
 73
     2
 40
4.906048441893927
 49
3.2706989612626178
 49
-1.6353494806313089
  0
LTYPE
  2
DIVIDE
 70
     0
  3
__ . . __ . . 
 72
    65
 73
     6
 40
8.176747403156547
 49
3.2706989612626178
 49
-1.6353494806313089
 49
0.0
 49
-1.6353494806313089
 49
0.0
 49
-1.6353494806313089
  0
LTYPE
  2
DOT
 70
     0
  3
..............
 72
    65
 73
     4
 40
3.2706989612626178
 49
0.0
 49
-1.6353494806313089
 49
0.0
 49
-1.6353494806313089
  0
LTYPE
  2
HIDDEN
 70
     0
  3
_ _ _ _ _ _ _
 72
    65
 73
     2
 40
2.453024220946963
 49
1.6353494806313089
 49
-0.8176747403156547
  0
LTYPE
  2
PHANTOM
 70
     0
  3
_____ _ _ _____ _ _ 
 72
    65
 73
     6
 40
16.35349480631309
 49
8.176747403156547
 49
-1.6353494806313089
 49
1.6353494806313089
 49
-1.6353494806313089
 49
1.6353494806313089
 49
-1.6353494806313089
  0
ENDTAB
  0
TABLE
  2
LAYER
 70
     2
  0
LAYER
  2
0
 70
     0
 62
     7
  6
CONTINUOUS
  0
LAYER
  2
1
 70
     0
 62
     7
  6
CONTINUOUS
  0
ENDTAB
  0
TABLE
  2
STYLE
 70
     4
  0
STYLE
  2
STANDARD
 70
     0
 40
0.0
 41
1.0
 50
0.0
 71
     0
 42
3.5
  3
txt
  4

  0
STYLE
  2
SIMPLEX
 70
     0
 40
0.0
 41
1.0
 50
0.0
 71
     0
 42
3.5
  3
simplex
  4

  0
STYLE
  2
COMPLEX
 70
     0
 40
0.0
 41
1.0
 50
0.0
 71
     0
 42
3.5
  3
complex
  4

  0
STYLE
  2
ITALIC
 70
     0
 40
0.0
 41
1.0
 50
0.0
 71
     0
 42
3.5
  3
italic
  4

  0
ENDTAB
  0
TABLE
  2
VIEW
 70
     0
  0
ENDTAB
  0
TABLE
  2
UCS
 70
     0
  0
ENDTAB
  0
TABLE
  2
APPID
 70
     1
  0
APPID
  2
ACAD
 70
     0
  0
ENDTAB
  0
TABLE
  2
DIMSTYLE
 70
     1
  0
DIMSTYLE
  2
STANDARD
 70
     0
  3

  4

  5

  6

  7

 40
1.0
 41
0.18
 42
0.0625
 43
0.38
 44
0.18
 45
0.0
 46
0.0
 47
0.0
 48
0.0
140
0.18
141
0.09
142
0.0
143
25.399999999999999
144
1.0
145
0.0
146
1.0
147
0.09
 71
     0
 72
     0
 73
     1
 74
     1
 75
     0
 76
     0
 77
     0
 78
     0
170
     0
171
     2
172
     0
173
     0
174
     0
175
     0
176
     0
177
     0
178
     0
  0
ENDTAB
  0
ENDSEC
  0
SECTION
  2
BLOCKS
  0
BLOCK
  8
0
  2
$MODEL_SPACE
 70
     0
 10
0.0
 20
0.0
 30
0.0
  3
$MODEL_SPACE
  1

  0
ENDBLK
  5
20
  8
0
  0
BLOCK
 67
     1
  8
0
  2
$PAPER_SPACE
 70
     0
 10
0.0
 20
0.0
 30
0.0
  3
$PAPER_SPACE
  1

  0
ENDBLK
  5
1C
 67
     1
  8
0
  0
ENDSEC
  0
SECTION
  2
ENTITIES
  0
LINE
  5
33
  8
1
 62
     7
 10
-211.641106406684
 20
-253.74514597170099
 30
0.0
 11
-210.74110640668411
 21
-253.74514597170099
 31
0.0
  0
LINE
  5
34
  8
1
 62
     7
 10
-211.641106406684
 20
-221.74514597170099
 30
0.0
 11
-210.74110640668411
 21
-221.74514597170099
 31
0.0
  0
LINE
  5
35
  8
1
 62
     7
 10
-210.74110640668411
 20
-256.795145971701
 30
0.0
 11
-209.241106406684
 21
-256.795145971701
 31
0.0
  0
LINE
  5
36
  8
1
 62
     7
 10
-207.64110640668409
 20
-257.24514597170088
 30
0.0
 11
-209.241106406684
 21
-257.24514597170088
 31
0.0
  0
LINE
  5
37
  8
1
 62
     7
 10
-209.241106406684
 20
-257.24514597170088
 30
0.0
 11
-209.241106406684
 21
-218.24514597170099
 31
0.0
  0
LINE
  5
38
  8
1
 62
     7
 10
-209.241106406684
 20
-218.69514597170101
 30
0.0
 11
-210.74110640668411
 21
-218.69514597170101
 31
0.0
  0
LINE
  5
39
  8
1
 62
     7
 10
-210.74110640668411
 20
-256.795145971701
 30
0.0
 11
-210.74110640668411
 21
-218.69514597170101
 31
0.0
  0
LINE
  5
3A
  8
1
 62
     7
 10
-209.241106406684
 20
-218.24514597170099
 30
0.0
 11
-207.64110640668409
 21
-218.24514597170099
 31
0.0
  0
LINE
  5
3B
  8
1
 62
     7
 10
-211.641106406684
 20
-221.74514597170099
 30
0.0
 11
-211.641106406684
 21
-253.74514597170099
 31
0.0
  0
LINE
  5
3C
  8
1
 62
     7
 10
-118.43831038220389
 20
-261.24514597170088
 30
0.0
 11
-118.43831038220389
 21
-292.74514597170111
 31
0.0
  0
LINE
  5
3D
  8
1
 62
     7
 10
-120.5383103822039
 20
-253.74514597170099
 30
0.0
 11
-120.5383103822039
 21
-292.74514597170111
 31
0.0
  0
LINE
  5
3E
  8
1
 62
     7
 10
-124.5383103822039
 20
-221.74514597170099
 30
0.0
 11
-124.5383103822039
 21
-253.74514597170099
 31
0.0
  0
LINE
  5
3F
  8
1
 62
     7
 10
-101.8383103822039
 20
-253.74514597170099
 30
0.0
 11
-122.1383103822039
 21
-253.74514597170099
 31
0.0
  0
LINE
  5
40
  8
1
 62
     7
 10
-101.8383103822039
 20
-257.74514597170111
 30
0.0
 11
-102.5383103822039
 21
-257.74514597170111
 31
0.0
  0
LINE
  5
41
  8
1
 62
     7
 10
-101.8383103822039
 20
-253.74514597170099
 30
0.0
 11
-101.8383103822039
 21
-258.24514597170099
 31
0.0
  0
LINE
  5
42
  8
1
 62
     7
 10
-102.5383103822039
 20
-217.74514597170099
 30
0.0
 11
-101.8383103822039
 21
-217.74514597170099
 31
0.0
  0
LINE
  5
43
  8
1
 62
     7
 10
-101.8383103822039
 20
-221.73815297983899
 30
0.0
 11
-102.5383103822039
 21
-221.73815297983899
 31
0.0
  0
LINE
  5
44
  8
1
 62
     7
 10
-101.8383103822039
 20
-217.24514597170099
 30
0.0
 11
-101.8383103822039
 21
-221.74514597170099
 31
0.0
  0
LINE
  5
45
  8
1
 62
     7
 10
-101.5383103822039
 20
-260.84514597170102
 30
0.0
 11
-99.438310382203866
 21
-260.84514597170102
 31
0.0
  0
LINE
  5
46
  8
1
 62
     7
 10
-181.4411064066841
 20
-258.24514597170099
 30
0.0
 11
-179.4411064066841
 21
-258.24514597170099
 31
0.0
  0
LINE
  5
47
  8
1
 62
     7
 10
-179.4411064066841
 20
-218.74514597170099
 30
0.0
 11
-179.4411064066841
 21
-263.24514597170088
 31
0.0
  0
LINE
  5
48
  8
1
 62
     7
 10
-179.4411064066841
 20
-217.24514597170099
 30
0.0
 11
-181.4411064066841
 21
-217.24514597170099
 31
0.0
  0
LINE
  5
49
  8
1
 62
     7
 10
-179.4411064066841
 20
-271.24514597170088
 30
0.0
 11
-171.641106406684
 21
-271.24514597170088
 31
0.0
  0
LINE
  5
4A
  8
1
 62
     7
 10
-179.4411064066841
 20
-218.74514597170099
 30
0.0
 11
-179.4411064066841
 21
-204.24514597170099
 31
0.0
  0
LINE
  5
4B
  8
1
 62
     7
 10
-171.641106406684
 20
-204.24514597170099
 30
0.0
 11
-179.4411064066841
 21
-204.24514597170099
 31
0.0
  0
LINE
  5
4C
  8
1
 62
     7
 10
-171.641106406684
 20
-271.24514597170088
 30
0.0
 11
-171.641106406684
 21
-204.24514597170099
 31
0.0
  0
LINE
  5
4D
  8
1
 62
     7
 10
-124.5383103822039
 20
-253.74514597170099
 30
0.0
 11
-123.6383103822038
 21
-253.74514597170099
 31
0.0
  0
LINE
  5
4E
  8
1
 62
     7
 10
-101.5383103822039
 20
-258.74514597170088
 30
0.0
 11
-101.5383103822039
 21
-261.24514597170088
 31
0.0
  0
LINE
  5
4F
  8
1
 62
     7
 10
-122.1383103822039
 20
-252.89514597170091
 30
0.0
 11
-123.6383103822038
 21
-252.89514597170091
 31
0.0
  0
LINE
  5
50
  8
1
 62
     7
 10
-123.6383103822038
 20
-256.795145971701
 30
0.0
 11
-122.1383103822039
 21
-256.795145971701
 31
0.0
  0
LINE
  5
51
  8
1
 62
     7
 10
-123.6383103822038
 20
-256.795145971701
 30
0.0
 11
-123.6383103822038
 21
-252.89514597170091
 31
0.0
  0
LINE
  5
52
  8
1
 62
     7
 10
-120.5383103822039
 20
-257.24514597170088
 30
0.0
 11
-122.1383103822039
 21
-257.24514597170088
 31
0.0
  0
LINE
  5
53
  8
1
 62
     7
 10
-122.1383103822039
 20
-257.24514597170088
 30
0.0
 11
-122.1383103822039
 21
-252.89514597170091
 31
0.0
  0
LINE
  5
54
  8
1
 62
     7
 10
-120.5383103822039
 20
-261.24514597170088
 30
0.0
 11
-101.5383103822039
 21
-261.24514597170088
 31
0.0
  0
LINE
  5
55
  8
1
 62
     7
 10
-114.9133103822039
 20
-255.54658881318591
 30
0.0
 11
-108.1633103822039
 21
-255.54658881318591
 31
0.0
  0
LINE
  5
56
  8
1
 62
     7
 10
-117.1633103822039
 20
-255.54658881318591
 30
0.0
 11
-120.5383103822039
 21
-255.54658881318591
 31
0.0
  0
LINE
  5
57
  8
1
 62
     7
 10
-117.1633103822039
 20
-259.44370313021591
 30
0.0
 11
-120.5383103822039
 21
-259.44370313021591
 31
0.0
  0
LINE
  5
58
  8
1
 62
     7
 10
-119.6383103822037
 20
-259.74514597170099
 30
0.0
 11
-119.6383103822037
 21
-255.24514597170099
 31
0.0
  0
LINE
  5
59
  8
1
 62
     7
 10
-108.1633103822039
 20
-259.44370313021591
 30
0.0
 11
-114.9133103822039
 21
-259.44370313021591
 31
0.0
  0
LINE
  5
5A
  8
1
 62
     7
 10
-105.9133103822039
 20
-259.44370313021591
 30
0.0
 11
-102.5383103822039
 21
-259.44370313021591
 31
0.0
  0
LINE
  5
5B
  8
1
 62
     7
 10
-105.9133103822039
 20
-255.54658881318591
 30
0.0
 11
-102.5383103822039
 21
-255.54658881318591
 31
0.0
  0
LINE
  5
5C
  8
1
 62
     7
 10
-102.5383103822039
 20
-261.24514597170088
 30
0.0
 11
-102.5383103822039
 21
-253.74514597170099
 31
0.0
  0
LINE
  5
5D
  8
1
 62
     7
 10
-103.43831038220389
 20
-255.24514597170099
 30
0.0
 11
-103.43831038220389
 21
-259.74514597170099
 31
0.0
  0
LINE
  5
5E
  8
1
 62
     7
 10
-101.5383103822039
 20
-214.24514597170099
 30
0.0
 11
-101.5383103822039
 21
-216.74514597170099
 31
0.0
  0
LINE
  5
5F
  8
1
 62
     7
 10
-123.6383103822038
 20
-221.74514597170099
 30
0.0
 11
-124.5383103822039
 21
-221.74514597170099
 31
0.0
  0
LINE
  5
60
  8
1
 62
     7
 10
-123.6383103822038
 20
-222.59514597170099
 30
0.0
 11
-122.1383103822039
 21
-222.59514597170099
 31
0.0
  0
LINE
  5
61
  8
1
 62
     7
 10
-122.1383103822039
 20
-218.69514597170101
 30
0.0
 11
-123.6383103822038
 21
-218.69514597170101
 31
0.0
  0
LINE
  5
62
  8
1
 62
     7
 10
-123.6383103822038
 20
-222.59514597170099
 30
0.0
 11
-123.6383103822038
 21
-218.69514597170101
 31
0.0
  0
LINE
  5
63
  8
1
 62
     7
 10
-122.1383103822039
 20
-218.24514597170099
 30
0.0
 11
-120.5383103822039
 21
-218.24514597170099
 31
0.0
  0
LINE
  5
64
  8
1
 62
     7
 10
-122.1383103822039
 20
-222.59514597170099
 30
0.0
 11
-122.1383103822039
 21
-218.24514597170099
 31
0.0
  0
LINE
  5
65
  8
1
 62
     7
 10
-99.438310382203866
 20
-258.74514597170088
 30
0.0
 11
-99.438310382203866
 21
-280.24514597170088
 31
0.0
  0
LINE
  5
66
  8
1
 62
     7
 10
-99.038310382203875
 20
-258.74514597170088
 30
0.0
 11
-99.038310382203875
 21
-280.74514597170099
 31
0.0
  0
LINE
  5
67
  8
1
 62
     7
 10
-95.238310382203863
 20
-258.74514597170088
 30
0.0
 11
-95.238310382203863
 21
-280.74514597170099
 31
0.0
  0
LINE
  5
68
  8
1
 62
     7
 10
-94.838310382203886
 20
-258.74514597170088
 30
0.0
 11
-94.838310382203886
 21
-265.74514597170088
 31
0.0
  0
LINE
  5
69
  8
1
 62
     7
 10
-94.338310382203886
 20
-258.74514597170088
 30
0.0
 11
-94.338310382203886
 21
-265.74514597170088
 31
0.0
  0
LINE
  5
6A
  8
1
 62
     7
 10
-96.338310382203886
 20
-216.74514597170099
 30
0.0
 11
-96.338310382203886
 21
-194.74514597170099
 31
0.0
  0
LINE
  5
6B
  8
1
 62
     7
 10
-102.5383103822039
 20
-221.74514597170099
 30
0.0
 11
-122.1383103822039
 21
-221.74514597170099
 31
0.0
  0
LINE
  5
6C
  8
1
 62
     7
 10
-101.5383103822039
 20
-214.24514597170099
 30
0.0
 11
-120.5383103822039
 21
-214.24514597170099
 31
0.0
  0
LINE
  5
6D
  8
1
 62
     7
 10
-108.1633103822039
 20
-219.94370313021599
 30
0.0
 11
-114.9133103822039
 21
-219.94370313021599
 31
0.0
  0
LINE
  5
6E
  8
1
 62
     7
 10
-120.5383103822039
 20
-219.94370313021599
 30
0.0
 11
-117.1633103822039
 21
-219.94370313021599
 31
0.0
  0
LINE
  5
6F
  8
1
 62
     7
 10
-120.5383103822039
 20
-216.04658881318591
 30
0.0
 11
-117.1633103822039
 21
-216.04658881318591
 31
0.0
  0
LINE
  5
70
  8
1
 62
     7
 10
-119.6383103822037
 20
-220.24514597170099
 30
0.0
 11
-119.6383103822037
 21
-215.74514597170099
 31
0.0
  0
LINE
  5
71
  8
1
 62
     7
 10
-114.9133103822039
 20
-216.04658881318591
 30
0.0
 11
-108.1633103822039
 21
-216.04658881318591
 31
0.0
  0
LINE
  5
72
  8
1
 62
     7
 10
-102.5383103822039
 20
-216.04658881318591
 30
0.0
 11
-105.9133103822039
 21
-216.04658881318591
 31
0.0
  0
LINE
  5
73
  8
1
 62
     7
 10
-102.5383103822039
 20
-219.94370313021599
 30
0.0
 11
-105.9133103822039
 21
-219.94370313021599
 31
0.0
  0
LINE
  5
74
  8
1
 62
     7
 10
-102.5383103822039
 20
-221.74514597170099
 30
0.0
 11
-102.5383103822039
 21
-214.24514597170099
 31
0.0
  0
LINE
  5
75
  8
1
 62
     7
 10
-103.43831038220389
 20
-215.74514597170099
 30
0.0
 11
-103.43831038220389
 21
-220.24514597170099
 31
0.0
  0
LINE
  5
76
  8
1
 62
     7
 10
-182.3411064066841
 20
-274.74514597170099
 30
0.0
 11
-181.9411064066841
 21
-274.74514597170099
 31
0.0
  0
LINE
  5
77
  8
1
 62
     7
 10
-181.9411064066841
 20
-260.74514597170088
 30
0.0
 11
-182.3411064066841
 21
-260.74514597170088
 31
0.0
  0
LINE
  5
78
  8
1
 62
     7
 10
-183.4411064066841
 20
-194.74514597170099
 30
0.0
 11
-183.4411064066841
 21
-280.74514597170099
 31
0.0
  0
LINE
  5
79
  8
1
 62
     7
 10
-94.838310382203886
 20
-269.74514597170088
 30
0.0
 11
-94.838310382203886
 21
-279.74514597170088
 31
0.0
  0
LINE
  5
7A
  8
1
 62
     7
 10
-95.238310382203863
 20
-194.74514597170099
 30
0.0
 11
-95.238310382203863
 21
-216.74514597170099
 31
0.0
  0
LINE
  5
7B
  8
1
 62
     7
 10
-94.838310382203886
 20
-274.74514597170099
 30
0.0
 11
-95.238310382203863
 21
-274.74514597170099
 31
0.0
  0
LINE
  5
7C
  8
1
 62
     7
 10
-94.838310382203886
 20
-260.74514597170088
 30
0.0
 11
-95.238310382203863
 21
-260.74514597170088
 31
0.0
  0
LINE
  5
7D
  8
1
 62
     7
 10
-96.338310382203886
 20
-263.49514597170088
 30
0.0
 11
-96.338310382203886
 21
-258.74514597170088
 31
0.0
  0
LINE
  5
7E
  8
1
 62
     7
 10
-96.338310382203886
 20
-280.74514597170099
 30
0.0
 11
-96.338310382203886
 21
-271.99514597170088
 31
0.0
  0
LINE
  5
7F
  8
1
 62
     7
 10
-182.3411064066841
 20
-271.99514597170088
 30
0.0
 11
-182.3411064066841
 21
-194.74514597170099
 31
0.0
  0
LINE
  5
80
  8
1
 62
     7
 10
-205.54110640668409
 20
-292.74514597170088
 30
0.0
 11
-205.54110640668409
 21
-196.74514597170099
 31
0.0
  0
LINE
  5
81
  8
1
 62
     7
 10
-207.64110640668409
 20
-196.74514597170099
 30
0.0
 11
-207.64110640668409
 21
-292.74514597170088
 31
0.0
  0
LINE
  5
82
  8
1
 62
     3
 10
-94.199079897662486
 20
-265.74514597170088
 30
0.0
 11
-94.199079897662486
 21
-269.74514597170088
 31
0.0
  0
LINE
  5
83
  8
1
 62
     3
 10
-94.199079897662486
 20
-269.14514597170103
 30
0.0
 11
-95.238310382203863
 21
-269.74514597170088
 31
0.0
  0
LINE
  5
84
  8
1
 62
     3
 10
-85.738310382203849
 20
-269.14514597170103
 30
0.0
 11
-94.199079897662486
 21
-269.14514597170103
 31
0.0
  0
LINE
  5
85
  8
1
 62
     3
 10
-94.199079897662486
 20
-266.34514597170102
 30
0.0
 11
-95.238310382203863
 21
-265.74514597170088
 31
0.0
  0
LINE
  5
86
  8
1
 62
     3
 10
-85.738310382203849
 20
-266.34514597170102
 30
0.0
 11
-94.199079897662486
 21
-266.34514597170102
 31
0.0
  0
LINE
  5
87
  8
1
 62
     7
 10
-86.338310382203872
 20
-265.74514597170088
 30
0.0
 11
-86.338310382203872
 21
-269.74514597170088
 31
0.0
  0
LINE
  5
88
  8
1
 62
     7
 10
-86.338310382203872
 20
-269.74514597170088
 30
0.0
 11
-95.238310382203863
 21
-269.74514597170088
 31
0.0
  0
LINE
  5
89
  8
1
 62
     7
 10
-85.738310382203849
 20
-269.14514597170103
 30
0.0
 11
-86.338310382203872
 21
-269.74514597170088
 31
0.0
  0
LINE
  5
8A
  8
1
 62
     7
 10
-85.738310382203849
 20
-266.34514597170102
 30
0.0
 11
-85.738310382203849
 21
-269.14514597170103
 31
0.0
  0
LINE
  5
8B
  8
1
 62
     7
 10
-86.338310382203872
 20
-265.74514597170088
 30
0.0
 11
-85.738310382203849
 21
-266.34514597170102
 31
0.0
  0
LINE
  5
8C
  8
1
 62
     7
 10
-95.238310382203863
 20
-265.74514597170088
 30
0.0
 11
-86.338310382203872
 21
-265.74514597170088
 31
0.0
  0
LINE
  5
8D
  8
1
 62
     7
 10
-98.488310382203863
 20
-265.74514597170088
 30
0.0
 11
-98.488310382203863
 21
-269.74514597170088
 31
0.0
  0
LINE
  5
8E
  8
1
 62
     7
 10
-95.738310382203863
 20
-271.49514597170088
 30
0.0
 11
-95.738310382203863
 21
-263.99514597170099
 31
0.0
  0
LINE
  5
8F
  8
1
 62
     7
 10
-96.138310382203869
 20
-271.49514597170088
 30
0.0
 11
-95.738310382203863
 21
-271.49514597170088
 31
0.0
  0
LINE
  5
90
  8
1
 62
     7
 10
-96.138310382203869
 20
-263.99514597170099
 30
0.0
 11
-96.138310382203869
 21
-271.49514597170088
 31
0.0
  0
LINE
  5
91
  8
1
 62
     7
 10
-95.738310382203863
 20
-263.99514597170099
 30
0.0
 11
-96.138310382203869
 21
-263.99514597170099
 31
0.0
  0
LINE
  5
92
  8
1
 62
     7
 10
-95.738310382203863
 20
-264.24514597170099
 30
0.0
 11
-95.238310382203863
 21
-264.24514597170099
 31
0.0
  0
LINE
  5
93
  8
1
 62
     7
 10
-95.238310382203863
 20
-271.24514597170088
 30
0.0
 11
-95.738310382203863
 21
-271.24514597170088
 31
0.0
  0
LINE
  5
94
  8
1
 62
     7
 10
-118.43831038220389
 20
-196.74514597170099
 30
0.0
 11
-118.43831038220389
 21
-214.24514597170099
 31
0.0
  0
LINE
  5
95
  8
1
  6
DASHDOT
 62
     3
 10
-208.64879877789949
 20
-286.74514597170088
 30
0.0
 11
-204.34627739026669
 21
-286.74514597170088
 31
0.0
  0
LINE
  5
96
  8
1
 62
     7
 10
-110.5832060088682
 20
-166.8180347288195
 30
0.0
 11
-110.5832060088682
 21
-163.46778019287791
 31
0.0
  0
LINE
  5
97
  8
1
 62
     7
 10
-110.3288908932612
 20
-166.8180347288195
 30
0.0
 11
-110.3288908932612
 21
-163.46778019287791
 31
0.0
  0
LINE
  5
98
  8
1
 62
     7
 10
-109.2934147555393
 20
-163.46778019287791
 30
0.0
 11
-109.2934147555393
 21
-166.8180347288195
 31
0.0
  0
LINE
  5
99
  8
1
 62
     7
 10
-109.5477298711464
 20
-163.46778019287791
 30
0.0
 11
-109.5477298711464
 21
-166.8180347288195
 31
0.0
  0
LINE
  5
9A
  8
1
 62
     7
 10
-111.1883103822038
 20
-166.8180347288195
 30
0.0
 11
-108.68831038220389
 21
-166.8180347288195
 31
0.0
  0
LINE
  5
9B
  8
1
 62
     7
 10
-108.68831038220389
 20
-166.8180347288195
 30
0.0
 11
-108.68831038220389
 21
-195.24514597170099
 31
0.0
  0
LINE
  5
9C
  8
1
 62
     7
 10
-111.1883103822038
 20
-166.8180347288195
 30
0.0
 11
-111.1883103822038
 21
-195.24514597170099
 31
0.0
  0
LINE
  5
9D
  8
1
  6
DASHDOT
 62
     3
 10
-121.72718879807751
 20
-286.74514597170088
 30
0.0
 11
-116.6914045615287
 21
-286.74514597170088
 31
0.0
  0
LINE
  5
9E
  8
1
 62
     7
 10
-120.5383103822039
 20
-292.74514597170111
 30
0.0
 11
-118.43831038220389
 21
-292.74514597170111
 31
0.0
  0
LINE
  5
9F
  8
1
 62
     7
 10
-120.5383103822039
 20
-289.49514597170099
 30
0.0
 11
-118.43831038220389
 21
-289.49514597170099
 31
0.0
  0
LINE
  5
A0
  8
1
 62
     7
 10
-120.5383103822039
 20
-283.99514597170088
 30
0.0
 11
-118.43831038220389
 21
-283.99514597170088
 31
0.0
  0
LINE
  5
A1
  8
1
 62
     7
 10
-118.43831038220389
 20
-261.39514597170103
 30
0.0
 11
-120.5383103822039
 21
-261.39514597170103
 31
0.0
  0
LINE
  5
A2
  8
1
 62
     7
 10
-120.5383103822039
 20
-214.09514597170099
 30
0.0
 11
-118.43831038220389
 21
-214.09514597170099
 31
0.0
  0
LINE
  5
A3
  8
1
 62
     7
 10
-120.5383103822039
 20
-196.74514597170099
 30
0.0
 11
-120.5383103822039
 21
-221.74514597170099
 31
0.0
  0
LINE
  5
A4
  8
1
 62
     7
 10
-120.5383103822039
 20
-196.74514597170099
 30
0.0
 11
-118.43831038220389
 21
-196.74514597170099
 31
0.0
  0
LINE
  5
A5
  8
1
 62
     7
 10
-99.438310382203866
 20
-195.24514597170099
 30
0.0
 11
-99.438310382203866
 21
-216.74514597170099
 31
0.0
  0
LINE
  5
A6
  8
1
 62
     7
 10
-99.438310382203866
 20
-214.645145971701
 30
0.0
 11
-101.5383103822039
 21
-214.645145971701
 31
0.0
  0
LINE
  5
A7
  8
1
 62
     7
 10
-99.438310382203866
 20
-280.24514597170088
 30
0.0
 11
-112.4383103822037
 21
-280.24514597170088
 31
0.0
  0
LINE
  5
A8
  8
1
 62
     7
 10
-112.6883103822037
 20
-195.24514597170099
 30
0.0
 11
-99.438310382203866
 21
-195.24514597170099
 31
0.0
  0
LINE
  5
A9
  8
1
 62
     7
 10
-94.838310382203886
 20
-261.49514597170088
 30
0.0
 11
-94.338310382203886
 21
-261.49514597170088
 31
0.0
  0
LINE
  5
AA
  8
1
 62
     7
 10
-94.838310382203886
 20
-274.74514597170099
 30
0.0
 11
-94.338310382203886
 21
-274.74514597170099
 31
0.0
  0
LINE
  5
AB
  8
1
 62
     7
 10
-94.338310382203886
 20
-272.24514597170099
 30
0.0
 11
-92.338310382203886
 21
-272.24514597170099
 31
0.0
  0
LINE
  5
AC
  8
1
 62
     7
 10
-92.338310382203886
 20
-269.14514597170103
 30
0.0
 11
-92.338310382203886
 21
-272.24514597170099
 31
0.0
  0
LINE
  5
AD
  8
1
 62
     7
 10
-94.338310382203886
 20
-263.24514597170088
 30
0.0
 11
-92.338310382203886
 21
-263.24514597170088
 31
0.0
  0
LINE
  5
AE
  8
1
 62
     7
 10
-94.338310382203886
 20
-269.74514597170088
 30
0.0
 11
-94.338310382203886
 21
-279.74514597170088
 31
0.0
  0
LINE
  5
AF
  8
1
 62
     7
 10
-99.038310382203875
 20
-271.99514597170088
 30
0.0
 11
-95.238310382203863
 21
-271.99514597170088
 31
0.0
  0
LINE
  5
B0
  8
1
 62
     7
 10
-99.038310382203875
 20
-263.49514597170088
 30
0.0
 11
-95.238310382203863
 21
-263.49514597170088
 31
0.0
  0
LINE
  5
B1
  8
1
 62
     7
 10
-94.838310382203886
 20
-279.74514597170088
 30
0.0
 11
-94.338310382203886
 21
-279.74514597170088
 31
0.0
  0
LINE
  5
B2
  8
1
 62
     7
 10
-93.338310382203858
 20
-203.84514597170099
 30
0.0
 11
-92.838310382203872
 21
-203.34514597170099
 31
0.0
  0
LINE
  5
B3
  8
1
 62
     7
 10
-92.838310382203872
 20
-197.145145971701
 30
0.0
 11
-93.338310382203858
 21
-196.645145971701
 31
0.0
  0
LINE
  5
B4
  8
1
 62
     7
 10
-94.238310382203863
 20
-196.645145971701
 30
0.0
 11
-94.238310382203863
 21
-203.84514597170099
 31
0.0
  0
LINE
  5
B5
  8
1
 62
     7
 10
-94.738310382203863
 20
-203.84514597170099
 30
0.0
 11
-93.338310382203858
 21
-203.84514597170099
 31
0.0
  0
LINE
  5
B6
  8
1
 62
     7
 10
-92.838310382203872
 20
-197.145145971701
 30
0.0
 11
-92.838310382203872
 21
-203.34514597170099
 31
0.0
  0
LINE
  5
B7
  8
1
 62
     7
 10
-94.738310382203863
 20
-196.645145971701
 30
0.0
 11
-93.338310382203858
 21
-196.645145971701
 31
0.0
  0
LINE
  5
B8
  8
1
 62
     7
 10
-95.238310382203863
 20
-204.74514597170099
 30
0.0
 11
-94.738310382203863
 21
-204.74514597170099
 31
0.0
  0
LINE
  5
B9
  8
1
 62
     7
 10
-95.238310382203863
 20
-205.87912056791649
 30
0.0
 11
-94.838310382203886
 21
-207.74514597170099
 31
0.0
  0
LINE
  5
BA
  8
1
 62
     7
 10
-94.338310382203886
 20
-207.6793197229072
 30
0.0
 11
-94.338310382203886
 21
-216.74514597170099
 31
0.0
  0
LINE
  5
BB
  8
1
 62
     7
 10
-94.738310382203863
 20
-205.81329431912289
 30
0.0
 11
-94.338310382203886
 21
-207.6793197229072
 31
0.0
  0
LINE
  5
BC
  8
1
 62
     7
 10
-94.738310382203863
 20
-195.74514597170099
 30
0.0
 11
-94.738310382203863
 21
-205.81329431912289
 31
0.0
  0
LINE
  5
BD
  8
1
 62
     7
 10
-95.238310382203863
 20
-195.74514597170099
 30
0.0
 11
-94.738310382203863
 21
-195.74514597170099
 31
0.0
  0
LINE
  5
BE
  8
1
 62
     7
 10
-95.238310382203863
 20
-280.74514597170099
 30
0.0
 11
-99.038310382203875
 21
-280.74514597170099
 31
0.0
  0
LINE
  5
BF
  8
1
 62
     7
 10
-95.238310382203863
 20
-260.24514597170099
 30
0.0
 11
-99.038310382203875
 21
-260.24514597170099
 31
0.0
  0
LINE
  5
C0
  8
1
 62
     7
 10
-99.038310382203875
 20
-215.24514597170099
 30
0.0
 11
-95.238310382203863
 21
-215.24514597170099
 31
0.0
  0
LINE
  5
C1
  8
1
 62
     7
 10
-94.838310382203886
 20
-207.74514597170099
 30
0.0
 11
-94.838310382203886
 21
-216.74514597170099
 31
0.0
  0
LINE
  5
C2
  8
1
 62
     7
 10
-99.038310382203875
 20
-194.74514597170099
 30
0.0
 11
-95.238310382203863
 21
-194.74514597170099
 31
0.0
  0
LINE
  5
C3
  8
1
 62
     7
 10
-99.038310382203875
 20
-194.74514597170099
 30
0.0
 11
-99.038310382203875
 21
-216.74514597170099
 31
0.0
  0
LINE
  5
C4
  8
1
  6
DASHDOT
 62
     3
 10
-84.538310382203861
 20
-237.74514597170099
 30
0.0
 11
-81.396512124946497
 21
-237.74514597170099
 31
0.0
  0
LINE
  5
C5
  8
1
  6
DASHDOT
 62
     3
 10
-124.5383103822039
 20
-237.74514597170099
 30
0.0
 11
-127.59257354031951
 21
-237.74514597170099
 31
0.0
  0
LINE
  5
C6
  8
1
 62
     7
 10
-197.68600203334839
 20
-166.8180347288195
 30
0.0
 11
-197.68600203334839
 21
-163.46778019287791
 31
0.0
  0
LINE
  5
C7
  8
1
 62
     7
 10
-197.43168691774139
 20
-166.8180347288195
 30
0.0
 11
-197.43168691774139
 21
-163.46778019287791
 31
0.0
  0
LINE
  5
C8
  8
1
 62
     7
 10
-196.3962107800196
 20
-163.46778019287791
 30
0.0
 11
-196.3962107800196
 21
-166.8180347288195
 31
0.0
  0
LINE
  5
C9
  8
1
 62
     7
 10
-196.6505258956266
 20
-163.46778019287791
 30
0.0
 11
-196.6505258956266
 21
-166.8180347288195
 31
0.0
  0
LINE
  5
CA
  8
1
 62
     7
 10
-198.29110640668409
 20
-166.8180347288195
 30
0.0
 11
-195.79110640668409
 21
-166.8180347288195
 31
0.0
  0
LINE
  5
CB
  8
1
 62
     7
 10
-195.79110640668409
 20
-166.8180347288195
 30
0.0
 11
-195.79110640668409
 21
-195.24514597170099
 31
0.0
  0
LINE
  5
CC
  8
1
 62
     7
 10
-198.29110640668409
 20
-166.8180347288195
 30
0.0
 11
-198.29110640668409
 21
-195.24514597170099
 31
0.0
  0
LINE
  5
CD
  8
1
 62
     7
 10
-207.64110640668409
 20
-292.74514597170088
 30
0.0
 11
-205.54110640668409
 21
-292.74514597170088
 31
0.0
  0
LINE
  5
CE
  8
1
 62
     7
 10
-207.64110640668409
 20
-196.74514597170099
 30
0.0
 11
-205.54110640668409
 21
-196.74514597170099
 31
0.0
  0
LINE
  5
CF
  8
1
 62
     7
 10
-186.54110640668409
 20
-195.24514597170099
 30
0.0
 11
-186.54110640668409
 21
-280.24514597170088
 31
0.0
  0
LINE
  5
D0
  8
1
 62
     7
 10
-186.54110640668409
 20
-280.24514597170088
 30
0.0
 11
-199.54110640668409
 21
-280.24514597170088
 31
0.0
  0
LINE
  5
D1
  8
1
 62
     7
 10
-199.79110640668409
 20
-195.24514597170099
 30
0.0
 11
-186.54110640668409
 21
-195.24514597170099
 31
0.0
  0
LINE
  5
D2
  8
1
 62
     7
 10
-182.3411064066841
 20
-280.74514597170099
 30
0.0
 11
-182.3411064066841
 21
-271.99514597170088
 31
0.0
  0
LINE
  5
D3
  8
1
 62
     7
 10
-181.4411064066841
 20
-272.24514597170099
 30
0.0
 11
-179.4411064066841
 21
-272.24514597170099
 31
0.0
  0
LINE
  5
D4
  8
1
 62
     7
 10
-179.4411064066841
 20
-263.24514597170088
 30
0.0
 11
-179.4411064066841
 21
-272.24514597170099
 31
0.0
  0
LINE
  5
D5
  8
1
 62
     7
 10
-181.4411064066841
 20
-207.6793197229072
 30
0.0
 11
-181.4411064066841
 21
-279.74514597170088
 31
0.0
  0
LINE
  5
D6
  8
1
 62
     7
 10
-181.4411064066841
 20
-263.24514597170088
 30
0.0
 11
-179.4411064066841
 21
-263.24514597170088
 31
0.0
  0
LINE
  5
D7
  8
1
 62
     7
 10
-181.9411064066841
 20
-279.74514597170088
 30
0.0
 11
-181.4411064066841
 21
-279.74514597170088
 31
0.0
  0
LINE
  5
D8
  8
1
 62
     7
 10
-180.4411064066841
 20
-203.84514597170099
 30
0.0
 11
-179.9411064066841
 21
-203.34514597170099
 31
0.0
  0
LINE
  5
D9
  8
1
 62
     7
 10
-179.9411064066841
 20
-197.145145971701
 30
0.0
 11
-180.4411064066841
 21
-196.645145971701
 31
0.0
  0
LINE
  5
DA
  8
1
 62
     7
 10
-181.3411064066841
 20
-196.645145971701
 30
0.0
 11
-181.3411064066841
 21
-203.84514597170099
 31
0.0
  0
LINE
  5
DB
  8
1
 62
     7
 10
-181.8411064066841
 20
-203.84514597170099
 30
0.0
 11
-180.4411064066841
 21
-203.84514597170099
 31
0.0
  0
LINE
  5
DC
  8
1
 62
     7
 10
-179.9411064066841
 20
-197.145145971701
 30
0.0
 11
-179.9411064066841
 21
-203.34514597170099
 31
0.0
  0
LINE
  5
DD
  8
1
 62
     7
 10
-181.8411064066841
 20
-196.645145971701
 30
0.0
 11
-180.4411064066841
 21
-196.645145971701
 31
0.0
  0
LINE
  5
DE
  8
1
 62
     7
 10
-182.3411064066841
 20
-205.87912056791649
 30
0.0
 11
-181.9411064066841
 21
-207.74514597170099
 31
0.0
  0
LINE
  5
DF
  8
1
 62
     7
 10
-181.8411064066841
 20
-205.81329431912289
 30
0.0
 11
-181.4411064066841
 21
-207.6793197229072
 31
0.0
  0
LINE
  5
E0
  8
1
 62
     7
 10
-181.8411064066841
 20
-195.74514597170099
 30
0.0
 11
-181.8411064066841
 21
-205.81329431912289
 31
0.0
  0
LINE
  5
E1
  8
1
 62
     7
 10
-182.3411064066841
 20
-195.74514597170099
 30
0.0
 11
-181.8411064066841
 21
-195.74514597170099
 31
0.0
  0
LINE
  5
E2
  8
1
 62
     7
 10
-182.3411064066841
 20
-280.74514597170099
 30
0.0
 11
-186.14110640668409
 21
-280.74514597170099
 31
0.0
  0
LINE
  5
E3
  8
1
 62
     7
 10
-181.9411064066841
 20
-207.74514597170099
 30
0.0
 11
-181.9411064066841
 21
-279.74514597170088
 31
0.0
  0
LINE
  5
E4
  8
1
 62
     7
 10
-186.14110640668409
 20
-194.74514597170099
 30
0.0
 11
-182.3411064066841
 21
-194.74514597170099
 31
0.0
  0
LINE
  5
E5
  8
1
 62
     7
 10
-186.14110640668409
 20
-194.74514597170099
 30
0.0
 11
-186.14110640668409
 21
-280.74514597170099
 31
0.0
  0
LINE
  5
E6
  8
1
  6
DASHDOT
 62
     3
 10
-171.641106406684
 20
-237.74514597170099
 30
0.0
 11
-168.49930814942681
 21
-237.74514597170099
 31
0.0
  0
LINE
  5
E7
  8
1
  6
DASHDOT
 62
     3
 10
-211.641106406684
 20
-237.74514597170099
 30
0.0
 11
-214.6953695647999
 21
-237.74514597170099
 31
0.0
  0
LINE
  5
E8
  8
1
 62
     7
 10
-197.0493925784771
 20
-166.8180347288195
 30
0.0
 11
-197.0493925784771
 21
-163.49700606470509
 31
0.0
  0
LINE
  5
E9
  8
1
 62
     7
 10
-109.9547805027003
 20
-166.8180347288195
 30
0.0
 11
-109.9547805027003
 21
-163.4884157522711
 31
0.0
  0
LINE
  5
EA
  8
1
 62
     7
 10
-10.997248508840849
 20
-161.8180347288195
 30
0.0
 11
-10.997248508840849
 21
-166.8180347288195
 31
0.0
  0
LINE
  5
EB
  8
1
 62
     7
 10
-10.372248508840849
 20
-161.8180347288195
 30
0.0
 11
-10.372248508840849
 21
-166.8180347288195
 31
0.0
  0
LINE
  5
EC
  8
1
 62
     7
 10
-9.7472485088408547
 20
-161.8180347288195
 30
0.0
 11
-9.7472485088408547
 21
-166.8180347288195
 31
0.0
  0
LINE
  5
ED
  8
1
 62
     7
 10
-8.4972485088408547
 20
-161.8180347288195
 30
0.0
 11
-8.4972485088408547
 21
-166.8180347288195
 31
0.0
  0
LINE
  5
EE
  8
1
 62
     7
 10
-7.8722485088408547
 20
-161.8180347288195
 30
0.0
 11
-7.8722485088408547
 21
-166.8180347288195
 31
0.0
  0
LINE
  5
EF
  8
1
 62
     7
 10
-7.2472485088408547
 20
-161.8180347288195
 30
0.0
 11
-7.2472485088408547
 21
-166.8180347288195
 31
0.0
  0
LINE
  5
F0
  8
1
  6
DASHDOT
 62
     3
 10
-9.1222485088408671
 20
-240.74514597170099
 30
0.0
 11
-9.1222485088408547
 21
-234.74514597170099
 31
0.0
  0
LINE
  5
F1
  8
1
  6
DASHDOT
 62
     3
 10
-6.1222485088408547
 20
-237.74514597170099
 30
0.0
 11
-12.12224850884086
 21
-237.74514597170099
 31
0.0
  0
LINE
  5
F2
  8
1
 62
     7
 10
-84.538310382203861
 20
-245.24514597170099
 30
0.0
 11
-124.5383103822039
 21
-245.24514597170099
 31
0.0
  0
LINE
  5
F3
  8
1
 62
     7
 10
-84.538310382203861
 20
-227.94514597170101
 30
0.0
 11
-124.5383103822039
 21
-227.94514597170101
 31
0.0
  0
LINE
  5
F4
  8
1
 62
     7
 10
-92.338310382203886
 20
-217.24514597170099
 30
0.0
 11
-101.8383103822039
 21
-217.24514597170099
 31
0.0
  0
LINE
  5
F5
  8
1
 62
     7
 10
-11.622248508840849
 20
-166.8180347288195
 30
0.0
 11
-11.622248508840849
 21
-194.82999317183439
 31
0.0
  0
LINE
  5
F6
  8
1
 62
     7
 10
-6.6222485088408547
 20
-166.8180347288195
 30
0.0
 11
-6.6222485088408547
 21
-194.76323994466381
 31
0.0
  0
LINE
  5
F7
  8
1
 62
     7
 10
3.8392328879749442
 20
-196.74514597170099
 30
0.0
 11
27.538357050805811
 21
-196.74514597170099
 31
0.0
  0
LINE
  5
F8
  8
1
 62
     7
 10
-45.782854068487531
 20
-196.74514597170099
 30
0.0
 11
-22.083729905656529
 21
-196.74514597170099
 31
0.0
  0
LINE
  5
F9
  8
1
 62
     7
 10
-50.12224850884084
 20
-201.08454041205431
 30
0.0
 11
-50.12224850884084
 21
-224.78366457488531
 31
0.0
  0
LINE
  5
FA
  8
1
 62
     7
 10
-50.12224850884084
 20
-250.70662736851659
 30
0.0
 11
-50.12224850884084
 21
-274.40575153134762
 31
0.0
  0
LINE
  5
FB
  8
1
 62
     7
 10
-45.782854068487531
 20
-278.74514597170099
 30
0.0
 11
-22.083729905656529
 21
-278.74514597170099
 31
0.0
  0
LINE
  5
FC
  8
1
 62
     7
 10
3.8392328879749442
 20
-278.74514597170099
 30
0.0
 11
27.538357050805811
 21
-278.74514597170099
 31
0.0
  0
LINE
  5
FD
  8
1
 62
     7
 10
31.877751491159099
 20
-250.70662736851659
 30
0.0
 11
31.877751491159099
 21
-274.40575153134762
 31
0.0
  0
LINE
  5
FE
  8
1
 62
     7
 10
31.877751491159099
 20
-201.08454041205431
 30
0.0
 11
31.877751491159099
 21
-224.78366457488531
 31
0.0
  0
LINE
  5
FF
  8
1
 62
     7
 10
-101.8383103822039
 20
-258.24514597170099
 30
0.0
 11
-92.338310382203886
 21
-258.24514597170099
 31
0.0
  0
LINE
  5
100
  8
1
 62
     7
 10
-92.338310382203886
 20
-258.24514597170099
 30
0.0
 11
-92.338310382203886
 21
-266.34514597170102
 31
0.0
  0
LINE
  5
101
  8
1
 62
     7
 10
-92.338310382203886
 20
-271.24514597170088
 30
0.0
 11
-84.538310382203861
 21
-271.24514597170088
 31
0.0
  0
LINE
  5
102
  8
1
 62
     7
 10
-84.538310382203861
 20
-271.24514597170088
 30
0.0
 11
-84.538310382203861
 21
-204.24514597170099
 31
0.0
  0
LINE
  5
103
  8
1
 62
     7
 10
-84.538310382203861
 20
-204.24514597170099
 30
0.0
 11
-92.338310382203886
 21
-204.24514597170099
 31
0.0
  0
LINE
  5
104
  8
1
 62
     7
 10
-92.338310382203886
 20
-217.24514597170099
 30
0.0
 11
-92.338310382203886
 21
-204.24514597170099
 31
0.0
  0
LINE
  5
105
  8
1
 62
     7
 10
-11.622248508840849
 20
-230.67407815983549
 30
0.0
 11
-11.622248508840849
 21
-227.94514597170101
 31
0.0
  0
LINE
  5
106
  8
1
 62
     7
 10
-11.622248508840849
 20
-227.94514597170101
 30
0.0
 11
-6.6222485088408547
 21
-227.94514597170101
 31
0.0
  0
LINE
  5
107
  8
1
 62
     7
 10
-6.6222485088408547
 20
-227.94514597170101
 30
0.0
 11
-6.6222485088408547
 21
-230.67407815983549
 31
0.0
  0
LINE
  5
108
  8
1
  6
DASHDOT
 62
     3
 10
28.354410894046229
 20
-275.22180537458797
 30
0.0
 11
22.697556644553799
 21
-269.5649511250956
 31
0.0
  0
LINE
  5
109
  8
1
  6
DASHDOT
 62
     3
 10
28.354410894046111
 20
-200.26848656881401
 30
0.0
 11
22.697556644553799
 21
-205.9253408183063
 31
0.0
  0
LINE
  5
10A
  8
1
  6
DASHDOT
 62
     3
 10
-46.598907911727913
 20
-200.26848656881401
 30
0.0
 11
-40.942053662235537
 21
-205.9253408183063
 31
0.0
  0
LINE
  5
10B
  8
1
  6
DASHDOT
 62
     3
 10
-46.598907911727849
 20
-275.22180537458809
 30
0.0
 11
-40.942053662235473
 21
-269.5649511250956
 31
0.0
  0
LINE
  5
10C
  8
1
 62
     7
 10
-9.1222485088408547
 20
-166.8180347288195
 30
0.0
 11
-9.1222485088408547
 21
-194.74514597170099
 31
0.0
  0
LINE
  5
10D
  8
1
 62
     7
 10
-11.622248508840849
 20
-166.8180347288195
 30
0.0
 11
-6.6222485088408547
 21
-166.8180347288195
 31
0.0
  0
LINE
  5
10E
  8
1
 62
     7
 10
-124.5383103822039
 20
-230.24514597170099
 30
0.0
 11
-84.538310382203861
 21
-230.24514597170099
 31
0.0
  0
ARC
  5
10F
  8
1
 62
     7
 10
-35.103010622373958
 20
-222.74514597170099
 30
0.0
 40
4.5000000000000178
 50
108.4302183969746
 51
191.56978160302671
  0
ARC
  5
110
  8
1
 62
     7
 10
16.858513604692359
 20
-222.74514597170099
 30
0.0
 40
4.4999999999999343
 50
348.4302183969728
 51
71.569781603027337
  0
ARC
  5
111
  8
1
 62
     7
 10
-9.1222485088408547
 20
-267.74514597170088
 30
0.0
 40
4.499999999999984
 50
228.4302183969734
 51
311.56978160302663
  0
ARC
  5
112
  8
1
 62
     7
 10
-112.7285193646585
 20
-266.51717469165021
 30
0.0
 40
5.7162674087656473
 50
112.7375202020029
 51
177.27234831126091
  0
ARC
  5
113
  8
1
 62
     7
 10
-112.72851936465869
 20
-208.9731172517518
 30
0.0
 40
5.71626740876561
 50
182.72765168873889
 51
247.2624797979968
  0
ARC
  5
114
  8
1
 62
     7
 10
-95.026182634502845
 20
-267.54886013907389
 30
0.0
 40
4.0999999999999908
 50
212.39000322816571
 51
254.26129743268811
  0
ARC
  5
115
  8
1
 62
     7
 10
-95.026182634502845
 20
-267.94143180432809
 30
0.0
 40
4.0999999999999872
 50
105.738702567312
 51
147.60999677183429
  0
ARC
  5
116
  8
1
 62
     7
 10
-112.4383103822037
 20
-201.23993537584181
 30
0.0
 40
6.0000000000000027
 50
92.388015463268744
 51
180.0
  0
ARC
  5
117
  8
1
 62
     7
 10
-112.4383103822037
 20
-274.24514597170088
 30
0.0
 40
6.0
 50
180.0
 51
270.0
  0
ARC
  5
118
  8
1
 62
     7
 10
-199.54110640668409
 20
-201.23993537584181
 30
0.0
 40
6.0000000000000027
 50
92.388015463268744
 51
180.0
  0
ARC
  5
119
  8
1
 62
     7
 10
-199.54110640668409
 20
-274.24514597170088
 30
0.0
 40
6.0
 50
180.0
 51
270.0
  0
ARC
  5
11A
  8
1
 62
     7
 10
-9.1222485088408671
 20
-237.74514597170099
 30
0.0
 40
54.999999999999957
 50
221.80184419314111
 51
228.19815580685901
  0
ARC
  5
11B
  8
1
 62
     7
 10
-9.1222485088408671
 20
-237.74514597170099
 30
0.0
 40
54.999999999999979
 50
311.80184419314111
 51
318.19815580685889
  0
ARC
  5
11C
  8
1
 62
     7
 10
-9.1222485088408671
 20
-237.74514597170099
 30
0.0
 40
54.999999999999957
 50
41.801844193141072
 51
48.198155806858949
  0
ARC
  5
11D
  8
1
 62
     7
 10
-9.1222485088408671
 20
-237.74514597170099
 30
0.0
 40
54.999999999999957
 50
131.80184419314099
 51
138.19815580685901
  0
ARC
  5
11E
  8
1
 62
     7
 10
-9.1222485088408671
 20
-237.74514597170099
 30
0.0
 40
7.5000000000000231
 50
109.47122063449051
 51
70.528779365509266
  0
ARC
  5
11F
  8
1
  6
DASHDOT
 62
     3
 10
-9.1222485088408671
 20
-237.74514597170099
 30
0.0
 40
48.99999999999995
 50
310.31758313773031
 51
319.68241686226958
  0
ARC
  5
120
  8
1
  6
DASHDOT
 62
     3
 10
-9.1222485088408671
 20
-237.74514597170099
 30
0.0
 40
48.999999999999957
 50
40.317583137730352
 51
49.682416862269669
  0
ARC
  5
121
  8
1
  6
DASHDOT
 62
     3
 10
-9.1222485088408671
 20
-237.74514597170099
 30
0.0
 40
48.99999999999995
 50
130.3175831377302
 51
139.6824168622696
  0
ARC
  5
122
  8
1
  6
DASHDOT
 62
     3
 10
-9.1222485088408671
 20
-237.74514597170099
 30
0.0
 40
48.999999999999957
 50
220.3175831377304
 51
229.6824168622696
  0
ARC
  5
123
  8
1
 62
     7
 10
1.877751491159144
 20
-218.6925870884433
 30
0.0
 40
19.999999999999989
 50
6.4033473336400082
 51
59.999999999999893
  0
ARC
  5
124
  8
1
 62
     7
 10
12.877751491159151
 20
-237.74514597170099
 30
0.0
 40
19.99999999999995
 50
0.0
 51
53.59665266635961
  0
ARC
  5
125
  8
1
 62
     7
 10
32.013958170920013
 20
-213.99514597170099
 30
0.0
 40
10.55335413200555
 50
193.51825694901859
 51
226.48174305098161
  0
ARC
  5
126
  8
1
 62
     7
 10
-20.122248508840801
 20
-218.6925870884433
 30
0.0
 40
19.999999999999929
 50
120.0000000000001
 51
173.59665266636
  0
ARC
  5
127
  8
1
 62
     7
 10
-9.1222485088408671
 20
-237.74514597170099
 30
0.0
 40
41.999999999999993
 50
59.999999999999972
 51
119.9999999999999
  0
ARC
  5
128
  8
1
 62
     7
 10
-50.258455188601637
 20
-213.99514597170099
 30
0.0
 40
10.553354132005641
 50
313.51825694901811
 51
346.48174305098121
  0
ARC
  5
129
  8
1
 62
     7
 10
-31.12224850884083
 20
-237.74514597170099
 30
0.0
 40
19.99999999999984
 50
126.4033473336402
 51
180.0
  0
ARC
  5
12A
  8
1
 62
     7
 10
-20.12224850884084
 20
-256.79770485495862
 30
0.0
 40
20.000000000000011
 50
239.99999999999989
 51
293.59665266635977
  0
ARC
  5
12B
  8
1
 62
     7
 10
-9.1222485088408671
 20
-237.74514597170099
 30
0.0
 40
41.999999999999957
 50
180.0
 51
239.99999999999989
  0
ARC
  5
12C
  8
1
 62
     7
 10
-9.1222485088408671
 20
-237.74514597170099
 30
0.0
 40
42.000000000000007
 50
300.00000000000011
 51
0.0
  0
ARC
  5
12D
  8
1
 62
     7
 10
-9.1222485088408547
 20
-285.24514597170088
 30
0.0
 40
10.55335413200557
 50
73.518256949018877
 51
106.48174305098109
  0
ARC
  5
12E
  8
1
 62
     7
 10
1.877751491159144
 20
-256.79770485495862
 30
0.0
 40
19.999999999999961
 50
246.40334733364011
 51
299.99999999999989
  0
CIRCLE
  5
12F
  8
1
 62
     7
 10
-116.0383103822039
 20
-257.49514597170088
 30
0.0
 40
2.25
  0
CIRCLE
  5
130
  8
1
 62
     7
 10
-107.0383103822039
 20
-257.49514597170088
 30
0.0
 40
2.25
  0
CIRCLE
  5
131
  8
1
 62
     7
 10
-116.0383103822039
 20
-217.99514597170099
 30
0.0
 40
2.25
  0
CIRCLE
  5
132
  8
1
 62
     7
 10
-107.0383103822039
 20
-217.99514597170099
 30
0.0
 40
2.25
  0
CIRCLE
  5
133
  8
1
 62
     7
 10
23.35370413307561
 20
-256.49514597170088
 30
0.0
 40
3.600000000000009
  0
CIRCLE
  5
134
  8
1
 62
     7
 10
-41.598201150757241
 20
-256.49514597170088
 30
0.0
 40
3.6000000000000001
  0
CIRCLE
  5
135
  8
1
 62
     7
 10
-9.1222485088408671
 20
-237.74514597170099
 30
0.0
 40
43.0
  0
CIRCLE
  5
136
  8
1
 62
     7
 10
-9.1222485088408547
 20
-200.24514597170099
 30
0.0
 40
3.6000000000000232
  0
CIRCLE
  5
137
  8
1
 62
     7
 10
25.525983769300009
 20
-203.09691369356011
 30
0.0
 40
2.75
  0
CIRCLE
  5
138
  8
1
 62
     7
 10
25.525983769300009
 20
-272.39337824984182
 30
0.0
 40
2.75
  0
CIRCLE
  5
139
  8
1
 62
     7
 10
-43.770480786981651
 20
-272.39337824984182
 30
0.0
 40
2.75
  0
CIRCLE
  5
13A
  8
1
 62
     7
 10
-43.770480786981651
 20
-203.09691369356011
 30
0.0
 40
2.75
  0
CIRCLE
  5
13B
  8
1
 62
     7
 10
-9.1222485088408671
 20
-237.74514597170099
 30
0.0
 40
33.499999999999957
  0
CIRCLE
  5
13C
  8
1
 62
     7
 10
-9.1222485088408547
 20
-267.74514597170088
 30
0.0
 40
1.5999999999999941
  0
CIRCLE
  5
13D
  8
1
 62
     7
 10
-9.1222485088408547
 20
-267.74514597170088
 30
0.0
 40
2.0
  0
CIRCLE
  5
13E
  8
1
 62
     7
 10
16.858513604692359
 20
-222.74514597170099
 30
0.0
 40
1.600000000000003
  0
CIRCLE
  5
13F
  8
1
 62
     7
 10
16.858513604692359
 20
-222.74514597170099
 30
0.0
 40
1.999999999999921
  0
CIRCLE
  5
140
  8
1
 62
     7
 10
-35.103010622373958
 20
-222.74514597170099
 30
0.0
 40
1.99999999999995
  0
CIRCLE
  5
141
  8
1
 62
     7
 10
-35.103010622373958
 20
-222.74514597170099
 30
0.0
 40
1.599999999999999
  0
TEXT
  5
143
  8
1
 62
     7
 10
-209.74730292146
 20
-136.41160147806411
 30
0.0
 40
3.5
  1
VBS 1.2P
 41
0.9
  7
SIMPLEX
  0
ENDSEC
  0
EOF
