  0
SECTION
  2
HEADER
  9
$ACADVER
  1
AC1009
  9
$INSBASE
 10
0.0
 20
0.0
 30
0.0
  9
$EXTMIN
 10
-117.7784700822975
 20
-67.499999999999986
 30
0.0
  9
$EXTMAX
 10
191.9091228064508
 20
113.558012352849
 30
0.0
  9
$LIMMIN
 10
-117.7784700822975
 20
-67.499999999999986
  9
$LIMMAX
 10
186.7597764058755
 20
113.558012352849
  9
$ORTHOMODE
 70
     0
  9
$REGENMODE
 70
     1
  9
$FILLMODE
 70
     1
  9
$QTEXTMODE
 70
     0
  9
$MIRRTEXT
 70
     1
  9
$DRAGMODE
 70
     2
  9
$LTSCALE
 40
1.0
  9
$OSMODE
 70
    37
  9
$ATTMODE
 70
     1
  9
$TEXTSIZE
 40
3.5
  9
$TRACEWID
 40
0.5
  9
$TEXTSTYLE
  7
STANDARD
  9
$CLAYER
  8
0
  9
$CELTYPE
  6
BYLAYER
  9
$CECOLOR
 62
   256
  9
$DIMSCALE
 40
1.0
  9
$DIMASZ
 40
0.18
  9
$DIMEXO
 40
0.0625
  9
$DIMDLI
 40
0.38
  9
$DIMRND
 40
0.0
  9
$DIMDLE
 40
0.0
  9
$DIMEXE
 40
0.18
  9
$DIMTP
 40
0.0
  9
$DIMTM
 40
0.0
  9
$DIMTXT
 40
0.18
  9
$DIMCEN
 40
0.09
  9
$DIMTSZ
 40
0.0
  9
$DIMTOL
 70
     0
  9
$DIMLIM
 70
     0
  9
$DIMTIH
 70
     1
  9
$DIMTOH
 70
     1
  9
$DIMSE1
 70
     0
  9
$DIMSE2
 70
     0
  9
$DIMTAD
 70
     0
  9
$DIMZIN
 70
     0
  9
$DIMBLK
  1

  9
$DIMASO
 70
     1
  9
$DIMSHO
 70
     1
  9
$DIMPOST
  1

  9
$DIMAPOST
  1

  9
$DIMALT
 70
     0
  9
$DIMALTD
 70
     2
  9
$DIMALTF
 40
25.399999999999999
  9
$DIMLFAC
 40
1.0
  9
$DIMTOFL
 70
     0
  9
$DIMTVP
 40
0.0
  9
$DIMTIX
 70
     0
  9
$DIMSOXD
 70
     0
  9
$DIMSAH
 70
     0
  9
$DIMBLK1
  1

  9
$DIMBLK2
  1

  9
$DIMSTYLE
  2
STANDARD
  9
$DIMCLRD
 70
     0
  9
$DIMCLRE
 70
     0
  9
$DIMCLRT
 70
     0
  9
$DIMTFAC
 40
1.0
  9
$DIMGAP
 40
0.09
  9
$LUNITS
 70
     2
  9
$LUPREC
 70
     4
  9
$SKETCHINC
 40
0.1
  9
$FILLETRAD
 40
2.0
  9
$AUNITS
 70
     0
  9
$AUPREC
 70
     0
  9
$MENU
  1
ACAD
  9
$ELEVATION
 40
0.0
  9
$PELEVATION
 40
0.0
  9
$THICKNESS
 40
0.0
  9
$LIMCHECK
 70
     0
  9
$BLIPMODE
 70
     0
  9
$CHAMFERA
 40
0.0
  9
$CHAMFERB
 40
0.0
  9
$SKPOLY
 70
     0
  9
$TDCREATE
 40
2452095.4265206018
  9
$TDUPDATE
 40
2452095.4272344899
  9
$TDINDWG
 40
0.0007228009
  9
$TDUSRTIMER
 40
0.0007228009
  9
$USRTIMER
 70
     1
  9
$ANGBASE
 50
0.0
  9
$ANGDIR
 70
     0
  9
$PDMODE
 70
     0
  9
$PDSIZE
 40
0.0
  9
$PLINEWID
 40
0.0
  9
$COORDS
 70
     1
  9
$SPLFRAME
 70
     0
  9
$SPLINETYPE
 70
     6
  9
$SPLINESEGS
 70
     8
  9
$ATTDIA
 70
     0
  9
$ATTREQ
 70
     1
  9
$HANDLING
 70
 10241
  9
$HANDSEED
  5
149
  9
$SURFTAB1
 70
     6
  9
$SURFTAB2
 70
     6
  9
$SURFTYPE
 70
     6
  9
$SURFU
 70
     6
  9
$SURFV
 70
     6
  9
$UCSNAME
  2

  9
$UCSORG
 10
0.0
 20
0.0
 30
0.0
  9
$UCSXDIR
 10
1.0
 20
0.0
 30
0.0
  9
$UCSYDIR
 10
0.0
 20
1.0
 30
0.0
  9
$PUCSNAME
  2

  9
$PUCSORG
 10
0.0
 20
0.0
 30
0.0
  9
$PUCSXDIR
 10
1.0
 20
0.0
 30
0.0
  9
$PUCSYDIR
 10
0.0
 20
1.0
 30
0.0
  9
$USERI1
 70
     0
  9
$USERI2
 70
     0
  9
$USERI3
 70
     0
  9
$USERI4
 70
     0
  9
$USERI5
 70
     0
  9
$USERR1
 40
0.0
  9
$USERR2
 40
0.0
  9
$USERR3
 40
0.0
  9
$USERR4
 40
0.0
  9
$USERR5
 40
0.0
  9
$WORLDVIEW
 70
     1
  9
$SHADEDGE
 70
     3
  9
$SHADEDIF
 70
    70
  9
$TILEMODE
 70
     1
  9
$MAXACTVP
 70
    64
  9
$PLIMCHECK
 70
     0
  9
$PEXTMIN
 10
1.0000000000000000E+020
 20
1.0000000000000000E+020
 30
1.0000000000000000E+020
  9
$PEXTMAX
 10
-1.0000000000000000E+020
 20
-1.0000000000000000E+020
 30
-1.0000000000000000E+020
  9
$PLIMMIN
 10
0.0
 20
0.0
  9
$PLIMMAX
 10
12.0
 20
9.0
  9
$UNITMODE
 70
     0
  9
$VISRETAIN
 70
     1
  9
$PLINEGEN
 70
     0
  9
$PSLTSCALE
 70
     1
  0
ENDSEC
  0
SECTION
  2
TABLES
  0
TABLE
  2
VPORT
 70
     2
  0
VPORT
  2
*ACTIVE
 70
     0
 10
0.0
 20
0.0
 11
1.0
 21
1.0
 12
-94.620024718010484
 22
109.4163404956272
 13
0.0
 23
0.0
 14
1.0
 24
1.0
 15
0.0
 25
0.0
 16
0.0
 26
0.0
 36
1.0
 17
0.0
 27
0.0
 37
0.0
 40
8.9999998861674158
 41
3.0569948186528491
 42
50.0
 43
0.0
 44
0.0
 50
0.0
 51
0.0
 71
     0
 72
   100
 73
     1
 74
     1
 75
     0
 76
     0
 77
     0
 78
     0
  0
ENDTAB
  0
TABLE
  2
LTYPE
 70
     9
  0
LTYPE
  2
CONTINUOUS
 70
     0
  3
Solid line
 72
    65
 73
     0
 40
0.0
  0
LTYPE
  2
BORDER
 70
     0
  3
__ __ . __ __ .
 72
    65
 73
     6
 40
14.02478766721849
 49
4.0070821906338541
 49
-2.0035410953169279
 49
4.0070821906338541
 49
-2.0035410953169279
 49
0.0
 49
-2.0035410953169279
  0
LTYPE
  2
CENTER
 70
     0
  3
____ _ ____ _
 72
    65
 73
     4
 40
16.028328762535409
 49
10.01770547658464
 49
-2.0035410953169279
 49
2.0035410953169279
 49
-2.0035410953169279
  0
LTYPE
  2
DASHDOT
 70
     0
  3
__ . __ . __ .
 72
    65
 73
     4
 40
8.0141643812677081
 49
4.0070821906338541
 49
-2.0035410953169279
 49
0.0
 49
-2.0035410953169279
  0
LTYPE
  2
DASHED
 70
     0
  3
__ __ __ __ __
 72
    65
 73
     2
 40
6.0106232859507811
 49
4.0070821906338541
 49
-2.0035410953169279
  0
LTYPE
  2
DIVIDE
 70
     0
  3
__ . . __ . . 
 72
    65
 73
     6
 40
10.01770547658464
 49
4.0070821906338541
 49
-2.0035410953169279
 49
0.0
 49
-2.0035410953169279
 49
0.0
 49
-2.0035410953169279
  0
LTYPE
  2
DOT
 70
     0
  3
..............
 72
    65
 73
     4
 40
4.0070821906338541
 49
0.0
 49
-2.0035410953169279
 49
0.0
 49
-2.0035410953169279
  0
LTYPE
  2
HIDDEN
 70
     0
  3
_ _ _ _ _ _ _
 72
    65
 73
     2
 40
3.0053116429753901
 49
2.0035410953169279
 49
-1.001770547658464
  0
LTYPE
  2
PHANTOM
 70
     0
  3
_____ _ _ _____ _ _ 
 72
    65
 73
     6
 40
20.035410953169279
 49
10.01770547658464
 49
-2.0035410953169279
 49
2.0035410953169279
 49
-2.0035410953169279
 49
2.0035410953169279
 49
-2.0035410953169279
  0
ENDTAB
  0
TABLE
  2
LAYER
 70
     2
  0
LAYER
  2
0
 70
     0
 62
     7
  6
CONTINUOUS
  0
LAYER
  2
1
 70
     0
 62
     7
  6
CONTINUOUS
  0
ENDTAB
  0
TABLE
  2
STYLE
 70
     4
  0
STYLE
  2
STANDARD
 70
     0
 40
0.0
 41
1.0
 50
0.0
 71
     0
 42
3.5
  3
txt
  4

  0
STYLE
  2
SIMPLEX
 70
     0
 40
0.0
 41
1.0
 50
0.0
 71
     0
 42
3.5
  3
simplex
  4

  0
STYLE
  2
COMPLEX
 70
     0
 40
0.0
 41
1.0
 50
0.0
 71
     0
 42
3.5
  3
complex
  4

  0
STYLE
  2
ITALIC
 70
     0
 40
0.0
 41
1.0
 50
0.0
 71
     0
 42
3.5
  3
italic
  4

  0
ENDTAB
  0
TABLE
  2
VIEW
 70
     0
  0
ENDTAB
  0
TABLE
  2
UCS
 70
     0
  0
ENDTAB
  0
TABLE
  2
APPID
 70
     1
  0
APPID
  2
ACAD
 70
     0
  0
ENDTAB
  0
TABLE
  2
DIMSTYLE
 70
     1
  0
DIMSTYLE
  2
STANDARD
 70
     0
  3

  4

  5

  6

  7

 40
1.0
 41
0.18
 42
0.0625
 43
0.38
 44
0.18
 45
0.0
 46
0.0
 47
0.0
 48
0.0
140
0.18
141
0.09
142
0.0
143
25.399999999999999
144
1.0
145
0.0
146
1.0
147
0.09
 71
     0
 72
     0
 73
     1
 74
     1
 75
     0
 76
     0
 77
     0
 78
     0
170
     0
171
     2
172
     0
173
     0
174
     0
175
     0
176
     0
177
     0
178
     0
  0
ENDTAB
  0
ENDSEC
  0
SECTION
  2
BLOCKS
  0
BLOCK
  8
0
  2
$MODEL_SPACE
 70
     0
 10
0.0
 20
0.0
 30
0.0
  3
$MODEL_SPACE
  1

  0
ENDBLK
  5
20
  8
0
  0
BLOCK
 67
     1
  8
0
  2
$PAPER_SPACE
 70
     0
 10
0.0
 20
0.0
 30
0.0
  3
$PAPER_SPACE
  1

  0
ENDBLK
  5
1C
 67
     1
  8
0
  0
ENDSEC
  0
SECTION
  2
ENTITIES
  0
LINE
  5
33
  8
1
 62
     7
 10
-113.7587459251788
 20
17.5
 30
0.0
 11
-112.4587459251787
 21
17.5
 31
0.0
  0
LINE
  5
34
  8
1
 62
     7
 10
-79.358745925178781
 20
-23.0
 30
0.0
 11
-76.7587459251788
 21
-23.0
 31
0.0
  0
LINE
  5
35
  8
1
 62
     7
 10
-76.758745925178829
 20
23.0
 30
0.0
 11
-79.358745925178781
 21
23.0
 31
0.0
  0
LINE
  5
36
  8
1
 62
     7
 10
-67.758745925178829
 20
-43.0
 30
0.0
 11
-76.758745925178829
 21
-43.0
 31
0.0
  0
LINE
  5
37
  8
1
 62
     7
 10
-67.758745925178829
 20
43.0
 30
0.0
 11
-76.758745925178829
 21
43.0
 31
0.0
  0
LINE
  5
38
  8
1
 62
     7
 10
-67.758745925178829
 20
-43.0
 30
0.0
 11
-67.758745925178829
 21
43.0
 31
0.0
  0
LINE
  5
39
  8
1
 62
     7
 10
-9.6700000000000834
 20
-20.5
 30
0.0
 11
-11.4700000000001
 21
-20.5
 31
0.0
  0
LINE
  5
3A
  8
1
 62
     7
 10
-9.6700000000000834
 20
20.5
 30
0.0
 11
-11.4700000000001
 21
20.5
 31
0.0
  0
LINE
  5
3B
  8
1
 62
     7
 10
-11.4700000000001
 20
-17.5
 30
0.0
 11
11.229999999999899
 21
-17.5
 31
0.0
  0
LINE
  5
3C
  8
1
 62
     7
 10
-12.970000000000111
 20
-16.5
 30
0.0
 11
-11.4700000000001
 21
-16.5
 31
0.0
  0
LINE
  5
3D
  8
1
 62
     7
 10
-11.4700000000001
 20
-16.5
 30
0.0
 11
-11.4700000000001
 21
-20.699999999999989
 31
0.0
  0
LINE
  5
3E
  8
1
 62
     7
 10
-11.4700000000001
 20
-20.699999999999989
 30
0.0
 11
-12.9700000000001
 21
-20.699999999999989
 31
0.0
  0
LINE
  5
3F
  8
1
 62
     7
 10
-12.9700000000001
 20
-20.699999999999989
 30
0.0
 11
-12.970000000000111
 21
-16.5
 31
0.0
  0
LINE
  5
40
  8
1
 62
     7
 10
-12.9700000000001
 20
17.5
 30
0.0
 11
-14.270000000000101
 21
17.5
 31
0.0
  0
LINE
  5
41
  8
1
 62
     7
 10
-11.4700000000001
 20
16.5
 30
0.0
 11
-12.970000000000111
 21
16.5
 31
0.0
  0
LINE
  5
42
  8
1
 62
     7
 10
-11.4700000000001
 20
20.699999999999989
 30
0.0
 11
-11.4700000000001
 21
16.5
 31
0.0
  0
LINE
  5
43
  8
1
 62
     7
 10
-12.9700000000001
 20
20.699999999999989
 30
0.0
 11
-11.4700000000001
 21
20.699999999999989
 31
0.0
  0
LINE
  5
44
  8
1
 62
     7
 10
-12.970000000000111
 20
16.5
 30
0.0
 11
-12.9700000000001
 21
20.699999999999989
 31
0.0
  0
LINE
  5
45
  8
1
 62
     7
 10
10.329999999999931
 20
-22.5
 30
0.0
 11
11.229999999999899
 21
-22.5
 31
0.0
  0
LINE
  5
46
  8
1
 62
     7
 10
11.229999999999899
 20
22.5
 30
0.0
 11
10.329999999999931
 21
22.5
 31
0.0
  0
LINE
  5
47
  8
1
 62
     7
 10
-14.270000000000101
 20
10.0
 30
0.0
 11
31.72999999999989
 21
10.0
 31
0.0
  0
LINE
  5
48
  8
1
 62
     7
 10
-7.2700000000000884
 20
-27.5
 30
0.0
 11
-7.2700000000000893
 21
-67.499999999999986
 31
0.0
  0
LINE
  5
49
  8
1
 62
     7
 10
11.329999999999901
 20
-26.999999999999972
 30
0.0
 11
13.730000000000009
 21
-26.999999999999972
 31
0.0
  0
LINE
  5
4A
  8
1
 62
     7
 10
-7.2700000000000884
 20
-27.649999999999999
 30
0.0
 11
-9.6700000000000887
 21
-27.649999999999999
 31
0.0
  0
LINE
  5
4B
  8
1
 62
     7
 10
11.229999999999899
 20
-17.5
 30
0.0
 11
11.229999999999899
 21
-23.0
 31
0.0
  0
LINE
  5
4C
  8
1
 62
     7
 10
11.329999999999901
 20
-24.5
 30
0.0
 11
11.329999999999901
 21
-27.5
 31
0.0
  0
LINE
  5
4D
  8
1
 62
     7
 10
11.329999999999901
 20
-27.5
 30
0.0
 11
-9.6700000000000887
 21
-27.5
 31
0.0
  0
LINE
  5
4E
  8
1
 62
     7
 10
3.8299999999999281
 20
-25.098076211353369
 30
0.0
 11
-3.1700000000000852
 21
-25.098076211353369
 31
0.0
  0
LINE
  5
4F
  8
1
 62
     7
 10
-9.6700000000000834
 20
-25.098076211353369
 30
0.0
 11
-6.1700000000000843
 21
-25.098076211353369
 31
0.0
  0
LINE
  5
50
  8
1
 62
     7
 10
-9.6700000000000834
 20
-19.901923788646801
 30
0.0
 11
-6.1700000000000843
 21
-19.901923788646801
 31
0.0
  0
LINE
  5
51
  8
1
 62
     7
 10
-8.6700000000000852
 20
-25.5
 30
0.0
 11
-8.6700000000000852
 21
-19.5
 31
0.0
  0
LINE
  5
52
  8
1
 62
     7
 10
10.329999999999931
 20
-25.098076211353369
 30
0.0
 11
6.8299999999999272
 21
-25.098076211353369
 31
0.0
  0
LINE
  5
53
  8
1
 62
     7
 10
-3.1700000000000852
 20
-19.901923788646801
 30
0.0
 11
3.8299999999999281
 21
-19.901923788646801
 31
0.0
  0
LINE
  5
54
  8
1
 62
     7
 10
10.329999999999931
 20
-19.901923788646801
 30
0.0
 11
6.8299999999999272
 21
-19.901923788646801
 31
0.0
  0
LINE
  5
55
  8
1
 62
     7
 10
10.329999999999931
 20
-27.5
 30
0.0
 11
10.329999999999931
 21
-17.5
 31
0.0
  0
LINE
  5
56
  8
1
 62
     7
 10
9.3299999999999272
 20
-25.5
 30
0.0
 11
9.3299999999999272
 21
-19.5
 31
0.0
  0
LINE
  5
57
  8
1
 62
     7
 10
-14.270000000000101
 20
-17.5
 30
0.0
 11
-12.9700000000001
 21
-17.5
 31
0.0
  0
LINE
  5
58
  8
1
 62
     7
 10
31.72999999999989
 20
12.799999999999899
 30
0.0
 11
-14.270000000000101
 21
12.799999999999899
 31
0.0
  0
LINE
  5
59
  8
1
 62
     7
 10
31.72999999999989
 20
-10.0
 30
0.0
 11
-14.270000000000101
 21
-10.0
 31
0.0
  0
LINE
  5
5A
  8
1
 62
     7
 10
-14.270000000000101
 20
17.5
 30
0.0
 11
-14.270000000000101
 21
-17.5
 31
0.0
  0
LINE
  5
5B
  8
1
 62
     7
 10
11.229999999999899
 20
17.5
 30
0.0
 11
-11.4700000000001
 21
17.5
 31
0.0
  0
LINE
  5
5C
  8
1
 62
     7
 10
11.229999999999899
 20
23.0
 30
0.0
 11
11.229999999999899
 21
17.5
 31
0.0
  0
LINE
  5
5D
  8
1
 62
     7
 10
11.329999999999901
 20
27.5
 30
0.0
 11
11.329999999999901
 21
24.5
 31
0.0
  0
LINE
  5
5E
  8
1
 62
     7
 10
-9.6700000000000834
 20
27.5
 30
0.0
 11
11.329999999999901
 21
27.5
 31
0.0
  0
LINE
  5
5F
  8
1
 62
     7
 10
-3.1700000000000852
 20
25.098076211353369
 30
0.0
 11
3.8299999999999281
 21
25.098076211353369
 31
0.0
  0
LINE
  5
60
  8
1
 62
     7
 10
-6.1700000000000843
 20
25.098076211353369
 30
0.0
 11
-9.6700000000000834
 21
25.098076211353369
 31
0.0
  0
LINE
  5
61
  8
1
 62
     7
 10
-6.1700000000000843
 20
19.901923788646801
 30
0.0
 11
-9.6700000000000834
 21
19.901923788646801
 31
0.0
  0
LINE
  5
62
  8
1
 62
     7
 10
-8.6700000000000852
 20
19.5
 30
0.0
 11
-8.6700000000000852
 21
25.5
 31
0.0
  0
LINE
  5
63
  8
1
 62
     7
 10
6.8299999999999272
 20
25.098076211353369
 30
0.0
 11
10.329999999999931
 21
25.098076211353369
 31
0.0
  0
LINE
  5
64
  8
1
 62
     7
 10
3.8299999999999281
 20
19.901923788646801
 30
0.0
 11
-3.1700000000000852
 21
19.901923788646801
 31
0.0
  0
LINE
  5
65
  8
1
 62
     7
 10
6.8299999999999272
 20
19.901923788646801
 30
0.0
 11
10.329999999999931
 21
19.901923788646801
 31
0.0
  0
LINE
  5
66
  8
1
 62
     7
 10
10.329999999999931
 20
17.5
 30
0.0
 11
10.329999999999931
 21
27.5
 31
0.0
  0
LINE
  5
67
  8
1
 62
     7
 10
9.3299999999999272
 20
19.5
 30
0.0
 11
9.3299999999999272
 21
25.5
 31
0.0
  0
LINE
  5
68
  8
1
 62
     7
 10
20.129999999999871
 20
-24.5
 30
0.0
 11
20.129999999999871
 21
-35.499999999999993
 31
0.0
  0
LINE
  5
69
  8
1
 62
     7
 10
18.929999999999851
 20
-24.5
 30
0.0
 11
18.929999999999851
 21
-53.999999999999993
 31
0.0
  0
LINE
  5
6A
  8
1
 62
     7
 10
17.62999999999986
 20
-24.5
 30
0.0
 11
17.62999999999986
 21
-32.749999999999993
 31
0.0
  0
LINE
  5
6B
  8
1
 62
     7
 10
13.929999999999859
 20
-24.5
 30
0.0
 11
13.929999999999859
 21
-53.999999999999993
 31
0.0
  0
LINE
  5
6C
  8
1
 62
     7
 10
13.72999999999991
 20
-24.5
 30
0.0
 11
13.72999999999991
 21
-53.499999999999893
 31
0.0
  0
LINE
  5
6D
  8
1
 62
     7
 10
19.529999999999859
 20
24.5
 30
0.0
 11
19.529999999999859
 21
38.0
 31
0.0
  0
LINE
  5
6E
  8
1
 62
     7
 10
22.729999999999901
 20
-23.0
 30
0.0
 11
11.229999999999899
 21
-23.0
 31
0.0
  0
LINE
  5
6F
  8
1
 62
     7
 10
22.729999999999901
 20
23.0
 30
0.0
 11
11.229999999999899
 21
23.0
 31
0.0
  0
LINE
  5
70
  8
1
 62
     7
 10
22.729999999999901
 20
43.0
 30
0.0
 11
22.729999999999901
 21
23.0
 31
0.0
  0
LINE
  5
71
  8
1
 62
     7
 10
31.729999999999901
 20
43.0
 30
0.0
 11
22.729999999999901
 21
43.0
 31
0.0
  0
LINE
  5
72
  8
1
 62
     7
 10
31.729999999999901
 20
-43.0
 30
0.0
 11
31.729999999999901
 21
43.0
 31
0.0
  0
LINE
  5
73
  8
1
 62
     7
 10
31.729999999999901
 20
-43.0
 30
0.0
 11
22.72999999999989
 21
-43.0
 31
0.0
  0
LINE
  5
74
  8
1
 62
     7
 10
130.8847764058755
 20
80.000000000000071
 30
0.0
 11
130.8847764058755
 21
75.000000000000071
 31
0.0
  0
LINE
  5
75
  8
1
 62
     7
 10
133.3847764058755
 20
80.000000000000071
 30
0.0
 11
133.3847764058755
 21
75.000000000000071
 31
0.0
  0
LINE
  5
76
  8
1
 62
     7
 10
131.5097764058755
 20
80.000000000000071
 30
0.0
 11
131.5097764058755
 21
75.000000000000071
 31
0.0
  0
LINE
  5
77
  8
1
 62
     7
 10
132.1347764058755
 20
80.000000000000071
 30
0.0
 11
132.1347764058755
 21
75.000000000000071
 31
0.0
  0
LINE
  5
78
  8
1
 62
     7
 10
134.0097764058755
 20
80.000000000000071
 30
0.0
 11
134.0097764058755
 21
75.000000000000071
 31
0.0
  0
LINE
  5
79
  8
1
 62
     7
 10
134.6347764058755
 20
80.000000000000071
 30
0.0
 11
134.6347764058755
 21
75.000000000000071
 31
0.0
  0
LINE
  5
7A
  8
1
 62
     7
 10
130.2597764058755
 20
75.000000000000071
 30
0.0
 11
135.2597764058755
 21
75.000000000000071
 31
0.0
  0
LINE
  5
7B
  8
1
 62
     7
 10
135.2597764058755
 20
53.942098587281407
 30
0.0
 11
135.2597764058755
 21
75.000000000000071
 31
0.0
  0
LINE
  5
7C
  8
1
 62
     7
 10
130.2597764058755
 20
53.942098587281407
 30
0.0
 11
130.2597764058755
 21
75.000000000000071
 31
0.0
  0
LINE
  5
7D
  8
1
 62
     7
 10
82.759776405875584
 20
45.345892868042533
 30
0.0
 11
82.759776405875584
 21
20.39607805437112
 31
0.0
  0
LINE
  5
7E
  8
1
 62
     7
 10
82.759776405875584
 20
-20.39607805437117
 30
0.0
 11
82.759776405875584
 21
-45.345892868042597
 31
0.0
  0
LINE
  5
7F
  8
1
 62
     7
 10
87.413883537832973
 20
-50.0
 30
0.0
 11
112.3636983515045
 21
-50.0
 31
0.0
  0
LINE
  5
80
  8
1
 62
     7
 10
153.15585446024679
 20
-50.0
 30
0.0
 11
178.1056692739181
 21
-50.0
 31
0.0
  0
LINE
  5
81
  8
1
 62
     7
 10
182.7597764058755
 20
-20.39607805437117
 30
0.0
 11
182.7597764058755
 21
-45.345892868042597
 31
0.0
  0
LINE
  5
82
  8
1
 62
     7
 10
182.7597764058755
 20
45.345892868042533
 30
0.0
 11
182.7597764058755
 21
20.39607805437112
 31
0.0
  0
LINE
  5
83
  8
1
 62
     7
 10
153.1558544602467
 20
49.999999999999929
 30
0.0
 11
178.10566927391821
 21
49.999999999999929
 31
0.0
  0
LINE
  5
84
  8
1
 62
     7
 10
87.413883537832973
 20
49.999999999999929
 30
0.0
 11
112.3636983515045
 21
49.999999999999929
 31
0.0
  0
LINE
  5
85
  8
1
 62
     7
 10
129.7597764058755
 20
9.5393920141694935
 30
0.0
 11
129.7597764058755
 21
12.799999999999899
 31
0.0
  0
LINE
  5
86
  8
1
 62
     7
 10
129.7597764058755
 20
12.799999999999899
 30
0.0
 11
135.7597764058755
 21
12.799999999999899
 31
0.0
  0
LINE
  5
87
  8
1
 62
     7
 10
135.7597764058755
 20
12.799999999999899
 30
0.0
 11
135.7597764058755
 21
9.5393920141694935
 31
0.0
  0
LINE
  5
88
  8
1
  6
DASHDOT
 62
     3
 10
132.7597764058755
 20
4.0
 30
0.0
 11
132.7597764058755
 21
-4.0
 31
0.0
  0
LINE
  5
89
  8
1
  6
DASHDOT
 62
     3
 10
128.7597764058755
 20
0.0
 30
0.0
 11
136.7597764058755
 21
0.0
 31
0.0
  0
LINE
  5
8A
  8
1
 62
     7
 10
132.7597764058755
 20
75.000000000000071
 30
0.0
 11
132.7597764058755
 21
53.999999999999943
 31
0.0
  0
LINE
  5
8B
  8
1
  6
DASHDOT
 62
     3
 10
173.06486293350881
 20
40.305086527633136
 30
0.0
 11
178.72171718300109
 21
45.961940777125513
 31
0.0
  0
LINE
  5
8C
  8
1
  6
DASHDOT
 62
     3
 10
92.454689878242391
 20
40.305086527633193
 30
0.0
 11
86.797835628750022
 21
45.961940777125513
 31
0.0
  0
LINE
  5
8D
  8
1
  6
DASHDOT
 62
     3
 10
92.454689878242377
 20
-40.305086527633193
 30
0.0
 11
86.797835628749965
 21
-45.961940777125513
 31
0.0
  0
LINE
  5
8E
  8
1
  6
DASHDOT
 62
     3
 10
173.06486293350881
 20
-40.305086527633307
 30
0.0
 11
178.721717183001
 21
-45.961940777125513
 31
0.0
  0
LINE
  5
8F
  8
1
 62
     7
 10
18.929999999999851
 20
-35.499999999999993
 30
0.0
 11
29.729999999999858
 21
-35.499999999999993
 31
0.0
  0
LINE
  5
90
  8
1
 62
     3
 10
19.869230484541191
 20
-35.499999999999993
 30
0.0
 11
19.869230484541191
 21
-40.499999999999993
 31
0.0
  0
LINE
  5
91
  8
1
 62
     3
 10
19.869230484541191
 20
-39.899999999999991
 30
0.0
 11
18.929999999999851
 21
-40.442264973081031
 31
0.0
  0
LINE
  5
92
  8
1
 62
     3
 10
30.329999999999831
 20
-39.899999999999991
 30
0.0
 11
19.869230484541191
 21
-39.899999999999991
 31
0.0
  0
LINE
  5
93
  8
1
 62
     3
 10
19.869230484541191
 20
-36.09999999999998
 30
0.0
 11
18.929999999999851
 21
-35.557735026918962
 31
0.0
  0
LINE
  5
94
  8
1
 62
     3
 10
30.329999999999831
 20
-36.09999999999998
 30
0.0
 11
19.869230484541191
 21
-36.09999999999998
 31
0.0
  0
LINE
  5
95
  8
1
 62
     7
 10
29.729999999999858
 20
-35.499999999999993
 30
0.0
 11
29.729999999999858
 21
-40.499999999999993
 31
0.0
  0
LINE
  5
96
  8
1
 62
     7
 10
29.729999999999858
 20
-40.499999999999993
 30
0.0
 11
18.929999999999851
 21
-40.499999999999993
 31
0.0
  0
LINE
  5
97
  8
1
 62
     7
 10
30.329999999999831
 20
-39.899999999999991
 30
0.0
 11
29.729999999999858
 21
-40.499999999999993
 31
0.0
  0
LINE
  5
98
  8
1
 62
     7
 10
30.329999999999831
 20
-36.09999999999998
 30
0.0
 11
30.329999999999831
 21
-39.899999999999991
 31
0.0
  0
LINE
  5
99
  8
1
 62
     7
 10
29.729999999999858
 20
-35.499999999999993
 30
0.0
 11
30.329999999999831
 21
-36.09999999999998
 31
0.0
  0
LINE
  5
9A
  8
1
 62
     7
 10
14.77999999999985
 20
-35.499999999999993
 30
0.0
 11
14.77999999999985
 21
-40.499999999999993
 31
0.0
  0
LINE
  5
9B
  8
1
 62
     7
 10
18.329999999999849
 20
-42.749999999999993
 30
0.0
 11
18.329999999999849
 21
-33.249999999999993
 31
0.0
  0
LINE
  5
9C
  8
1
 62
     7
 10
17.82999999999986
 20
-42.749999999999993
 30
0.0
 11
18.329999999999849
 21
-42.749999999999993
 31
0.0
  0
LINE
  5
9D
  8
1
 62
     7
 10
17.82999999999986
 20
-33.249999999999993
 30
0.0
 11
17.82999999999986
 21
-42.749999999999993
 31
0.0
  0
LINE
  5
9E
  8
1
 62
     7
 10
18.329999999999849
 20
-33.249999999999993
 30
0.0
 11
17.82999999999986
 21
-33.249999999999993
 31
0.0
  0
LINE
  5
9F
  8
1
 62
     7
 10
18.329999999999849
 20
-33.499999999999993
 30
0.0
 11
18.929999999999851
 21
-33.499999999999993
 31
0.0
  0
LINE
  5
A0
  8
1
 62
     7
 10
18.929999999999851
 20
-42.499999999999993
 30
0.0
 11
18.32999999999987
 21
-42.499999999999993
 31
0.0
  0
LINE
  5
A1
  8
1
 62
     7
 10
18.929999999999851
 20
54.0
 30
0.0
 11
18.929999999999851
 21
24.5
 31
0.0
  0
LINE
  5
A2
  8
1
 62
     7
 10
-9.6700000000000887
 20
-67.499999999999986
 30
0.0
 11
-9.6700000000000887
 21
-17.5
 31
0.0
  0
LINE
  5
A3
  8
1
 62
     7
 10
-7.2700000000000884
 20
50.0
 30
0.0
 11
-7.2700000000000902
 21
27.500000000000011
 31
0.0
  0
LINE
  5
A4
  8
1
 62
     7
 10
22.72999999999989
 20
-39.899999999999991
 30
0.0
 11
22.72999999999989
 21
-43.499999999999993
 31
0.0
  0
LINE
  5
A5
  8
1
 62
     7
 10
22.729999999999901
 20
-23.0
 30
0.0
 11
22.729999999999901
 21
-36.09999999999998
 31
0.0
  0
LINE
  5
A6
  8
1
  6
DASHDOT
 62
     3
 10
-67.758745925178829
 20
0.0
 30
0.0
 11
-63.971509274099617
 21
0.0
 31
0.0
  0
LINE
  5
A7
  8
1
  6
DASHDOT
 62
     3
 10
-113.7587459251788
 20
0.0
 30
0.0
 11
-117.7784700822975
 21
0.0
 31
0.0
  0
LINE
  5
A8
  8
1
 62
     7
 10
-96.765043773860583
 20
80.558619135096734
 30
0.0
 11
-96.765043773860583
 21
85.539185482450904
 31
0.0
  0
LINE
  5
A9
  8
1
 62
     7
 10
-98.008745925178815
 20
80.558619135096734
 30
0.0
 11
-98.008745925178815
 21
53.5
 31
0.0
  0
LINE
  5
AA
  8
1
 62
     7
 10
-79.358745925178781
 20
-43.499999999999993
 30
0.0
 11
-76.7587459251788
 21
-43.499999999999993
 31
0.0
  0
LINE
  5
AB
  8
1
 62
     7
 10
-79.358745925178781
 20
-32.499999999999993
 30
0.0
 11
-76.7587459251788
 21
-32.499999999999993
 31
0.0
  0
LINE
  5
AC
  8
1
 62
     7
 10
-79.958745925178775
 20
-52.999999999999993
 30
0.0
 11
-79.358745925178781
 21
-52.999999999999993
 31
0.0
  0
LINE
  5
AD
  8
1
 62
     7
 10
-80.558745925178783
 20
-53.999999999999993
 30
0.0
 11
-85.558745925178783
 21
-53.999999999999993
 31
0.0
  0
LINE
  5
AE
  8
1
 62
     7
 10
-79.358745925178781
 20
38.0
 30
0.0
 11
-79.358745925178781
 21
-52.999999999999993
 31
0.0
  0
LINE
  5
AF
  8
1
 62
     7
 10
-77.658745925178792
 20
43.5
 30
0.0
 11
-78.158745925178792
 21
43.0
 31
0.0
  0
LINE
  5
B0
  8
1
 62
     7
 10
-77.658745925178792
 20
51.5
 30
0.0
 11
-77.658745925178792
 21
43.5
 31
0.0
  0
LINE
  5
B1
  8
1
 62
     7
 10
-79.858745925178781
 20
43.0
 30
0.0
 11
-78.158745925178792
 21
43.0
 31
0.0
  0
LINE
  5
B2
  8
1
 62
     7
 10
-77.658745925178792
 20
51.5
 30
0.0
 11
-78.158745925178792
 21
52.0
 31
0.0
  0
LINE
  5
B3
  8
1
 62
     7
 10
-79.958745925178775
 20
52.0
 30
0.0
 11
-78.158745925178792
 21
52.0
 31
0.0
  0
LINE
  5
B4
  8
1
 62
     7
 10
-79.2587459251788
 20
52.0
 30
0.0
 11
-79.2587459251788
 21
42.999999999999993
 31
0.0
  0
LINE
  5
B5
  8
1
 62
     7
 10
-79.958745925178775
 20
53.0
 30
0.0
 11
-79.958745925178775
 21
40.54136836602153
 31
0.0
  0
LINE
  5
B6
  8
1
 62
     7
 10
-80.558745925178783
 20
40.612435565298199
 30
0.0
 11
-79.958745925178775
 21
38.0
 31
0.0
  0
LINE
  5
B7
  8
1
 62
     7
 10
-79.958745925178775
 20
40.54136836602153
 30
0.0
 11
-79.358745925178781
 21
38.0
 31
0.0
  0
LINE
  5
B8
  8
1
 62
     7
 10
-80.558745925178783
 20
53.0
 30
0.0
 11
-79.958745925178775
 21
53.0
 31
0.0
  0
LINE
  5
B9
  8
1
 62
     7
 10
-79.958745925178775
 20
38.0
 30
0.0
 11
-79.958745925178775
 21
-52.999999999999993
 31
0.0
  0
LINE
  5
BA
  8
1
 62
     7
 10
-85.558745925178783
 20
54.0
 30
0.0
 11
-80.558745925178783
 21
54.0
 31
0.0
  0
LINE
  5
BB
  8
1
 62
     7
 10
-85.558745925178783
 20
54.0
 30
0.0
 11
-85.558745925178783
 21
-53.999999999999993
 31
0.0
  0
LINE
  5
BC
  8
1
 62
     7
 10
-95.508745925178815
 20
80.558619135096734
 30
0.0
 11
-95.508745925178815
 21
53.5
 31
0.0
  0
LINE
  5
BD
  8
1
 62
     7
 10
-98.008745925178815
 20
80.558619135096734
 30
0.0
 11
-95.508745925178815
 21
80.558619135096734
 31
0.0
  0
LINE
  5
BE
  8
1
 62
     7
 10
-96.372542139214204
 20
85.558619135096734
 30
0.0
 11
-96.372542139214204
 21
80.558619135096734
 31
0.0
  0
LINE
  5
BF
  8
1
 62
     7
 10
-95.832876735442596
 20
85.558619135096734
 30
0.0
 11
-95.832876735442596
 21
80.558619135096734
 31
0.0
  0
LINE
  5
C0
  8
1
 62
     7
 10
-97.684615114915005
 20
80.558619135096734
 30
0.0
 11
-97.684615114915005
 21
85.558619135096734
 31
0.0
  0
LINE
  5
C1
  8
1
 62
     7
 10
-97.144949711143411
 20
80.558619135096734
 30
0.0
 11
-97.144949711143411
 21
85.558619135096734
 31
0.0
  0
LINE
  5
C2
  8
1
 62
     7
 10
-109.15874592517881
 20
-67.499999999999986
 30
0.0
 11
-106.7587459251787
 21
-67.499999999999986
 31
0.0
  0
LINE
  5
C3
  8
1
 62
     7
 10
-109.15874592517881
 20
50.0
 30
0.0
 11
-106.7587459251787
 21
50.0
 31
0.0
  0
LINE
  5
C4
  8
1
 62
     7
 10
-85.7587459251788
 20
53.5
 30
0.0
 11
-85.7587459251788
 21
-53.499999999999893
 31
0.0
  0
LINE
  5
C5
  8
1
 62
     7
 10
-100.7587459251787
 20
-53.499999999999893
 30
0.0
 11
-85.7587459251788
 21
-53.499999999999893
 31
0.0
  0
LINE
  5
C6
  8
1
 62
     7
 10
-76.758745925178829
 20
43.0
 30
0.0
 11
-76.7587459251788
 21
-43.499999999999993
 31
0.0
  0
LINE
  5
C7
  8
1
  6
DASHDOT
 62
     3
 10
31.729999999999901
 20
0.0
 30
0.0
 11
35.517236651079138
 21
0.0
 31
0.0
  0
LINE
  5
C8
  8
1
  6
DASHDOT
 62
     3
 10
-14.270000000000101
 20
0.0
 30
0.0
 11
-18.28972415711889
 21
0.0
 31
0.0
  0
LINE
  5
C9
  8
1
 62
     7
 10
2.7237021513181121
 20
80.558619135096734
 30
0.0
 11
2.7237021513181121
 21
85.539185482450904
 31
0.0
  0
LINE
  5
CA
  8
1
 62
     7
 10
1.4799999999999109
 20
80.558619135096734
 30
0.0
 11
1.4799999999999109
 21
53.5
 31
0.0
  0
LINE
  5
CB
  8
1
 62
     7
 10
19.529999999999859
 20
-30.000000000000028
 30
0.0
 11
20.12999999999985
 21
-30.000000000000028
 31
0.0
  0
LINE
  5
CC
  8
1
 62
     7
 10
20.129999999999871
 20
-43.499999999999993
 30
0.0
 11
22.72999999999989
 21
-43.499999999999993
 31
0.0
  0
LINE
  5
CD
  8
1
 62
     7
 10
20.129999999999871
 20
-32.499999999999993
 30
0.0
 11
22.729999999999901
 21
-32.499999999999993
 31
0.0
  0
LINE
  5
CE
  8
1
 62
     7
 10
20.129999999999871
 20
-40.499999999999993
 30
0.0
 11
20.129999999999871
 21
-52.999999999999993
 31
0.0
  0
LINE
  5
CF
  8
1
 62
     7
 10
13.929999999999859
 20
-43.249999999999993
 30
0.0
 11
18.929999999999851
 21
-43.249999999999993
 31
0.0
  0
LINE
  5
D0
  8
1
 62
     7
 10
13.929999999999859
 20
-32.749999999999993
 30
0.0
 11
18.929999999999851
 21
-32.749999999999993
 31
0.0
  0
LINE
  5
D1
  8
1
 62
     7
 10
19.529999999999859
 20
-52.999999999999993
 30
0.0
 11
20.129999999999871
 21
-52.999999999999993
 31
0.0
  0
LINE
  5
D2
  8
1
 62
     7
 10
13.929999999999859
 20
54.0
 30
0.0
 11
13.929999999999859
 21
24.5
 31
0.0
  0
LINE
  5
D3
  8
1
 62
     7
 10
18.929999999999851
 20
-53.999999999999993
 30
0.0
 11
13.929999999999859
 21
-53.999999999999993
 31
0.0
  0
LINE
  5
D4
  8
1
 62
     7
 10
18.929999999999879
 20
-26.500000000000011
 30
0.0
 11
13.929999999999859
 21
-26.500000000000011
 31
0.0
  0
LINE
  5
D5
  8
1
 62
     7
 10
19.529999999999859
 20
-52.999999999999993
 30
0.0
 11
19.529999999999859
 21
-40.499999999999993
 31
0.0
  0
LINE
  5
D6
  8
1
 62
     7
 10
20.129999999999871
 20
38.0
 30
0.0
 11
20.129999999999871
 21
24.5
 31
0.0
  0
LINE
  5
D7
  8
1
 62
     7
 10
18.929999999999851
 20
42.0
 30
0.0
 11
19.52999999999987
 21
42.0
 31
0.0
  0
LINE
  5
D8
  8
1
 62
     7
 10
21.82999999999986
 20
43.5
 30
0.0
 11
21.32999999999986
 21
43.0
 31
0.0
  0
LINE
  5
D9
  8
1
 62
     7
 10
21.82999999999986
 20
51.5
 30
0.0
 11
21.32999999999986
 21
52.0
 31
0.0
  0
LINE
  5
DA
  8
1
 62
     7
 10
20.229999999999851
 20
52.0
 30
0.0
 11
20.229999999999869
 21
43.0
 31
0.0
  0
LINE
  5
DB
  8
1
 62
     7
 10
19.529999999999848
 20
52.0
 30
0.0
 11
21.32999999999986
 21
52.0
 31
0.0
  0
LINE
  5
DC
  8
1
 62
     7
 10
19.529999999999859
 20
43.0
 30
0.0
 11
21.32999999999986
 21
43.0
 31
0.0
  0
LINE
  5
DD
  8
1
 62
     7
 10
21.82999999999986
 20
51.5
 30
0.0
 11
21.82999999999986
 21
43.5
 31
0.0
  0
LINE
  5
DE
  8
1
 62
     7
 10
18.929999999999851
 20
40.612435565298199
 30
0.0
 11
19.529999999999859
 21
38.0
 31
0.0
  0
LINE
  5
DF
  8
1
 62
     7
 10
19.529999999999859
 20
40.54136836602153
 30
0.0
 11
20.129999999999871
 21
38.0
 31
0.0
  0
LINE
  5
E0
  8
1
 62
     7
 10
19.529999999999859
 20
53.0
 30
0.0
 11
19.529999999999859
 21
40.54136836602153
 31
0.0
  0
LINE
  5
E1
  8
1
 62
     7
 10
18.929999999999851
 20
53.0
 30
0.0
 11
19.529999999999859
 21
53.0
 31
0.0
  0
LINE
  5
E2
  8
1
 62
     7
 10
13.929999999999859
 20
26.5
 30
0.0
 11
18.929999999999851
 21
26.5
 31
0.0
  0
LINE
  5
E3
  8
1
 62
     7
 10
13.929999999999859
 20
54.0
 30
0.0
 11
18.929999999999851
 21
54.0
 31
0.0
  0
LINE
  5
E4
  8
1
 62
     7
 10
3.116203785964502
 20
85.558619135096734
 30
0.0
 11
3.116203785964502
 21
80.558619135096734
 31
0.0
  0
LINE
  5
E5
  8
1
 62
     7
 10
3.6558691897361109
 20
85.558619135096734
 30
0.0
 11
3.6558691897361109
 21
80.558619135096734
 31
0.0
  0
LINE
  5
E6
  8
1
 62
     7
 10
1.804130810263701
 20
80.558619135096734
 30
0.0
 11
1.804130810263701
 21
85.558619135096734
 31
0.0
  0
LINE
  5
E7
  8
1
 62
     7
 10
2.3437962140353128
 20
80.558619135096734
 30
0.0
 11
2.3437962140353128
 21
85.558619135096734
 31
0.0
  0
LINE
  5
E8
  8
1
  6
DASHDOT
 62
     3
 10
-11.444904534659891
 20
-60.999999999999993
 30
0.0
 11
-4.5630285344496881
 21
-60.999999999999993
 31
0.0
  0
LINE
  5
E9
  8
1
 62
     7
 10
-9.6700000000000887
 20
-67.499999999999986
 30
0.0
 11
-7.2700000000000893
 21
-67.499999999999986
 31
0.0
  0
LINE
  5
EA
  8
1
 62
     7
 10
-9.6700000000000887
 20
-64.249999999999986
 30
0.0
 11
-7.2700000000000884
 21
-64.249999999999986
 31
0.0
  0
LINE
  5
EB
  8
1
 62
     7
 10
-9.6700000000000887
 20
-57.749999999999993
 30
0.0
 11
-7.2700000000000884
 21
-57.749999999999993
 31
0.0
  0
LINE
  5
EC
  8
1
 62
     7
 10
-9.6700000000000887
 20
27.649999999999999
 30
0.0
 11
-7.2700000000000884
 21
27.649999999999999
 31
0.0
  0
LINE
  5
ED
  8
1
 62
     7
 10
-9.6700000000000887
 20
50.0
 30
0.0
 11
-7.2700000000000884
 21
50.0
 31
0.0
  0
LINE
  5
EE
  8
1
 62
     7
 10
13.72999999999991
 20
53.5
 30
0.0
 11
-1.2700000000000791
 21
53.5
 31
0.0
  0
LINE
  5
EF
  8
1
 62
     7
 10
13.730000000000009
 20
27.0
 30
0.0
 11
11.329999999999901
 21
27.0
 31
0.0
  0
LINE
  5
F0
  8
1
 62
     7
 10
-1.2700000000000811
 20
-53.499999999999893
 30
0.0
 11
13.72999999999991
 21
-53.499999999999893
 31
0.0
  0
LINE
  5
F1
  8
1
 62
     7
 10
13.72999999999991
 20
53.5
 30
0.0
 11
13.72999999999991
 21
24.5
 31
0.0
  0
LINE
  5
F2
  8
1
  6
DASHDOT
 62
     3
 10
-110.3242136836118
 20
-60.999999999999993
 30
0.0
 11
-105.4912357203999
 21
-60.999999999999993
 31
0.0
  0
LINE
  5
F3
  8
1
 62
     7
 10
3.9799999999999121
 20
53.5
 30
0.0
 11
3.9799999999999121
 21
80.558619135096734
 31
0.0
  0
LINE
  5
F4
  8
1
 62
     7
 10
3.9799999999999121
 20
80.558619135096734
 30
0.0
 11
1.4799999999999109
 21
80.558619135096734
 31
0.0
  0
LINE
  5
F5
  8
1
 62
     7
 10
-80.558745925178783
 20
54.0
 30
0.0
 11
-80.558745925178783
 21
-53.999999999999993
 31
0.0
  0
LINE
  5
F6
  8
1
 62
     7
 10
-106.7587459251787
 20
50.0
 30
0.0
 11
-106.7587459251787
 21
-67.499999999999986
 31
0.0
  0
LINE
  5
F7
  8
1
 62
     7
 10
-109.15874592517881
 20
-67.499999999999986
 30
0.0
 11
-109.15874592517881
 21
50.0
 31
0.0
  0
LINE
  5
F8
  8
1
 62
     7
 10
-85.7587459251788
 20
53.5
 30
0.0
 11
-100.7587459251787
 21
53.5
 31
0.0
  0
LINE
  5
F9
  8
1
 62
     7
 10
17.62999999999986
 20
54.0
 30
0.0
 11
17.62999999999986
 21
24.5
 31
0.0
  0
LINE
  5
FA
  8
1
 62
     7
 10
17.62999999999986
 20
-54.0
 30
0.0
 11
17.62999999999986
 21
-43.249999999999993
 31
0.0
  0
LINE
  5
FB
  8
1
 62
     7
 10
19.529999999999859
 20
-28.999999999999979
 30
0.0
 11
18.929999999999851
 21
-29.0
 31
0.0
  0
LINE
  5
FC
  8
1
 62
     7
 10
19.529999999999859
 20
-46.999999999999993
 30
0.0
 11
18.929999999999851
 21
-46.999999999999993
 31
0.0
  0
LINE
  5
FD
  8
1
 62
     7
 10
19.529999999999859
 20
-35.499999999999993
 30
0.0
 11
19.529999999999859
 21
-24.5
 31
0.0
  0
LINE
  5
FE
  8
1
 62
     7
 10
-81.858745925178795
 20
54.0
 30
0.0
 11
-81.858745925178795
 21
-54.0
 31
0.0
  0
LINE
  5
FF
  8
1
 62
     7
 10
-79.958745925178775
 20
-28.999999999999979
 30
0.0
 11
-80.558745925178783
 21
-29.0
 31
0.0
  0
LINE
  5
100
  8
1
 62
     7
 10
-79.958745925178775
 20
-46.999999999999993
 30
0.0
 11
-80.558745925178783
 21
-47.0
 31
0.0
  0
LINE
  5
101
  8
1
 62
     7
 10
-9.6700000000000887
 20
17.5
 30
0.0
 11
-9.6700000000000887
 21
50.0
 31
0.0
  0
LINE
  5
102
  8
1
 62
     7
 10
-113.7587459251788
 20
17.5
 30
0.0
 11
-113.7587459251788
 21
-17.5
 31
0.0
  0
LINE
  5
103
  8
1
 62
     7
 10
-109.15874592517881
 20
20.5
 30
0.0
 11
-110.9587459251787
 21
20.5
 31
0.0
  0
LINE
  5
104
  8
1
 62
     7
 10
-110.9587459251787
 20
20.699999999999989
 30
0.0
 11
-110.9587459251787
 21
-20.699999999999989
 31
0.0
  0
LINE
  5
105
  8
1
 62
     7
 10
-112.4587459251787
 20
20.699999999999989
 30
0.0
 11
-110.9587459251787
 21
20.699999999999989
 31
0.0
  0
LINE
  5
106
  8
1
 62
     7
 10
-112.4587459251787
 20
-20.699999999999989
 30
0.0
 11
-112.4587459251787
 21
20.699999999999989
 31
0.0
  0
LINE
  5
107
  8
1
 62
     7
 10
-109.15874592517881
 20
-20.5
 30
0.0
 11
-110.9587459251787
 21
-20.5
 31
0.0
  0
LINE
  5
108
  8
1
 62
     7
 10
-110.9587459251787
 20
-20.699999999999989
 30
0.0
 11
-112.4587459251787
 21
-20.699999999999989
 31
0.0
  0
LINE
  5
109
  8
1
 62
     7
 10
-113.7587459251788
 20
-17.5
 30
0.0
 11
-112.4587459251787
 21
-17.5
 31
0.0
  0
ARC
  5
10A
  8
1
 62
     7
 10
-1.2700000000000831
 20
33.0
 30
0.0
 40
6.0000000000000044
 50
180.0
 51
246.44353569089881
  0
ARC
  5
10B
  8
1
 62
     7
 10
146.7597764058755
 20
24.248711305964211
 30
0.0
 40
24.999999999999961
 50
7.2416928344777016
 51
60.000000000000199
  0
ARC
  5
10C
  8
1
 62
     7
 10
184.20828948428229
 20
30.686225754757348
 30
0.0
 40
13.067856656893611
 50
194.56434433361869
 51
213.752446176332
  0
ARC
  5
10D
  8
1
 62
     7
 10
185.05908399496309
 20
29.21260643545742
 30
0.0
 40
13.067856656893561
 50
206.24755382366789
 51
225.43565566638131
  0
ARC
  5
10E
  8
1
 62
     7
 10
160.7597764058755
 20
0.0
 30
0.0
 40
25.0
 50
359.99999999999977
 51
52.758307165522453
  0
ARC
  5
10F
  8
1
 62
     7
 10
132.7597764058755
 20
0.0000000000000142
 30
0.0
 40
53.000000000000057
 50
60.000000000000028
 51
119.9999999999999
  0
ARC
  5
110
  8
1
 62
     7
 10
118.7597764058755
 20
24.248711305964211
 30
0.0
 40
25.000000000000139
 50
119.9999999999997
 51
172.7583071655223
  0
ARC
  5
111
  8
1
 62
     7
 10
81.311263327469007
 20
30.686225754757348
 30
0.0
 40
13.06785665689347
 50
326.24755382366789
 51
345.43565566638108
  0
ARC
  5
112
  8
1
 62
     7
 10
80.460468816788094
 20
29.212606435457641
 30
0.0
 40
13.067856656893669
 50
314.56434433361812
 51
333.7524461763316
  0
ARC
  5
113
  8
1
 62
     7
 10
104.7597764058755
 20
0.0
 30
0.0
 40
25.000000000000028
 50
127.2416928344776
 51
180.0
  0
ARC
  5
114
  8
1
 62
     7
 10
132.7597764058755
 20
0.0000000000000142
 30
0.0
 40
53.0
 50
180.0
 51
239.99999999999989
  0
ARC
  5
115
  8
1
 62
     7
 10
118.7597764058754
 20
-24.248711305964211
 30
0.0
 40
25.000000000000028
 50
240.00000000000031
 51
292.75830716552218
  0
ARC
  5
116
  8
1
 62
     7
 10
131.9089818951947
 20
-59.898832190214712
 30
0.0
 40
13.067856656893451
 50
86.247553823667545
 51
105.43565566638171
  0
ARC
  5
117
  8
1
 62
     7
 10
133.61057091655641
 20
-59.898832190214712
 30
0.0
 40
13.067856656893531
 50
74.564344333618763
 51
93.752446176332441
  0
ARC
  5
118
  8
1
 62
     7
 10
146.7597764058755
 20
-24.24871130596426
 30
0.0
 40
25.000000000000011
 50
247.2416928344775
 51
299.99999999999989
  0
ARC
  5
119
  8
1
 62
     7
 10
132.7597764058755
 20
0.0000000000000142
 30
0.0
 40
53.000000000000028
 50
299.99999999999989
 51
359.99999999999977
  0
ARC
  5
11A
  8
1
 62
     7
 10
165.6687417496843
 20
18.99999999999994
 30
0.0
 40
5.5000000000000231
 50
3.705777105521237
 51
56.29422289447939
  0
ARC
  5
11B
  8
1
 62
     7
 10
132.7597764058755
 20
0.0000000000000142
 30
0.0
 40
67.499999999999915
 50
42.205446403732218
 51
47.794553596267647
  0
ARC
  5
11C
  8
1
 62
     7
 10
132.7597764058755
 20
0.0000000000000142
 30
0.0
 40
67.499999999999915
 50
132.20544640373231
 51
137.79455359626769
  0
ARC
  5
11D
  8
1
 62
     7
 10
132.7597764058755
 20
0.0000000000000142
 30
0.0
 40
67.500000000000014
 50
222.2054464037322
 51
227.79455359626769
  0
ARC
  5
11E
  8
1
 62
     7
 10
132.7597764058755
 20
0.0000000000000142
 30
0.0
 40
67.499999999999986
 50
312.20544640373231
 51
317.7945535962678
  0
ARC
  5
11F
  8
1
 62
     7
 10
132.7597764058755
 20
-38.0
 30
0.0
 40
5.4999999999999662
 50
243.70577710552001
 51
296.29422289447871
  0
ARC
  5
120
  8
1
 62
     7
 10
99.850811062066924
 20
18.99999999999994
 30
0.0
 40
5.5000000000000329
 50
123.7057771055208
 51
176.29422289447939
  0
ARC
  5
121
  8
1
 62
     7
 10
132.7597764058755
 20
0.0000000000000142
 30
0.0
 40
10.000000000000011
 50
107.45760312372209
 51
72.542396876277934
  0
ARC
  5
122
  8
1
  6
DASHDOT
 62
     3
 10
132.7597764058755
 20
0.0000000000000142
 30
0.0
 40
60.999999999999943
 50
41.24020194266236
 51
48.759798057337569
  0
ARC
  5
123
  8
1
  6
DASHDOT
 62
     3
 10
132.7597764058755
 20
0.0000000000000142
 30
0.0
 40
61.000000000000021
 50
131.2402019426624
 51
138.75979805733749
  0
ARC
  5
124
  8
1
  6
DASHDOT
 62
     3
 10
132.7597764058755
 20
0.0000000000000142
 30
0.0
 40
60.999999999999993
 50
221.24020194266231
 51
228.75979805733741
  0
ARC
  5
125
  8
1
  6
DASHDOT
 62
     3
 10
132.7597764058755
 20
0.0000000000000142
 30
0.0
 40
61.000000000000028
 50
311.24020194266228
 51
318.7597980573376
  0
ARC
  5
126
  8
1
 62
     7
 10
19.179680289128719
 20
-37.728211163625318
 30
0.0
 40
5.200000000000025
 50
212.21083686778559
 51
254.95640609244231
  0
ARC
  5
127
  8
1
 62
     7
 10
19.179680289128729
 20
-38.271788836374668
 30
0.0
 40
5.2000000000000419
 50
105.04359390755771
 51
147.7891631322143
  0
ARC
  5
128
  8
1
 62
     7
 10
-100.7587459251787
 20
47.5
 30
0.0
 40
6.0
 50
90.0
 51
180.0
  0
ARC
  5
129
  8
1
 62
     7
 10
-100.7587459251787
 20
-47.499999999999993
 30
0.0
 40
6.0
 50
180.0
 51
270.0
  0
ARC
  5
12A
  8
1
 62
     7
 10
-1.2700000000000811
 20
47.5
 30
0.0
 40
6.0
 50
90.0
 51
180.0
  0
ARC
  5
12B
  8
1
 62
     7
 10
-1.2700000000000771
 20
-32.999999999999993
 30
0.0
 40
5.999999999999992
 50
113.5564643091011
 51
180.0
  0
ARC
  5
12C
  8
1
 62
     7
 10
-1.2700000000000811
 20
-47.499999999999993
 30
0.0
 40
6.0000000000000071
 50
180.0
 51
270.0
  0
CIRCLE
  5
12D
  8
1
 62
     7
 10
-4.6700000000000852
 20
-22.5
 30
0.0
 40
3.0
  0
CIRCLE
  5
12E
  8
1
 62
     7
 10
5.3299999999999281
 20
-22.5
 30
0.0
 40
2.9999999999999978
  0
CIRCLE
  5
12F
  8
1
 62
     7
 10
-4.6700000000000852
 20
22.5
 30
0.0
 40
3.0
  0
CIRCLE
  5
130
  8
1
 62
     7
 10
5.3299999999999281
 20
22.5
 30
0.0
 40
2.9999999999999978
  0
CIRCLE
  5
131
  8
1
 62
     7
 10
132.7597764058755
 20
0.0000000000000142
 30
0.0
 40
53.999999999999922
  0
CIRCLE
  5
132
  8
1
 62
     7
 10
132.7597764058755
 20
47.499999999999929
 30
0.0
 40
4.5
  0
CIRCLE
  5
133
  8
1
 62
     7
 10
132.7597764058755
 20
-38.0
 30
0.0
 40
2.5000000000000142
  0
CIRCLE
  5
134
  8
1
 62
     7
 10
132.7597764058755
 20
-38.0
 30
0.0
 40
2.0000000000000231
  0
CIRCLE
  5
135
  8
1
 62
     7
 10
91.623569726114766
 20
-23.75
 30
0.0
 40
4.5000000000000062
  0
CIRCLE
  5
136
  8
1
 62
     7
 10
173.8959830856364
 20
-23.75
 30
0.0
 40
4.4999999999999254
  0
CIRCLE
  5
137
  8
1
 62
     7
 10
165.6687417496843
 20
18.99999999999994
 30
0.0
 40
2.4999999999999161
  0
CIRCLE
  5
138
  8
1
 62
     7
 10
165.6687417496843
 20
18.99999999999994
 30
0.0
 40
2.0000000000000191
  0
CIRCLE
  5
139
  8
1
 62
     7
 10
99.850811062066924
 20
18.99999999999994
 30
0.0
 40
2.0000000000000711
  0
CIRCLE
  5
13A
  8
1
 62
     7
 10
89.626262753496206
 20
43.133513652379293
 30
0.0
 40
3.25
  0
CIRCLE
  5
13B
  8
1
 62
     7
 10
175.89329005825499
 20
43.133513652379293
 30
0.0
 40
3.25
  0
CIRCLE
  5
13C
  8
1
 62
     7
 10
175.89329005825499
 20
-43.133513652379413
 30
0.0
 40
3.25
  0
CIRCLE
  5
13D
  8
1
 62
     7
 10
89.626262753496206
 20
-43.133513652379413
 30
0.0
 40
3.25
  0
CIRCLE
  5
13E
  8
1
 62
     7
 10
99.850811062066924
 20
18.99999999999994
 30
0.0
 40
2.5
  0
CIRCLE
  5
13F
  8
1
 62
     7
 10
132.7597764058755
 20
0.0000000000000142
 30
0.0
 40
43.0
  0
TEXT
  5
141
  8
1
 62
     7
 10
-108.7930009470188
 20
109.558012352849
 30
0.0
 40
4.0
  1
VBS 2.5P
 41
0.9
  7
SIMPLEX
  0
ENDSEC
  0
EOF
