  0
SECTION
  2
HEADER
  9
$ACADVER
  1
AC1009
  9
$INSBASE
 10
0.0
 20
0.0
 30
0.0
  9
$EXTMIN
 10
-110.8404381529499
 20
-55.0
 30
0.0
  9
$EXTMAX
 10
182.63212883230949
 20
104.83354449363669
 30
0.0
  9
$LIMMIN
 10
-110.8404381529499
 20
-55.0
  9
$LIMMAX
 10
178.75906187336301
 20
104.83354449363669
  9
$ORTHOMODE
 70
     0
  9
$REGENMODE
 70
     1
  9
$FILLMODE
 70
     1
  9
$QTEXTMODE
 70
     0
  9
$MIRRTEXT
 70
     1
  9
$DRAGMODE
 70
     2
  9
$LTSCALE
 40
1.0
  9
$OSMODE
 70
    37
  9
$ATTMODE
 70
     1
  9
$TEXTSIZE
 40
3.5
  9
$TRACEWID
 40
0.5
  9
$TEXTSTYLE
  7
STANDARD
  9
$CLAYER
  8
0
  9
$CELTYPE
  6
BYLAYER
  9
$CECOLOR
 62
   256
  9
$DIMSCALE
 40
1.0
  9
$DIMASZ
 40
0.18
  9
$DIMEXO
 40
0.0625
  9
$DIMDLI
 40
0.38
  9
$DIMRND
 40
0.0
  9
$DIMDLE
 40
0.0
  9
$DIMEXE
 40
0.18
  9
$DIMTP
 40
0.0
  9
$DIMTM
 40
0.0
  9
$DIMTXT
 40
0.18
  9
$DIMCEN
 40
0.09
  9
$DIMTSZ
 40
0.0
  9
$DIMTOL
 70
     0
  9
$DIMLIM
 70
     0
  9
$DIMTIH
 70
     1
  9
$DIMTOH
 70
     1
  9
$DIMSE1
 70
     0
  9
$DIMSE2
 70
     0
  9
$DIMTAD
 70
     0
  9
$DIMZIN
 70
     0
  9
$DIMBLK
  1

  9
$DIMASO
 70
     1
  9
$DIMSHO
 70
     1
  9
$DIMPOST
  1

  9
$DIMAPOST
  1

  9
$DIMALT
 70
     0
  9
$DIMALTD
 70
     2
  9
$DIMALTF
 40
25.399999999999999
  9
$DIMLFAC
 40
1.0
  9
$DIMTOFL
 70
     0
  9
$DIMTVP
 40
0.0
  9
$DIMTIX
 70
     0
  9
$DIMSOXD
 70
     0
  9
$DIMSAH
 70
     0
  9
$DIMBLK1
  1

  9
$DIMBLK2
  1

  9
$DIMSTYLE
  2
STANDARD
  9
$DIMCLRD
 70
     0
  9
$DIMCLRE
 70
     0
  9
$DIMCLRT
 70
     0
  9
$DIMTFAC
 40
1.0
  9
$DIMGAP
 40
0.09
  9
$LUNITS
 70
     2
  9
$LUPREC
 70
     4
  9
$SKETCHINC
 40
0.1
  9
$FILLETRAD
 40
2.0
  9
$AUNITS
 70
     0
  9
$AUPREC
 70
     0
  9
$MENU
  1
ACAD
  9
$ELEVATION
 40
0.0
  9
$PELEVATION
 40
0.0
  9
$THICKNESS
 40
0.0
  9
$LIMCHECK
 70
     0
  9
$BLIPMODE
 70
     0
  9
$CHAMFERA
 40
0.0
  9
$CHAMFERB
 40
0.0
  9
$SKPOLY
 70
     0
  9
$TDCREATE
 40
2452095.375593055
  9
$TDUPDATE
 40
2452095.376063426
  9
$TDINDWG
 40
0.0004881944
  9
$TDUSRTIMER
 40
0.0004881944
  9
$USRTIMER
 70
     1
  9
$ANGBASE
 50
0.0
  9
$ANGDIR
 70
     0
  9
$PDMODE
 70
     0
  9
$PDSIZE
 40
0.0
  9
$PLINEWID
 40
0.0
  9
$COORDS
 70
     1
  9
$SPLFRAME
 70
     0
  9
$SPLINETYPE
 70
     6
  9
$SPLINESEGS
 70
     8
  9
$ATTDIA
 70
     0
  9
$ATTREQ
 70
     1
  9
$HANDLING
 70
 10241
  9
$HANDSEED
  5
116
  9
$SURFTAB1
 70
     6
  9
$SURFTAB2
 70
     6
  9
$SURFTYPE
 70
     6
  9
$SURFU
 70
     6
  9
$SURFV
 70
     6
  9
$UCSNAME
  2

  9
$UCSORG
 10
0.0
 20
0.0
 30
0.0
  9
$UCSXDIR
 10
1.0
 20
0.0
 30
0.0
  9
$UCSYDIR
 10
0.0
 20
1.0
 30
0.0
  9
$PUCSNAME
  2

  9
$PUCSORG
 10
0.0
 20
0.0
 30
0.0
  9
$PUCSXDIR
 10
1.0
 20
0.0
 30
0.0
  9
$PUCSYDIR
 10
0.0
 20
1.0
 30
0.0
  9
$USERI1
 70
     0
  9
$USERI2
 70
     0
  9
$USERI3
 70
     0
  9
$USERI4
 70
     0
  9
$USERI5
 70
     0
  9
$USERR1
 40
0.0
  9
$USERR2
 40
0.0
  9
$USERR3
 40
0.0
  9
$USERR4
 40
0.0
  9
$USERR5
 40
0.0
  9
$WORLDVIEW
 70
     1
  9
$SHADEDGE
 70
     3
  9
$SHADEDIF
 70
    70
  9
$TILEMODE
 70
     1
  9
$MAXACTVP
 70
    64
  9
$PLIMCHECK
 70
     0
  9
$PEXTMIN
 10
1.0000000000000000E+020
 20
1.0000000000000000E+020
 30
1.0000000000000000E+020
  9
$PEXTMAX
 10
-1.0000000000000000E+020
 20
-1.0000000000000000E+020
 30
-1.0000000000000000E+020
  9
$PLIMMIN
 10
0.0
 20
0.0
  9
$PLIMMAX
 10
12.0
 20
9.0
  9
$UNITMODE
 70
     0
  9
$VISRETAIN
 70
     1
  9
$PLINEGEN
 70
     0
  9
$PSLTSCALE
 70
     1
  0
ENDSEC
  0
SECTION
  2
TABLES
  0
TABLE
  2
VPORT
 70
     2
  0
VPORT
  2
*ACTIVE
 70
     0
 10
0.0
 20
0.0
 11
1.0
 21
1.0
 12
-89.584116472384522
 22
100.57569693612039
 13
0.0
 23
0.0
 14
1.0
 24
1.0
 15
0.0
 25
0.0
 16
0.0
 26
0.0
 36
1.0
 17
0.0
 27
0.0
 37
0.0
 40
8.9999999506590598
 41
2.4144144144144142
 42
50.0
 43
0.0
 44
0.0
 50
0.0
 51
0.0
 71
     0
 72
   100
 73
     1
 74
     1
 75
     0
 76
     0
 77
     0
 78
     0
  0
ENDTAB
  0
TABLE
  2
LTYPE
 70
     9
  0
LTYPE
  2
CONTINUOUS
 70
     0
  3
Solid line
 72
    65
 73
     0
 40
0.0
  0
LTYPE
  2
BORDER
 70
     0
  3
__ __ . __ __ .
 72
    65
 73
     6
 40
13.336819080159151
 49
3.810519737188327
 49
-1.9052598685941631
 49
3.810519737188327
 49
-1.9052598685941631
 49
0.0
 49
-1.9052598685941631
  0
LTYPE
  2
CENTER
 70
     0
  3
____ _ ____ _
 72
    65
 73
     4
 40
15.24207894875331
 49
9.5262993429708214
 49
-1.9052598685941631
 49
1.9052598685941631
 49
-1.9052598685941631
  0
LTYPE
  2
DASHDOT
 70
     0
  3
__ . __ . __ .
 72
    65
 73
     4
 40
7.6210394743766559
 49
3.810519737188327
 49
-1.9052598685941631
 49
0.0
 49
-1.9052598685941631
  0
LTYPE
  2
DASHED
 70
     0
  3
__ __ __ __ __
 72
    65
 73
     2
 40
5.7157796057824921
 49
3.810519737188327
 49
-1.9052598685941631
  0
LTYPE
  2
DIVIDE
 70
     0
  3
__ . . __ . . 
 72
    65
 73
     6
 40
9.5262993429708214
 49
3.810519737188327
 49
-1.9052598685941631
 49
0.0
 49
-1.9052598685941631
 49
0.0
 49
-1.9052598685941631
  0
LTYPE
  2
DOT
 70
     0
  3
..............
 72
    65
 73
     4
 40
3.810519737188327
 49
0.0
 49
-1.9052598685941631
 49
0.0
 49
-1.9052598685941631
  0
LTYPE
  2
HIDDEN
 70
     0
  3
_ _ _ _ _ _ _
 72
    65
 73
     2
 40
2.8578898028912461
 49
1.9052598685941631
 49
-0.9526299342970819
  0
LTYPE
  2
PHANTOM
 70
     0
  3
_____ _ _ _____ _ _ 
 72
    65
 73
     6
 40
19.052598685941639
 49
9.5262993429708214
 49
-1.9052598685941631
 49
1.9052598685941631
 49
-1.9052598685941631
 49
1.9052598685941631
 49
-1.9052598685941631
  0
ENDTAB
  0
TABLE
  2
LAYER
 70
     2
  0
LAYER
  2
0
 70
     0
 62
     7
  6
CONTINUOUS
  0
LAYER
  2
1
 70
     0
 62
     7
  6
CONTINUOUS
  0
ENDTAB
  0
TABLE
  2
STYLE
 70
     4
  0
STYLE
  2
STANDARD
 70
     0
 40
0.0
 41
1.0
 50
0.0
 71
     0
 42
3.5
  3
txt
  4

  0
STYLE
  2
SIMPLEX
 70
     0
 40
0.0
 41
1.0
 50
0.0
 71
     0
 42
3.5
  3
simplex
  4

  0
STYLE
  2
COMPLEX
 70
     0
 40
0.0
 41
1.0
 50
0.0
 71
     0
 42
3.5
  3
complex
  4

  0
STYLE
  2
ITALIC
 70
     0
 40
0.0
 41
1.0
 50
0.0
 71
     0
 42
3.5
  3
italic
  4

  0
ENDTAB
  0
TABLE
  2
VIEW
 70
     0
  0
ENDTAB
  0
TABLE
  2
UCS
 70
     0
  0
ENDTAB
  0
TABLE
  2
APPID
 70
     1
  0
APPID
  2
ACAD
 70
     0
  0
ENDTAB
  0
TABLE
  2
DIMSTYLE
 70
     1
  0
DIMSTYLE
  2
STANDARD
 70
     0
  3

  4

  5

  6

  7

 40
1.0
 41
0.18
 42
0.0625
 43
0.38
 44
0.18
 45
0.0
 46
0.0
 47
0.0
 48
0.0
140
0.18
141
0.09
142
0.0
143
25.399999999999999
144
1.0
145
0.0
146
1.0
147
0.09
 71
     0
 72
     0
 73
     1
 74
     1
 75
     0
 76
     0
 77
     0
 78
     0
170
     0
171
     2
172
     0
173
     0
174
     0
175
     0
176
     0
177
     0
178
     0
  0
ENDTAB
  0
ENDSEC
  0
SECTION
  2
BLOCKS
  0
BLOCK
  8
0
  2
$MODEL_SPACE
 70
     0
 10
0.0
 20
0.0
 30
0.0
  3
$MODEL_SPACE
  1

  0
ENDBLK
  5
20
  8
0
  0
BLOCK
 67
     1
  8
0
  2
$PAPER_SPACE
 70
     0
 10
0.0
 20
0.0
 30
0.0
  3
$PAPER_SPACE
  1

  0
ENDBLK
  5
1C
 67
     1
  8
0
  0
ENDSEC
  0
SECTION
  2
ENTITIES
  0
LINE
  5
33
  8
1
 62
     7
 10
-76.586174994834153
 20
-37.000000000000021
 30
0.0
 11
-76.186174994834133
 21
-37.000000000000028
 31
0.0
  0
LINE
  5
34
  8
1
 62
     7
 10
-76.186174994834133
 20
-23.000000000000021
 30
0.0
 11
-76.586174994834153
 21
-23.000000000000021
 31
0.0
  0
LINE
  5
35
  8
1
 62
     7
 10
-77.686174994834161
 20
42.999999999999993
 30
0.0
 11
-77.686174994834161
 21
-43.000000000000021
 31
0.0
  0
LINE
  5
36
  8
1
 62
     7
 10
25.499999999999979
 20
-32.000000000000021
 30
0.0
 11
25.499999999999979
 21
-42.000000000000007
 31
0.0
  0
LINE
  5
37
  8
1
 62
     7
 10
25.099999999999991
 20
42.999999999999993
 30
0.0
 11
25.099999999999991
 21
-43.000000000000021
 31
0.0
  0
LINE
  5
38
  8
1
 62
     7
 10
25.499999999999979
 20
-37.000000000000021
 30
0.0
 11
25.099999999999991
 21
-37.000000000000021
 31
0.0
  0
LINE
  5
39
  8
1
 62
     7
 10
25.499999999999979
 20
-23.000000000000021
 30
0.0
 11
25.099999999999991
 21
-23.000000000000021
 31
0.0
  0
LINE
  5
3A
  8
1
 62
     7
 10
23.999999999999989
 20
-25.750000000000011
 30
0.0
 11
23.999999999999989
 21
42.999999999999993
 31
0.0
  0
LINE
  5
3B
  8
1
 62
     7
 10
23.999999999999989
 20
-43.000000000000021
 30
0.0
 11
23.999999999999989
 21
-34.250000000000021
 31
0.0
  0
LINE
  5
3C
  8
1
 62
     7
 10
-76.586174994834153
 20
-34.250000000000021
 30
0.0
 11
-76.586174994834153
 21
42.999999999999993
 31
0.0
  0
LINE
  5
3D
  8
1
 62
     7
 10
-105.6861749948341
 20
-55.0
 30
0.0
 11
-105.6861749948341
 21
41.0
 31
0.0
  0
LINE
  5
3E
  8
1
 62
     7
 10
-107.786174994834
 20
41.0
 30
0.0
 11
-107.786174994834
 21
-55.0
 31
0.0
  0
LINE
  5
3F
  8
1
 62
     3
 10
26.139230484541319
 20
-28.000000000000021
 30
0.0
 11
26.139230484541319
 21
-32.000000000000021
 31
0.0
  0
LINE
  5
40
  8
1
 62
     3
 10
26.139230484541319
 20
-31.40000000000002
 30
0.0
 11
25.099999999999991
 21
-32.000000000000021
 31
0.0
  0
LINE
  5
41
  8
1
 62
     3
 10
34.599999999999987
 20
-31.40000000000002
 30
0.0
 11
26.139230484541319
 21
-31.40000000000002
 31
0.0
  0
LINE
  5
42
  8
1
 62
     3
 10
26.139230484541319
 20
-28.600000000000019
 30
0.0
 11
25.099999999999991
 21
-28.000000000000021
 31
0.0
  0
LINE
  5
43
  8
1
 62
     3
 10
34.599999999999987
 20
-28.600000000000019
 30
0.0
 11
26.139230484541319
 21
-28.600000000000019
 31
0.0
  0
LINE
  5
44
  8
1
 62
     7
 10
34.0
 20
-28.000000000000021
 30
0.0
 11
34.0
 21
-32.000000000000021
 31
0.0
  0
LINE
  5
45
  8
1
 62
     7
 10
34.0
 20
-32.000000000000021
 30
0.0
 11
25.099999999999991
 21
-32.000000000000021
 31
0.0
  0
LINE
  5
46
  8
1
 62
     7
 10
34.599999999999987
 20
-31.40000000000002
 30
0.0
 11
34.0
 21
-32.000000000000021
 31
0.0
  0
LINE
  5
47
  8
1
 62
     7
 10
34.599999999999987
 20
-28.600000000000019
 30
0.0
 11
34.599999999999987
 21
-31.40000000000002
 31
0.0
  0
LINE
  5
48
  8
1
 62
     7
 10
34.0
 20
-28.000000000000021
 30
0.0
 11
34.599999999999987
 21
-28.600000000000019
 31
0.0
  0
LINE
  5
49
  8
1
 62
     7
 10
25.099999999999991
 20
-28.000000000000021
 30
0.0
 11
34.0
 21
-28.000000000000021
 31
0.0
  0
LINE
  5
4A
  8
1
 62
     7
 10
21.849999999999991
 20
-28.000000000000021
 30
0.0
 11
21.849999999999991
 21
-32.000000000000021
 31
0.0
  0
LINE
  5
4B
  8
1
 62
     7
 10
24.599999999999991
 20
-33.750000000000021
 30
0.0
 11
24.599999999999991
 21
-26.250000000000011
 31
0.0
  0
LINE
  5
4C
  8
1
 62
     7
 10
24.199999999999989
 20
-33.750000000000021
 30
0.0
 11
24.599999999999991
 21
-33.750000000000021
 31
0.0
  0
LINE
  5
4D
  8
1
 62
     7
 10
24.199999999999989
 20
-26.250000000000011
 30
0.0
 11
24.199999999999989
 21
-33.750000000000021
 31
0.0
  0
LINE
  5
4E
  8
1
 62
     7
 10
24.599999999999991
 20
-26.250000000000011
 30
0.0
 11
24.199999999999989
 21
-26.250000000000011
 31
0.0
  0
LINE
  5
4F
  8
1
 62
     7
 10
24.599999999999991
 20
-26.500000000000021
 30
0.0
 11
25.099999999999991
 21
-26.500000000000021
 31
0.0
  0
LINE
  5
50
  8
1
 62
     7
 10
25.099999999999991
 20
-33.500000000000021
 30
0.0
 11
24.599999999999991
 21
-33.500000000000021
 31
0.0
  0
LINE
  5
51
  8
1
 62
     7
 10
-3.999999999999988
 20
41.0
 30
0.0
 11
-3.999999999999988
 21
-55.0
 31
0.0
  0
LINE
  5
52
  8
1
  6
DASHDOT
 62
     3
 10
-108.7938673660495
 20
-49.0
 30
0.0
 11
-104.4913459784166
 21
-49.0
 31
0.0
  0
LINE
  5
53
  8
1
 62
     7
 10
4.8551043733355916
 20
70.927111242881523
 30
0.0
 11
4.8551043733355916
 21
74.277365778823111
 31
0.0
  0
LINE
  5
54
  8
1
 62
     7
 10
5.1094194889426632
 20
70.927111242881523
 30
0.0
 11
5.1094194889426632
 21
74.277365778823111
 31
0.0
  0
LINE
  5
55
  8
1
 62
     7
 10
6.1448956266644323
 20
74.277365778823111
 30
0.0
 11
6.1448956266644323
 21
70.927111242881523
 31
0.0
  0
LINE
  5
56
  8
1
 62
     7
 10
5.8905805110573617
 20
74.277365778823111
 30
0.0
 11
5.8905805110573617
 21
70.927111242881523
 31
0.0
  0
LINE
  5
57
  8
1
 62
     7
 10
4.2500000000000391
 20
70.927111242881523
 30
0.0
 11
6.7500000000000107
 21
70.927111242881523
 31
0.0
  0
LINE
  5
58
  8
1
 62
     7
 10
6.7500000000000107
 20
70.927111242881523
 30
0.0
 11
6.7500000000000107
 21
42.5
 31
0.0
  0
LINE
  5
59
  8
1
 62
     7
 10
4.2500000000000391
 20
70.927111242881523
 30
0.0
 11
4.2500000000000391
 21
42.5
 31
0.0
  0
LINE
  5
5A
  8
1
  6
DASHDOT
 62
     3
 10
-7.2888784158735787
 20
-49.0
 30
0.0
 11
-2.2530941793248891
 21
-49.0
 31
0.0
  0
LINE
  5
5B
  8
1
 62
     7
 10
-6.0999999999999801
 20
-55.0
 30
0.0
 11
-3.999999999999988
 21
-55.0
 31
0.0
  0
LINE
  5
5C
  8
1
 62
     7
 10
-6.0999999999999801
 20
-51.75
 30
0.0
 11
-3.999999999999988
 21
-51.75
 31
0.0
  0
LINE
  5
5D
  8
1
 62
     7
 10
-6.0999999999999801
 20
-46.25
 30
0.0
 11
-3.999999999999988
 21
-46.25
 31
0.0
  0
LINE
  5
5E
  8
1
 62
     7
 10
-3.999999999999988
 20
-22.5
 30
0.0
 11
-6.0999999999999801
 21
-22.5
 31
0.0
  0
LINE
  5
5F
  8
1
 62
     7
 10
-6.0999999999999801
 20
22.5
 30
0.0
 11
-3.999999999999988
 21
22.5
 31
0.0
  0
LINE
  5
60
  8
1
 62
     7
 10
-6.0999999999999801
 20
41.0
 30
0.0
 11
-6.0999999999999801
 21
-55.0
 31
0.0
  0
LINE
  5
61
  8
1
 62
     7
 10
-6.0999999999999801
 20
41.0
 30
0.0
 11
-3.999999999999988
 21
41.0
 31
0.0
  0
LINE
  5
62
  8
1
 62
     7
 10
21.100000000000019
 20
42.5
 30
0.0
 11
21.100000000000019
 21
-42.5
 31
0.0
  0
LINE
  5
63
  8
1
 62
     7
 10
21.100000000000019
 20
23.100000000000009
 30
0.0
 11
1.000000000000036
 21
23.100000000000009
 31
0.0
  0
LINE
  5
64
  8
1
 62
     7
 10
1.0000000000000391
 20
-23.100000000000009
 30
0.0
 11
21.100000000000019
 21
-23.100000000000009
 31
0.0
  0
LINE
  5
65
  8
1
 62
     7
 10
21.100000000000019
 20
-42.5
 30
0.0
 11
2.0000000000000431
 21
-42.5
 31
0.0
  0
LINE
  5
66
  8
1
 62
     7
 10
1.7500000000000391
 20
42.5
 30
0.0
 11
21.100000000000019
 21
42.5
 31
0.0
  0
LINE
  5
67
  8
1
  6
DASHDOT
 62
     3
 10
156.32716521324329
 20
11.875
 30
0.0
 11
167.80200181338719
 21
18.5
 31
0.0
  0
LINE
  5
68
  8
1
  6
DASHDOT
 62
     3
 10
104.2399293389177
 20
18.197579653385421
 30
0.0
 11
115.1909585334825
 21
11.875
 31
0.0
  0
LINE
  5
69
  8
1
 62
     7
 10
135.1895077999061
 20
71.230732033822719
 30
0.0
 11
135.1895077999061
 21
74.80601760292592
 31
0.0
  0
LINE
  5
6A
  8
1
 62
     7
 10
134.62309513122449
 20
71.230732033822719
 30
0.0
 11
134.62309513122449
 21
74.743082861961312
 31
0.0
  0
LINE
  5
6B
  8
1
 62
     7
 10
134.05668246254291
 20
71.230732033822719
 30
0.0
 11
134.05668246254291
 21
74.680148120996705
 31
0.0
  0
LINE
  5
6C
  8
1
 62
     7
 10
137.461441284183
 20
74.680148120996705
 30
0.0
 11
137.461441284183
 21
71.230732033822719
 31
0.0
  0
LINE
  5
6D
  8
1
 62
     7
 10
136.89502861550139
 20
74.743082861961312
 30
0.0
 11
136.89502861550139
 21
71.230732033822719
 31
0.0
  0
LINE
  5
6E
  8
1
 62
     7
 10
136.32861594681981
 20
74.80601760292592
 30
0.0
 11
136.32861594681981
 21
71.230732033822719
 31
0.0
  0
LINE
  5
6F
  8
1
 62
     7
 10
25.499999999999979
 20
-23.750000000000011
 30
0.0
 11
25.999999999999989
 21
-23.750000000000011
 31
0.0
  0
LINE
  5
70
  8
1
 62
     7
 10
25.499999999999979
 20
-37.000000000000021
 30
0.0
 11
25.999999999999989
 21
-37.000000000000021
 31
0.0
  0
LINE
  5
71
  8
1
  6
DASHDOT
 62
     3
 10
20.624999999999989
 20
-30.000000000000011
 30
0.0
 11
36.50071442151286
 21
-30.000000000000011
 31
0.0
  0
LINE
  5
72
  8
1
 62
     7
 10
25.999999999999989
 20
-34.500000000000021
 30
0.0
 11
27.999999999999979
 21
-34.500000000000021
 31
0.0
  0
LINE
  5
73
  8
1
 62
     7
 10
27.999999999999979
 20
-32.000000000000021
 30
0.0
 11
27.999999999999979
 21
-34.500000000000021
 31
0.0
  0
LINE
  5
74
  8
1
 62
     7
 10
27.999999999999979
 20
-25.500000000000021
 30
0.0
 11
27.999999999999979
 21
-28.000000000000021
 31
0.0
  0
LINE
  5
75
  8
1
 62
     7
 10
25.999999999999989
 20
-25.500000000000021
 30
0.0
 11
27.999999999999979
 21
-25.500000000000021
 31
0.0
  0
LINE
  5
76
  8
1
 62
     7
 10
25.999999999999989
 20
-32.000000000000007
 30
0.0
 11
25.999999999999989
 21
-42.000000000000007
 31
0.0
  0
LINE
  5
77
  8
1
 62
     7
 10
21.299999999999979
 20
-34.250000000000021
 30
0.0
 11
25.099999999999991
 21
-34.250000000000021
 31
0.0
  0
LINE
  5
78
  8
1
 62
     7
 10
21.299999999999979
 20
-25.750000000000011
 30
0.0
 11
25.099999999999991
 21
-25.75
 31
0.0
  0
LINE
  5
79
  8
1
 62
     7
 10
25.499999999999979
 20
-42.000000000000007
 30
0.0
 11
25.999999999999989
 21
-42.000000000000007
 31
0.0
  0
LINE
  5
7A
  8
1
 62
     7
 10
27.0
 20
33.899999999999991
 30
0.0
 11
27.5
 21
34.399999999999991
 31
0.0
  0
LINE
  5
7B
  8
1
 62
     7
 10
27.5
 20
40.599999999999973
 30
0.0
 11
27.0
 21
41.099999999999973
 31
0.0
  0
LINE
  5
7C
  8
1
 62
     7
 10
26.099999999999991
 20
41.099999999999973
 30
0.0
 11
26.099999999999991
 21
33.899999999999991
 31
0.0
  0
LINE
  5
7D
  8
1
 62
     7
 10
25.599999999999991
 20
33.899999999999991
 30
0.0
 11
27.0
 21
33.899999999999991
 31
0.0
  0
LINE
  5
7E
  8
1
 62
     7
 10
27.5
 20
40.599999999999973
 30
0.0
 11
27.5
 21
34.399999999999991
 31
0.0
  0
LINE
  5
7F
  8
1
 62
     7
 10
25.599999999999991
 20
41.099999999999973
 30
0.0
 11
27.0
 21
41.099999999999973
 31
0.0
  0
LINE
  5
80
  8
1
 62
     7
 10
25.099999999999991
 20
32.999999999999993
 30
0.0
 11
25.599999999999991
 21
32.999999999999993
 31
0.0
  0
LINE
  5
81
  8
1
 62
     7
 10
25.099999999999991
 20
31.86602540378442
 30
0.0
 11
25.499999999999979
 21
29.999999999999989
 31
0.0
  0
LINE
  5
82
  8
1
 62
     7
 10
25.999999999999989
 20
30.06582624879367
 30
0.0
 11
25.999999999999989
 21
-28.0
 31
0.0
  0
LINE
  5
83
  8
1
 62
     7
 10
25.599999999999991
 20
31.931851652578121
 30
0.0
 11
25.999999999999989
 21
30.06582624879367
 31
0.0
  0
LINE
  5
84
  8
1
 62
     7
 10
25.599999999999991
 20
41.999999999999993
 30
0.0
 11
25.599999999999991
 21
31.931851652578121
 31
0.0
  0
LINE
  5
85
  8
1
 62
     7
 10
25.099999999999991
 20
41.999999999999993
 30
0.0
 11
25.599999999999991
 21
41.999999999999993
 31
0.0
  0
LINE
  5
86
  8
1
 62
     7
 10
25.099999999999991
 20
-43.000000000000021
 30
0.0
 11
21.299999999999979
 21
-43.000000000000021
 31
0.0
  0
LINE
  5
87
  8
1
 62
     7
 10
25.099999999999991
 20
-22.500000000000011
 30
0.0
 11
21.299999999999979
 21
-22.500000000000011
 31
0.0
  0
LINE
  5
88
  8
1
 62
     7
 10
21.299999999999979
 20
22.499999999999989
 30
0.0
 11
25.099999999999991
 21
22.499999999999989
 31
0.0
  0
LINE
  5
89
  8
1
 62
     7
 10
25.499999999999979
 20
29.999999999999989
 30
0.0
 11
25.499999999999979
 21
-28.000000000000021
 31
0.0
  0
LINE
  5
8A
  8
1
 62
     7
 10
21.299999999999979
 20
42.999999999999993
 30
0.0
 11
25.099999999999991
 21
42.999999999999993
 31
0.0
  0
LINE
  5
8B
  8
1
 62
     7
 10
21.299999999999979
 20
42.999999999999993
 30
0.0
 11
21.299999999999979
 21
-43.000000000000021
 31
0.0
  0
LINE
  5
8C
  8
1
 62
     7
 10
138.25906187336301
 20
71.230732033822719
 30
0.0
 11
138.25906187336301
 21
42.981906027037148
 31
0.0
  0
LINE
  5
8D
  8
1
 62
     7
 10
133.25906187336301
 20
71.230732033822719
 30
0.0
 11
133.25906187336301
 21
42.915152799866597
 31
0.0
  0
LINE
  5
8E
  8
1
 62
     7
 10
133.25906187336301
 20
71.230732033822719
 30
0.0
 11
138.25906187336301
 21
71.230732033822719
 31
0.0
  0
LINE
  5
8F
  8
1
  6
DASHDOT
 62
     3
 10
173.825820963166
 20
38.066759089803149
 30
0.0
 11
167.18054447429799
 21
31.421482600935061
 31
0.0
  0
LINE
  5
90
  8
1
  6
DASHDOT
 62
     3
 10
173.825820963166
 20
-38.066759089803128
 30
0.0
 11
167.18054447429799
 21
-31.42148260093505
 31
0.0
  0
LINE
  5
91
  8
1
  6
DASHDOT
 62
     3
 10
97.692302783559754
 20
-38.066759089803142
 30
0.0
 11
104.3375792724279
 21
-31.421482600935061
 31
0.0
  0
LINE
  5
92
  8
1
  6
DASHDOT
 62
     3
 10
97.692302783559754
 20
38.066759089803149
 30
0.0
 11
104.3375792724277
 21
31.421482600935061
 31
0.0
  0
LINE
  5
93
  8
1
 62
     7
 10
148.72054327017861
 20
41.0
 30
0.0
 11
172.41966743300961
 21
41.0
 31
0.0
  0
LINE
  5
94
  8
1
 62
     7
 10
99.09845631371617
 20
41.0
 30
0.0
 11
122.7975804765472
 21
41.0
 31
0.0
  0
LINE
  5
95
  8
1
 62
     7
 10
94.759061873362882
 20
36.66060555964674
 30
0.0
 11
94.759061873362882
 21
12.96148139681573
 31
0.0
  0
LINE
  5
96
  8
1
 62
     7
 10
94.759061873362882
 20
-12.96148139681571
 30
0.0
 11
94.759061873362882
 21
-36.660605559646697
 31
0.0
  0
LINE
  5
97
  8
1
 62
     7
 10
99.09845631371617
 20
-40.999999999999993
 30
0.0
 11
122.7975804765472
 21
-40.999999999999993
 31
0.0
  0
LINE
  5
98
  8
1
 62
     7
 10
148.72054327017861
 20
-40.999999999999993
 30
0.0
 11
172.41966743300961
 21
-40.999999999999993
 31
0.0
  0
LINE
  5
99
  8
1
 62
     7
 10
176.75906187336301
 20
-12.96148139681571
 30
0.0
 11
176.75906187336301
 21
-36.660605559646697
 31
0.0
  0
LINE
  5
9A
  8
1
 62
     7
 10
176.75906187336301
 20
36.66060555964674
 30
0.0
 11
176.75906187336301
 21
12.96148139681573
 31
0.0
  0
LINE
  5
9B
  8
1
  6
DASHDOT
 62
     3
 10
135.7590618733629
 20
-37.0
 30
0.0
 11
135.7590618733629
 21
-23.749999999999989
 31
0.0
  0
LINE
  5
9C
  8
1
  6
DASHDOT
 62
     3
 10
140.39026679182399
 20
0.0000000000000071
 30
0.0
 11
131.12785695490189
 21
0.0000000000000071
 31
0.0
  0
LINE
  5
9D
  8
1
  6
DASHDOT
 62
     3
 10
135.75906187336301
 20
4.6312049184610506
 30
0.0
 11
135.75906187336301
 21
-4.6312049184610302
 31
0.0
  0
LINE
  5
9E
  8
1
 62
     7
 10
135.688908533156
 20
71.230732033822719
 30
0.0
 11
135.688908533156
 21
42.99994277332074
 31
0.0
  0
LINE
  5
9F
  8
1
  6
DASHDOT
 62
     3
 10
25.999999999999989
 20
0.0
 30
0.0
 11
29.141798257257371
 21
0.0
 31
0.0
  0
LINE
  5
A0
  8
1
  6
DASHDOT
 62
     3
 10
-6.0999999999999801
 20
0.0
 30
0.0
 11
-9.1542631581157057
 21
0.0
 31
0.0
  0
LINE
  5
A1
  8
1
 62
     7
 10
-96.831070621498512
 20
70.927111242881523
 30
0.0
 11
-96.831070621498512
 21
74.277365778823111
 31
0.0
  0
LINE
  5
A2
  8
1
 62
     7
 10
-96.576755505891455
 20
70.927111242881523
 30
0.0
 11
-96.576755505891455
 21
74.277365778823111
 31
0.0
  0
LINE
  5
A3
  8
1
 62
     7
 10
-95.541279368169725
 20
74.277365778823111
 30
0.0
 11
-95.541279368169725
 21
70.927111242881523
 31
0.0
  0
LINE
  5
A4
  8
1
 62
     7
 10
-95.795594483776725
 20
74.277365778823111
 30
0.0
 11
-95.795594483776725
 21
70.927111242881523
 31
0.0
  0
LINE
  5
A5
  8
1
 62
     7
 10
-97.436174994834133
 20
70.927111242881523
 30
0.0
 11
-94.936174994834104
 21
70.927111242881523
 31
0.0
  0
LINE
  5
A6
  8
1
 62
     7
 10
-94.936174994834104
 20
70.927111242881523
 30
0.0
 11
-94.936174994834104
 21
42.5
 31
0.0
  0
LINE
  5
A7
  8
1
 62
     7
 10
-97.436174994834133
 20
70.927111242881523
 30
0.0
 11
-97.436174994834133
 21
42.5
 31
0.0
  0
LINE
  5
A8
  8
1
 62
     7
 10
-107.786174994834
 20
-55.0
 30
0.0
 11
-105.6861749948341
 21
-55.0
 31
0.0
  0
LINE
  5
A9
  8
1
 62
     7
 10
-107.786174994834
 20
41.0
 30
0.0
 11
-105.6861749948341
 21
41.0
 31
0.0
  0
LINE
  5
AA
  8
1
 62
     7
 10
-80.586174994834096
 20
42.5
 30
0.0
 11
-80.586174994834096
 21
-42.5
 31
0.0
  0
LINE
  5
AB
  8
1
 62
     7
 10
-80.586174994834096
 20
-42.5
 30
0.0
 11
-99.686174994834118
 21
-42.5
 31
0.0
  0
LINE
  5
AC
  8
1
 62
     7
 10
-99.936174994834133
 20
42.5
 30
0.0
 11
-80.586174994834096
 21
42.5
 31
0.0
  0
LINE
  5
AD
  8
1
 62
     7
 10
-76.586174994834153
 20
-43.000000000000021
 30
0.0
 11
-76.586174994834153
 21
-34.250000000000021
 31
0.0
  0
LINE
  5
AE
  8
1
 62
     3
 10
-67.086174994834153
 20
-28.700000000000021
 30
0.0
 11
-73.686174994834161
 21
-28.700000000000021
 31
0.0
  0
LINE
  5
AF
  8
1
  6
DASHDOT
 62
     3
 10
-76.586174994834153
 20
-30.000000000000011
 30
0.0
 11
-65.185460573321279
 21
-30.000000000000011
 31
0.0
  0
LINE
  5
B0
  8
1
 62
     7
 10
-75.686174994834161
 20
-34.500000000000021
 30
0.0
 11
-73.686174994834161
 21
-34.500000000000021
 31
0.0
  0
LINE
  5
B1
  8
1
 62
     7
 10
-73.686174994834161
 20
-25.500000000000021
 30
0.0
 11
-73.686174994834161
 21
-34.500000000000021
 31
0.0
  0
LINE
  5
B2
  8
1
 62
     7
 10
-75.686174994834161
 20
30.06582624879367
 30
0.0
 11
-75.686174994834161
 21
-42.0
 31
0.0
  0
LINE
  5
B3
  8
1
 62
     7
 10
-75.686174994834161
 20
-25.500000000000021
 30
0.0
 11
-73.686174994834161
 21
-25.500000000000021
 31
0.0
  0
LINE
  5
B4
  8
1
 62
     7
 10
-67.786174994834155
 20
-32.000000000000021
 30
0.0
 11
-67.786174994834155
 21
-28.000000000000021
 31
0.0
  0
LINE
  5
B5
  8
1
 62
     7
 10
-67.086174994834153
 20
-28.700000000000021
 30
0.0
 11
-67.786174994834155
 21
-28.000000000000021
 31
0.0
  0
LINE
  5
B6
  8
1
 62
     7
 10
-67.086174994834153
 20
-31.300000000000018
 30
0.0
 11
-67.086174994834153
 21
-28.700000000000021
 31
0.0
  0
LINE
  5
B7
  8
1
 62
     7
 10
-67.786174994834155
 20
-32.000000000000021
 30
0.0
 11
-67.086174994834153
 21
-31.300000000000018
 31
0.0
  0
LINE
  5
B8
  8
1
 62
     7
 10
-67.786174994834155
 20
-32.000000000000021
 30
0.0
 11
-73.686174994834161
 21
-32.000000000000021
 31
0.0
  0
LINE
  5
B9
  8
1
 62
     7
 10
-76.186174994834133
 20
-42.0
 30
0.0
 11
-75.686174994834161
 21
-42.0
 31
0.0
  0
LINE
  5
BA
  8
1
 62
     7
 10
-74.686174994834161
 20
33.899999999999991
 30
0.0
 11
-74.186174994834161
 21
34.399999999999991
 31
0.0
  0
LINE
  5
BB
  8
1
 62
     7
 10
-74.186174994834161
 20
40.599999999999973
 30
0.0
 11
-74.686174994834161
 21
41.099999999999973
 31
0.0
  0
LINE
  5
BC
  8
1
 62
     7
 10
-75.586174994834153
 20
41.099999999999973
 30
0.0
 11
-75.586174994834153
 21
33.899999999999991
 31
0.0
  0
LINE
  5
BD
  8
1
 62
     7
 10
-76.086174994834153
 20
33.899999999999991
 30
0.0
 11
-74.686174994834161
 21
33.899999999999991
 31
0.0
  0
LINE
  5
BE
  8
1
 62
     7
 10
-74.186174994834161
 20
40.599999999999973
 30
0.0
 11
-74.186174994834161
 21
34.399999999999991
 31
0.0
  0
LINE
  5
BF
  8
1
 62
     7
 10
-76.086174994834153
 20
41.099999999999973
 30
0.0
 11
-74.686174994834161
 21
41.099999999999973
 31
0.0
  0
LINE
  5
C0
  8
1
 62
     7
 10
-76.586174994834153
 20
31.86602540378442
 30
0.0
 11
-76.186174994834161
 21
29.999999999999989
 31
0.0
  0
LINE
  5
C1
  8
1
 62
     7
 10
-76.086174994834153
 20
31.931851652578121
 30
0.0
 11
-75.686174994834161
 21
30.06582624879367
 31
0.0
  0
LINE
  5
C2
  8
1
 62
     7
 10
-76.086174994834153
 20
41.999999999999993
 30
0.0
 11
-76.086174994834153
 21
31.931851652578121
 31
0.0
  0
LINE
  5
C3
  8
1
 62
     7
 10
-76.586174994834153
 20
41.999999999999993
 30
0.0
 11
-76.086174994834153
 21
41.999999999999993
 31
0.0
  0
LINE
  5
C4
  8
1
 62
     7
 10
-76.586174994834153
 20
-43.000000000000021
 30
0.0
 11
-80.386174994834136
 21
-43.000000000000021
 31
0.0
  0
LINE
  5
C5
  8
1
 62
     7
 10
-76.186174994834161
 20
29.999999999999989
 30
0.0
 11
-76.186174994834133
 21
-42.0
 31
0.0
  0
LINE
  5
C6
  8
1
 62
     7
 10
-80.386174994834136
 20
42.999999999999993
 30
0.0
 11
-76.586174994834153
 21
42.999999999999993
 31
0.0
  0
LINE
  5
C7
  8
1
 62
     7
 10
-80.386174994834136
 20
42.999999999999993
 30
0.0
 11
-80.386174994834136
 21
-43.000000000000021
 31
0.0
  0
LINE
  5
C8
  8
1
  6
DASHDOT
 62
     3
 10
-75.686174994834161
 20
0.0
 30
0.0
 11
-72.544376737576783
 21
0.0
 31
0.0
  0
LINE
  5
C9
  8
1
  6
DASHDOT
 62
     3
 10
-107.786174994834
 20
0.0
 30
0.0
 11
-110.8404381529499
 21
0.0
 31
0.0
  0
LINE
  5
CA
  8
1
 62
     7
 10
-73.686174994834161
 20
-28.000000000000021
 30
0.0
 11
-67.786174994834155
 21
-28.000000000000021
 31
0.0
  0
LINE
  5
CB
  8
1
 62
     3
 10
-73.686174994834161
 20
-31.300000000000018
 30
0.0
 11
-67.086174994834153
 21
-31.300000000000018
 31
0.0
  0
LINE
  5
CC
  8
1
 62
     7
 10
-96.194461166627136
 20
70.927111242881523
 30
0.0
 11
-96.194461166627136
 21
74.248139906995817
 31
0.0
  0
LINE
  5
CD
  8
1
 62
     7
 10
5.483529879503461
 20
70.927111242881523
 30
0.0
 11
5.483529879503461
 21
74.256730219429812
 31
0.0
  0
ARC
  5
CE
  8
1
 62
     7
 10
25.31212774770103
 20
-29.803714167372931
 30
0.0
 40
4.0999999999999934
 50
212.39000322816551
 51
254.26129743268791
  0
ARC
  5
CF
  8
1
 62
     7
 10
25.31212774770103
 20
-30.196285832627112
 30
0.0
 40
4.0999999999999899
 50
105.7387025673121
 51
147.60999677183429
  0
ARC
  5
D0
  8
1
 62
     7
 10
124.759061873363
 20
-19.052558883257621
 30
0.0
 40
20.000000000000099
 50
239.9999999999998
 51
291.14039033823661
  0
ARC
  5
D1
  8
1
 62
     7
 10
124.759061873363
 20
19.05255888325766
 30
0.0
 40
20.000000000000011
 50
119.9999999999999
 51
171.14039033823701
  0
ARC
  5
D2
  8
1
 62
     7
 10
135.75906187336301
 20
-47.499999999999929
 30
0.0
 40
10.50011321438852
 50
68.859609661764836
 51
111.1403903382373
  0
ARC
  5
D3
  8
1
 62
     7
 10
94.622855193602206
 20
23.749999999999961
 30
0.0
 40
10.500113214388501
 50
308.85960966176481
 51
351.14039033823701
  0
ARC
  5
D4
  8
1
 62
     7
 10
146.75906187336301
 20
-19.05255888325766
 30
0.0
 40
20.000000000000028
 50
248.85960966176199
 51
299.99999999999989
  0
ARC
  5
D5
  8
1
 62
     7
 10
113.7590618733629
 20
0.0000000000000142
 30
0.0
 40
20.000000000000028
 50
128.85960966176199
 51
180.00000000000011
  0
ARC
  5
D6
  8
1
 62
     7
 10
157.75906187336301
 20
-0.0000000000000142
 30
0.0
 40
20.0
 50
359.99999999999972
 51
51.140390338237097
  0
ARC
  5
D7
  8
1
 62
     7
 10
176.8952685531238
 20
23.75
 30
0.0
 40
10.500113214388531
 50
188.85960966176489
 51
231.1403903382369
  0
ARC
  5
D8
  8
1
 62
     7
 10
2.0000000000000391
 20
36.505210595859133
 30
0.0
 40
5.999999999999968
 50
92.388015463268815
 51
180.0
  0
ARC
  5
D9
  8
1
 62
     7
 10
2.0000000000000391
 20
-36.5
 30
0.0
 40
5.9999999999999973
 50
180.0
 51
270.0
  0
ARC
  5
DA
  8
1
 62
     7
 10
-99.686174994834118
 20
36.505210595859133
 30
0.0
 40
5.999999999999968
 50
92.388015463268815
 51
180.0
  0
ARC
  5
DB
  8
1
 62
     7
 10
-99.686174994834118
 20
-36.5
 30
0.0
 40
5.9999999999999858
 50
180.0
 51
270.0
  0
ARC
  5
DC
  8
1
  6
DASHDOT
 62
     3
 10
135.75906187336301
 20
0.0000000000000071
 30
0.0
 40
29.99999999999994
 50
15.54616297704319
 51
45.224295511567107
  0
ARC
  5
DD
  8
1
  6
DASHDOT
 62
     3
 10
135.75906187336301
 20
0.0000000000000071
 30
0.0
 40
29.999999999999961
 50
254.33595262774011
 51
284.76173308191142
  0
ARC
  5
DE
  8
1
  6
DASHDOT
 62
     3
 10
135.75906187336301
 20
0.0000000000000071
 30
0.0
 40
30.000000000000071
 50
135.11332143414299
 51
165.86396474006449
  0
ARC
  5
DF
  8
1
 62
     7
 10
1.7097910175451601
 20
28.772028719949152
 30
0.0
 40
5.7162674087656278
 50
182.7276516887386
 51
262.86715198772941
  0
ARC
  5
E0
  8
1
 62
     7
 10
1.7097910175451601
 20
-28.772028719949208
 30
0.0
 40
5.7162674087656438
 50
97.132848012270429
 51
177.27234831126091
  0
ARC
  5
E1
  8
1
  6
DASHDOT
 62
     3
 10
135.75906187336301
 20
0.0000000000000071
 30
0.0
 40
48.999999999999993
 50
38.384121709001271
 51
51.811129328886139
  0
ARC
  5
E2
  8
1
  6
DASHDOT
 62
     3
 10
135.75906187336301
 20
0.0000000000000071
 30
0.0
 40
48.999999999999893
 50
308.38412170900102
 51
321.81112932888601
  0
ARC
  5
E3
  8
1
  6
DASHDOT
 62
     3
 10
135.75906187336301
 20
0.0000000000000071
 30
0.0
 40
49.000000000000107
 50
218.38412170900099
 51
231.8111293288859
  0
ARC
  5
E4
  8
1
  6
DASHDOT
 62
     3
 10
135.75906187336301
 20
0.0000000000000071
 30
0.0
 40
49.000000000000057
 50
128.38412170900131
 51
141.8111293288861
  0
ARC
  5
E5
  8
1
 62
     7
 10
135.75906187336301
 20
0.0000000000000071
 30
0.0
 40
55.000000000000092
 50
221.80184419314091
 51
228.19815580685881
  0
ARC
  5
E6
  8
1
 62
     7
 10
135.75906187336301
 20
0.0000000000000071
 30
0.0
 40
54.999999999999922
 50
311.80184419314088
 51
318.19815580685889
  0
ARC
  5
E7
  8
1
 62
     7
 10
135.75906187336301
 20
0.0000000000000071
 30
0.0
 40
55.0
 50
41.801844193141093
 51
48.198155806859027
  0
ARC
  5
E8
  8
1
 62
     7
 10
135.75906187336301
 20
0.0000000000000071
 30
0.0
 40
55.000000000000071
 50
131.80184419314119
 51
138.19815580685901
  0
ARC
  5
E9
  8
1
  6
DASHDOT
 62
     7
 10
135.75906187336301
 20
0.0000000000000071
 30
0.0
 40
29.999999999999961
 50
289.37464720820321
 51
290.60561885182511
  0
ARC
  5
EA
  8
1
 62
     7
 10
146.75906187336301
 20
19.05255888325766
 30
0.0
 40
20.000000000000028
 50
8.8596096617620645
 51
60.000000000000028
  0
ARC
  5
EB
  8
1
 62
     7
 10
145.47928189339899
 20
20.845079101842941
 30
0.0
 40
10.0
 50
326.88453331834751
 51
64.999999999999915
  0
ARC
  5
EC
  8
1
 62
     7
 10
135.75906187336301
 20
0.0000000000000071
 30
0.0
 40
23.749999999999901
 50
19.634993758230479
 51
40.365006241769727
  0
ARC
  5
ED
  8
1
 62
     7
 10
158.671539929473
 20
-2.0045820831961478
 30
0.0
 40
9.9999999999999378
 50
354.99999999999977
 51
93.11546668165272
  0
ARC
  5
EE
  8
1
 62
     7
 10
135.75906187336301
 20
0.0000000000000071
 30
0.0
 40
42.000000000000057
 50
299.99999999999989
 51
359.99999999999977
  0
ARC
  5
EF
  8
1
 62
     7
 10
135.75906187336301
 20
0.0000000000000071
 30
0.0
 40
32.999999999999943
 50
304.99999999999977
 51
354.99999999999977
  0
ARC
  5
F0
  8
1
 62
     7
 10
148.95131990943699
 20
-18.840497018646801
 30
0.0
 40
9.9999999999999964
 50
206.88453331834771
 51
305.00000000000023
  0
ARC
  5
F1
  8
1
 62
     7
 10
135.75906187336301
 20
0.0000000000000071
 30
0.0
 40
23.750000000000011
 50
259.63499375823011
 51
280.36500624176938
  0
ARC
  5
F2
  8
1
 62
     7
 10
122.5668038372887
 20
-18.840497018646801
 30
0.0
 40
9.9999999999999467
 50
235.0000000000002
 51
333.11546668165261
  0
ARC
  5
F3
  8
1
 62
     7
 10
135.75906187336301
 20
0.0000000000000071
 30
0.0
 40
42.000000000000057
 50
180.0
 51
239.99999999999989
  0
ARC
  5
F4
  8
1
 62
     7
 10
135.75906187336301
 20
0.0000000000000071
 30
0.0
 40
33.0
 50
185.0
 51
234.99999999999989
  0
ARC
  5
F5
  8
1
 62
     7
 10
112.84658381725269
 20
-2.0045820831961341
 30
0.0
 40
9.9999999999999964
 50
86.884533318347394
 51
185.0
  0
ARC
  5
F6
  8
1
 62
     7
 10
135.75906187336301
 20
0.0000000000000071
 30
0.0
 40
23.750000000000099
 50
139.63499375823051
 51
160.36500624176961
  0
ARC
  5
F7
  8
1
 62
     7
 10
135.75906187336301
 20
0.0000000000000071
 30
0.0
 40
32.99999999999995
 50
65.000000000000142
 51
115.0
  0
ARC
  5
F8
  8
1
 62
     7
 10
135.75906187336301
 20
0.0000000000000071
 30
0.0
 40
42.000000000000007
 50
60.000000000000021
 51
119.9999999999999
  0
ARC
  5
F9
  8
1
 62
     7
 10
126.0388418533269
 20
20.84507910184297
 30
0.0
 40
10.0
 50
115.0
 51
213.11546668165209
  0
CIRCLE
  5
FA
  8
1
 62
     7
 10
168.2350145152794
 20
-18.750000000000011
 30
0.0
 40
3.599999999999993
  0
CIRCLE
  5
FB
  8
1
 62
     7
 10
103.2831092314464
 20
-18.749999999999979
 30
0.0
 40
3.599999999999993
  0
CIRCLE
  5
FC
  8
1
 62
     7
 10
135.75906187336301
 20
0.0000000000000071
 30
0.0
 40
43.000000000000092
  0
CIRCLE
  5
FD
  8
1
 62
     7
 10
135.75906187336301
 20
37.5
 30
0.0
 40
3.5999999999998811
  0
CIRCLE
  5
FE
  8
1
 62
     7
 10
170.40729415150381
 20
34.648232278140817
 30
0.0
 40
2.75
  0
CIRCLE
  5
FF
  8
1
 62
     7
 10
170.40729415150381
 20
-34.648232278140817
 30
0.0
 40
2.75
  0
CIRCLE
  5
100
  8
1
 62
     7
 10
101.110829595222
 20
-34.648232278140817
 30
0.0
 40
2.75
  0
CIRCLE
  5
101
  8
1
 62
     7
 10
101.110829595222
 20
34.648232278140817
 30
0.0
 40
2.75
  0
CIRCLE
  5
102
  8
1
 62
     7
 10
161.739823986896
 20
15.0
 30
0.0
 40
5.5
  0
CIRCLE
  5
103
  8
1
 62
     7
 10
161.739823986896
 20
15.0
 30
0.0
 40
1.5
  0
CIRCLE
  5
104
  8
1
 62
     7
 10
161.739823986896
 20
15.0
 30
0.0
 40
2.0
  0
CIRCLE
  5
105
  8
1
 62
     7
 10
135.7590618733629
 20
-29.999999999999989
 30
0.0
 40
2.0
  0
CIRCLE
  5
106
  8
1
 62
     7
 10
135.7590618733629
 20
-29.999999999999989
 30
0.0
 40
1.5
  0
CIRCLE
  5
107
  8
1
 62
     7
 10
135.7590618733629
 20
-29.999999999999989
 30
0.0
 40
1.5
  0
CIRCLE
  5
108
  8
1
 62
     7
 10
135.7590618733629
 20
-29.999999999999989
 30
0.0
 40
5.5
  0
CIRCLE
  5
109
  8
1
 62
     7
 10
109.77829975982969
 20
15.0
 30
0.0
 40
1.5
  0
CIRCLE
  5
10A
  8
1
 62
     7
 10
109.77829975982969
 20
15.0
 30
0.0
 40
2.0
  0
CIRCLE
  5
10B
  8
1
 62
     7
 10
109.77829975982969
 20
15.0
 30
0.0
 40
5.5
  0
CIRCLE
  5
10C
  8
1
 62
     7
 10
135.75906187336301
 20
0.0000000000000071
 30
0.0
 40
22.5
  0
TEXT
  5
10E
  8
1
 62
     7
 10
-103.79237150961011
 20
101.33354449363669
 30
0.0
 40
3.5
  1
VBSH 1.2
 41
0.9
  7
SIMPLEX
  0
ENDSEC
  0
EOF
