  0
SECTION
  2
HEADER
  9
$ACADVER
  1
AC1009
  9
$INSBASE
 10
0
 20
0
  9
$EXTMIN
 10
-436.8233951010608
 20
-209.8601899863354
  9
$EXTMAX
 10
315.176604898939
 20
88.54152999038303
  9
$LIMMIN
 10
-436.8233951010608
 20
-209.8601899863354
  9
$LIMMAX
 10
315.176604898939
 20
88.54152999038303
  9
$VIEWCTR
 10
10
 20
10
  9
$VIEWSIZE
 40
10
  9
$SNAPMODE
 70
0
  9
$SNAPUNIT
 10
1
 20
1
  9
$SNAPBASE
 10
0
 20
0
  9
$SNAPANG
 50
0
  9
$SNAPSTYLE
 70
0
  9
$SNAPISOPAIR
 70
0
  9
$GRIDMODE
 70
0
  9
$GRIDUNIT
 10
0
 20
0
  9
$ORTHOMODE
 70
0
  9
$REGENMODE
 70
1
  9
$FILLMODE
 70
1
  9
$QTEXTMODE
 70
0
  9
$DRAGMODE
 70
2
  9
$LTSCALE
 40
1
  9
$OSMODE
 70
0
  9
$ATTMODE
 70
1
  9
$TEXTSIZE
 40
3.5
  9
$TRACEWID
 40
0.5
  9
$TEXTSTYLE
  7
STANDARD
  9
$CLAYER
  8
0
  9
$CELTYPE
  6
BYLAYER
  9
$CECOLOR
 62
256
  9
$DIMSCALE
 40
1
  9
$DIMASZ
 40
0.18
  9
$DIMEXO
 40
0.0625
  9
$DIMDLI
 40
0.38
  9
$DIMRND
 40
0
  9
$DIMDLE
 40
0
  9
$DIMEXE
 40
0.18
  9
$DIMTP
 40
0
  9
$DIMTM
 40
0
  9
$DIMTXT
 40
0.18
  9
$DIMCEN
 40
0.09
  9
$DIMTSZ
 40
0
  9
$DIMTOL
 70
0
  9
$DIMLIM
 70
0
  9
$DIMTIH
 70
1
  9
$DIMTOH
 70
1
  9
$DIMSE1
 70
0
  9
$DIMSE2
 70
0
  9
$DIMTAD
 70
0
  9
$DIMZIN
 70
0
  9
$DIMBLK
  1

  9
$DIMASO
 70
1
  9
$DIMSHO
 70
1
  9
$DIMPOST
  1

  9
$DIMAPOST
  1

  9
$DIMALT
 70
0
  9
$DIMALTD
 70
2
  9
$DIMALTF
 40
25.4
  9
$DIMLFAC
 40
1
  9
$DIMTOFL
 70
0
  9
$DIMTVP
 40
0
  9
$DIMTIX
 70
0
  9
$DIMSOXD
 70
0
  9
$DIMSAH
 70
0
  9
$DIMBLK1
  1

  9
$DIMBLK2
  1

  9
$DIMSTYLE
  2
*UNNAMED
  9
$DIMCLRD
 70
0
  9
$DIMCLRE
 70
0
  9
$DIMCLRT
 70
0
  9
$DIMTFAC
 40
1
  9
$DIMGAP
 40
0.09
  9
$LUNITS
 70
2
  9
$LUPREC
 70
4
  9
$AXISMODE
 70
0
  9
$AXISUNIT
 10
0
 20
0
  9
$SKETCHINC
 40
0.1
  9
$FILLETRAD
 40
2
  9
$AUNITS
 70
0
  9
$AUPREC
 70
0
  9
$MENU
  1
ACAD
  9
$ELEVATION
 40
0
  9
$THICKNESS
 40
0
  9
$VIEWDIR
 10
0
 20
0
 30
1
  9
$LIMCHECK
 70
0
  9
$BLIPMODE
 70
1
  9
$CHAMFERA
 40
0
  9
$CHAMFERB
 40
0
  9
$FASTZOOM
 70
1
  9
$SKPOLY
 70
0
  9
$ANGBASE
 50
0
  9
$ANGDIR
 70
0
  9
$PDMODE
 70
0
  9
$PDSIZE
 40
0
  9
$PLINEWID
 40
0
  9
$COORDS
 70
2
  0
ENDSEC
  0
SECTION
  2
TABLES
  0
TABLE
  2
DIMSTYLE
 70
0
  0
ENDTAB
  0
TABLE
  2
LTYPE
 70
9
  0
LTYPE
  2
CONTINUOUS
 70
64
  3
Solid line
 72
65
 73
0
 40
0
  0
LTYPE
  2
BORDER
 70
64
  3
__ __ . __ __ .
 72
65
 73
6
 40
34.63157894736841
 49
9.89473684210526
 49
-4.94736842105263
 49
9.89473684210526
 49
-4.94736842105263
 49
0
 49
-4.94736842105263
  0
LTYPE
  2
CENTER
 70
64
  3
____ _ ____ _
 72
65
 73
4
 40
39.57894736842104
 49
24.73684210526315
 49
-4.94736842105263
 49
4.94736842105263
 49
-4.94736842105263
  0
LTYPE
  2
DASHDOT
 70
64
  3
__ . __ . __ .
 72
65
 73
4
 40
19.78947368421052
 49
9.89473684210526
 49
-4.94736842105263
 49
0
 49
-4.94736842105263
  0
LTYPE
  2
DASHED
 70
64
  3
__ __ __ __ __
 72
65
 73
2
 40
14.84210526315789
 49
9.89473684210526
 49
-4.94736842105263
  0
LTYPE
  2
DIVIDE
 70
64
  3
__ . . __ . . 
 72
65
 73
6
 40
24.73684210526315
 49
9.89473684210526
 49
-4.94736842105263
 49
0
 49
-4.94736842105263
 49
0
 49
-4.94736842105263
  0
LTYPE
  2
DOT
 70
64
  3
..............
 72
65
 73
4
 40
9.89473684210526
 49
0
 49
-4.94736842105263
 49
0
 49
-4.94736842105263
  0
LTYPE
  2
HIDDEN
 70
64
  3
_ _ _ _ _ _ _
 72
65
 73
2
 40
7.421052631578945
 49
4.94736842105263
 49
-2.473684210526315
  0
LTYPE
  2
PHANTOM
 70
64
  3
_____ _ _ _____ _ _ 
 72
65
 73
6
 40
49.4736842105263
 49
24.73684210526315
 49
-4.94736842105263
 49
4.94736842105263
 49
-4.94736842105263
 49
4.94736842105263
 49
-4.94736842105263
  0
ENDTAB
  0
TABLE
  2
LAYER
 70
3
  0
LAYER
  2
0
 70
0
 62
7
  6
CONTINUOUS
  0
LAYER
  2
1
 70
0
 62
7
  6
CONTINUOUS
  0
ENDTAB
  0
TABLE
  2
STYLE
 70
4
  0
STYLE
  2
STANDARD
 70
0
 40
0
 41
1
 50
0
 71
0
 42
3.5
  3
txt
  4

  0
STYLE
  2
SIMPLEX
 70
0
 40
0
 41
1
 50
0
 71
0
 42
3.5
  3
simplex
  4

  0
STYLE
  2
COMPLEX
 70
0
 40
0
 41
1
 50
0
 71
0
 42
3.5
  3
complex
  4

  0
STYLE
  2
ITALIC
 70
0
 40
0
 41
1
 50
0
 71
0
 42
3.5
  3
italic
  4

  0
ENDTAB
  0
TABLE
  2
VIEW
 70
0
  0
ENDTAB
  0
ENDSEC
  0
SECTION
  2
BLOCKS
  0
BLOCK
  8
0
  2
TMC20FCA
 70
0
 10
765.742432219577
 20
-474.110414028898
 30
0
  0
LINE
  8
1
 62
7
 10
-336.3233951010608
 20
14.49797913867764
 30
0
 11
-336.3233951010608
 21
-6.360189986335399
 31
0
  0
LINE
  8
1
 62
7
 10
-312.3233951010608
 20
14.49797913867764
 30
0
 11
-312.3233951010608
 21
-6.360189986335399
 31
0
  0
ARC
  8
1
 62
7
 10
-324.3233951010608
 20
-6.360189986335399
 30
0
 40
12
 50
270
 51
0
  0
ARC
  8
1
 62
7
 10
-324.3233951010608
 20
-6.360189986335399
 30
0
 40
12
 50
180
 51
270
  0
ENDBLK
  8
0
  0
ENDSEC
  0
SECTION
  2
ENTITIES
  0
LINE
  8
1
 62
3
  6
DASHDOT
 10
202.6766048989392
 20
-163.8601899863354
 30
0
 11
202.6766048989392
 21
-190.592974484502
 31
0
  0
LINE
  8
1
 62
3
  6
DASHDOT
 10
202.6766048989392
 20
36.0081227394866
 30
0
 11
202.6766048989392
 21
21.0081227394866
 31
0
  0
LINE
  8
1
 62
3
  6
DASHDOT
 10
209.6766048989392
 20
-97.3601899863354
 30
0
 11
202.6766048989392
 21
-97.3601899863354
 31
0
  0
LINE
  8
1
 62
3
  6
DASHDOT
 10
202.6766048989392
 20
-104.3601899863354
 30
0
 11
202.6766048989392
 21
-97.3601899863354
 31
0
  0
LINE
  8
1
 62
3
  6
DASHDOT
 10
202.6766048989392
 20
-90.3601899863354
 30
0
 11
202.6766048989392
 21
-97.3601899863354
 31
0
  0
LINE
  8
1
 62
7
 10
246.4916843028768
 20
58.62569104177003
 30
0
 11
247.5361656105705
 21
62.52374834963885
 31
0
  0
LINE
  8
1
 62
7
 10
246.9538288533312
 20
62.66865996760043
 30
0
 11
245.9121288071034
 21
58.78098246883155
 31
0
  0
LINE
  8
1
 62
7
 10
245.33257331133
 20
58.93627389589306
 30
0
 11
246.3714920960918
 21
62.813571585562
 31
0
  0
LINE
  8
1
 62
7
 10
244.9156502029934
 20
63.17585063046597
 30
0
 11
243.8836845718963
 21
59.32450246354683
 31
0
  0
LINE
  8
1
 62
7
 10
243.3041290761229
 20
59.47979389060834
 30
0
 11
244.333313445754
 21
63.32076224842754
 31
0
  0
LINE
  8
1
 62
7
 10
243.7509766885147
 20
63.46567386638913
 30
0
 11
242.7245735803494
 21
59.63508531766986
 31
0
  0
LINE
  8
1
 62
7
 10
10.87902895027597
 20
-145.8601899863354
 30
0
 11
10.87902895027597
 21
-151.3601899863354
 31
0
  0
LINE
  8
1
 62
7
 10
14.27902895027566
 20
10.1398100136646
 30
0
 11
14.27902895027566
 21
-204.8601899863354
 31
0
  0
LINE
  8
1
 62
7
 10
14.27902895027566
 20
-102.3602702158683
 30
0
 11
23.67902895027578
 21
-102.3602702158683
 31
0
  0
LINE
  8
1
 62
7
 10
23.67902895027578
 20
-92.3602702158683
 30
0
 11
14.27902895027566
 21
-92.3602702158683
 31
0
  0
LINE
  8
1
 62
7
 10
-27.32097104972422
 20
-147.3601899863354
 30
0
 11
-30.32097104972414
 21
-147.3601899863354
 31
0
  0
LINE
  8
1
 62
7
 10
-24.32097104972422
 20
-143.1568233562036
 30
0
 11
-17.94597104972414
 21
-143.1568233562037
 31
0
  0
LINE
  8
1
 62
7
 10
-24.12097104972423
 20
-45.6101899863354
 30
0
 11
-27.32097104972422
 21
-45.6101899863354
 31
0
  0
LINE
  8
1
 62
7
 10
-30.32097104972414
 20
-117.3601899863354
 30
0
 11
13.67902895027586
 21
-117.3601899863354
 31
0
  0
LINE
  8
1
 62
7
 10
-30.32097104972414
 20
-74.06018998633527
 30
0
 11
13.67902895027586
 21
-74.06018998633527
 31
0
  0
LINE
  8
1
 62
7
 10
208.6766048989392
 20
-74.06018998633539
 30
0
 11
208.6766048989392
 21
-78.28140595799647
 31
0
  0
LINE
  8
1
 62
7
 10
196.6766048989392
 20
-74.06018998633539
 30
0
 11
208.6766048989392
 21
-74.06018998633539
 31
0
  0
LINE
  8
1
 62
7
 10
196.6766048989392
 20
-78.28140595799647
 30
0
 11
196.6766048989392
 21
-74.06018998633539
 31
0
  0
LINE
  8
1
 62
7
 10
23.67902895027578
 20
-97.3601899863354
 30
0
 11
23.67902895027578
 21
-203.8601899863354
 31
0
  0
LINE
  8
1
 62
7
 10
22.47902895027576
 20
-204.8601899863354
 30
0
 11
22.47902895027576
 21
-186.3601899863354
 31
0
  0
LINE
  8
1
 62
3
  6
DASHDOT
 10
35.27902895027569
 20
-97.3601899863354
 30
0
 11
25.27902895027566
 21
-97.3601899863354
 31
0
  0
LINE
  8
1
 62
7
 10
13.67902895027586
 20
-58.3601899863354
 30
0
 11
13.67902895027586
 21
-97.3601899863354
 31
0
  0
LINE
  8
1
 62
7
 10
13.67902895027586
 20
-78.28140595799647
 30
0
 11
-30.32097104972414
 21
-78.28140595799647
 31
0
  0
LINE
  8
1
 62
7
 10
-30.32097104972414
 20
-64.8601899863354
 30
0
 11
-30.32097104972414
 21
-97.3601899863354
 31
0
  0
LINE
  8
1
 62
7
 10
-17.94597104972414
 20
-60.65682335620369
 30
0
 11
-24.32097104972422
 21
-60.65682335620357
 31
0
  0
LINE
  8
1
 62
7
 10
-17.94597104972414
 20
-51.56355661646711
 30
0
 11
-24.32097104972422
 21
-51.56355661646711
 31
0
  0
LINE
  8
1
 62
7
 10
-3.320971049724136
 20
-142.3601899863354
 30
0
 11
-3.320971049724136
 21
-147.3601899863354
 31
0
  0
LINE
  8
1
 62
7
 10
1.179036947713968
 20
-147.3601899863354
 30
0
 11
1.179036947713968
 21
-154.3601899863354
 31
0
  0
LINE
  8
1
 62
7
 10
2.179028950275864
 20
-163.3601899863354
 30
0
 11
2.179028950275864
 21
-204.3601899863354
 31
0
  0
LINE
  8
1
 62
7
 10
-7.920971049723931
 20
-205.3601899863354
 30
0
 11
-7.920971049723931
 21
-209.8601899863354
 31
0
  0
LINE
  8
1
 62
7
 10
4.579028950276069
 20
-205.3601899863354
 30
0
 11
-7.920971049723931
 21
-205.3601899863354
 31
0
  0
LINE
  8
1
 62
7
 10
4.579028950276069
 20
-162.3601899863354
 30
0
 11
4.579028950276069
 21
-205.3601899863354
 31
0
  0
LINE
  8
1
 62
7
 10
-11.42097104972393
 20
-162.3601899863354
 30
0
 11
4.579028950276069
 21
-162.3601899863354
 31
0
  0
LINE
  8
1
 62
7
 10
-11.42097104972393
 20
-155.3601899863354
 30
0
 11
-11.42097104972393
 21
-162.3601899863354
 31
0
  0
LINE
  8
1
 62
7
 10
3.079036947714172
 20
-155.3601899863354
 30
0
 11
-11.42097104972393
 21
-155.3601899863354
 31
0
  0
LINE
  8
1
 62
7
 10
3.079036947714172
 20
-145.8601899863354
 30
0
 11
3.079036947714172
 21
-155.3601899863354
 31
0
  0
LINE
  8
1
 62
7
 10
-1.420971049723931
 20
-145.8601899863354
 30
0
 11
3.079036947714172
 21
-145.8601899863354
 31
0
  0
LINE
  8
1
 62
7
 10
-1.420971049723931
 20
-134.8601899863354
 30
0
 11
-1.420971049723931
 21
-145.8601899863354
 31
0
  0
LINE
  8
1
 62
7
 10
-6.320971049724136
 20
-134.8601899863354
 30
0
 11
-1.420971049723931
 21
-134.8601899863354
 31
0
  0
LINE
  8
1
 62
7
 10
7.70360246973317
 20
-209.8601899863354
 30
0
 11
-7.920971049723931
 21
-209.8601899863354
 31
0
  0
LINE
  8
1
 62
7
 10
10.87902895027597
 20
-204.3601899863354
 30
0
 11
7.70360246973317
 21
-209.8601899863354
 31
0
  0
LINE
  8
1
 62
7
 10
13.87902895027597
 20
-204.3601899863354
 30
0
 11
10.87902895027597
 21
-204.3601899863354
 31
0
  0
LINE
  8
1
 62
7
 10
10.87902895027597
 20
-151.3601899863354
 30
0
 11
13.87902895027597
 21
-151.3601899863354
 31
0
  0
LINE
  8
1
 62
7
 10
-6.320971049724136
 20
-143.1568233562036
 30
0
 11
-12.69597104972414
 21
-143.1568233562037
 31
0
  0
LINE
  8
1
 62
7
 10
-6.320971049724136
 20
-134.0635566164671
 30
0
 11
-12.69597104972414
 21
-134.0635566164671
 31
0
  0
LINE
  8
1
 62
7
 10
-8.120971049724034
 20
-143.8601899863354
 30
0
 11
-8.120971049724034
 21
-133.3601899863354
 31
0
  0
LINE
  8
1
 62
7
 10
-22.52097104972424
 20
-143.8601899863354
 30
0
 11
-22.52097104972424
 21
-133.3601899863354
 31
0
  0
LINE
  8
1
 62
7
 10
-22.52097104972424
 20
-61.3601899863354
 30
0
 11
-22.52097104972424
 21
-50.8601899863354
 31
0
  0
LINE
  8
1
 62
7
 10
-8.120971049724034
 20
-61.3601899863354
 30
0
 11
-8.120971049724034
 21
-50.8601899863354
 31
0
  0
LINE
  8
1
 62
7
 10
-12.69597104972414
 20
-60.65682335620369
 30
0
 11
-6.320971049724136
 21
-60.65682335620357
 31
0
  0
LINE
  8
1
 62
7
 10
-12.69597104972414
 20
-51.56355661646711
 30
0
 11
-6.320971049724136
 21
-51.56355661646711
 31
0
  0
LINE
  8
1
 62
7
 10
13.87902895027597
 20
9.639810013664601
 30
0
 11
13.87902895027597
 21
-43.3601899863354
 31
0
  0
LINE
  8
1
 62
7
 10
10.87902895027597
 20
-43.3601899863354
 30
0
 11
10.87902895027597
 21
-48.8601899863354
 31
0
  0
LINE
  8
1
 62
7
 10
13.87902895027597
 20
-43.3601899863354
 30
0
 11
10.87902895027597
 21
-43.3601899863354
 31
0
  0
LINE
  8
1
 62
7
 10
10.87902895027597
 20
9.639810013664601
 30
0
 11
13.87902895027597
 21
9.639810013664601
 31
0
  0
LINE
  8
1
 62
7
 10
7.70360246973317
 20
15.1398100136646
 30
0
 11
10.87902895027597
 21
9.639810013664601
 31
0
  0
LINE
  8
1
 62
7
 10
-7.920971049723931
 20
15.1398100136646
 30
0
 11
7.70360246973317
 21
15.1398100136646
 31
0
  0
LINE
  8
1
 62
7
 10
-1.420971049723931
 20
-59.8601899863354
 30
0
 11
-6.320971049724136
 21
-59.8601899863354
 31
0
  0
LINE
  8
1
 62
7
 10
-1.420971049723931
 20
-48.8601899863354
 30
0
 11
-1.420971049723931
 21
-59.8601899863354
 31
0
  0
LINE
  8
1
 62
7
 10
3.079036947714172
 20
-48.8601899863354
 30
0
 11
-1.420971049723931
 21
-48.8601899863354
 31
0
  0
LINE
  8
1
 62
7
 10
3.079036947714172
 20
-39.3601899863354
 30
0
 11
3.079036947714172
 21
-48.8601899863354
 31
0
  0
LINE
  8
1
 62
7
 10
-11.42097104972393
 20
-39.3601899863354
 30
0
 11
3.079036947714172
 21
-39.3601899863354
 31
0
  0
LINE
  8
1
 62
7
 10
-11.42097104972393
 20
-32.3601899863354
 30
0
 11
-11.42097104972393
 21
-39.3601899863354
 31
0
  0
LINE
  8
1
 62
7
 10
4.579028950276069
 20
-32.3601899863354
 30
0
 11
-11.42097104972393
 21
-32.3601899863354
 31
0
  0
LINE
  8
1
 62
7
 10
4.579028950276069
 20
10.6398100136646
 30
0
 11
4.579028950276069
 21
-32.3601899863354
 31
0
  0
LINE
  8
1
 62
7
 10
-7.920971049723931
 20
10.6398100136646
 30
0
 11
4.579028950276069
 21
10.6398100136646
 31
0
  0
LINE
  8
1
 62
7
 10
-7.920971049723931
 20
15.1398100136646
 30
0
 11
-7.920971049723931
 21
10.6398100136646
 31
0
  0
LINE
  8
1
 62
7
 10
2.179028950275864
 20
9.639810013664601
 30
0
 11
2.179028950275864
 21
-31.3601899863354
 31
0
  0
LINE
  8
1
 62
7
 10
-13.32097104972414
 20
-40.3601899863354
 30
0
 11
-13.32097104972414
 21
-34.3601899863354
 31
0
  0
LINE
  8
1
 62
7
 10
-13.32097104972414
 20
-40.3601899863354
 30
0
 11
1.179036947713968
 21
-40.3601899863354
 31
0
  0
LINE
  8
1
 62
7
 10
1.179036947713968
 20
-40.3601899863354
 30
0
 11
1.179036947713968
 21
-47.3601899863354
 31
0
  0
LINE
  8
1
 62
7
 10
-30.32097104972414
 20
-47.3601899863354
 30
0
 11
-27.32097104972422
 21
-47.3601899863354
 31
0
  0
LINE
  8
1
 62
7
 10
-6.320971049724136
 20
-52.3601899863354
 30
0
 11
-3.320971049724136
 21
-52.3601899863354
 31
0
  0
LINE
  8
1
 62
7
 10
-3.320971049724136
 20
-47.3601899863354
 30
0
 11
-3.320971049724136
 21
-56.48544094729266
 31
0
  0
LINE
  8
1
 62
7
 10
-3.320971049724136
 20
-47.3601899863354
 30
0
 11
1.179036947713968
 21
-47.3601899863354
 31
0
  0
LINE
  8
1
 62
7
 10
-30.32097104972414
 20
-201.3601899863354
 30
0
 11
-27.32097104972422
 21
-204.3601899863354
 31
0
  0
LINE
  8
1
 62
7
 10
1.179036947713968
 20
-147.3601899863354
 30
0
 11
-3.320971049724136
 21
-147.3601899863354
 31
0
  0
LINE
  8
1
 62
7
 10
-3.320971049724136
 20
-142.3601899863354
 30
0
 11
-6.320971049724136
 21
-142.3601899863354
 31
0
  0
LINE
  8
1
 62
7
 10
1.179036947713968
 20
-154.3601899863354
 30
0
 11
-13.32097104972414
 21
-154.3601899863354
 31
0
  0
LINE
  8
1
 62
7
 10
-13.32097104972414
 20
-160.3601899863354
 30
0
 11
-13.32097104972414
 21
-154.3601899863354
 31
0
  0
LINE
  8
1
 62
7
 10
-27.32097104972422
 20
-204.3601899863354
 30
0
 11
2.179028950275864
 21
-204.3601899863354
 31
0
  0
LINE
  8
1
 62
7
 10
-27.42097104972413
 20
-18.3601899863354
 30
0
 11
-30.32097104972414
 21
-18.3601899863354
 31
0
  0
LINE
  8
1
 62
7
 10
-27.42097104972413
 20
37.6398100136646
 30
0
 11
-27.42097104972413
 21
-18.3601899863354
 31
0
  0
LINE
  8
1
 62
3
  6
DASHDOT
 10
-31.98159779953744
 20
27.6398100136646
 30
0
 11
-25.16646691152303
 21
27.6398100136646
 31
0
  0
LINE
  8
1
 62
7
 10
-30.32097104972414
 20
37.6398100136646
 30
0
 11
-30.32097104972414
 21
-64.8601899863354
 31
0
  0
LINE
  8
1
 62
7
 10
-30.32097104972414
 20
37.6398100136646
 30
0
 11
-27.42097104972413
 21
37.6398100136646
 31
0
  0
LINE
  8
1
 62
7
 10
-30.32097104972414
 20
31.8898100136646
 30
0
 11
-27.42097104972413
 21
31.8898100136646
 31
0
  0
LINE
  8
1
 62
7
 10
-30.32097104972414
 20
23.3898100136646
 30
0
 11
-27.42097104972413
 21
23.3898100136646
 31
0
  0
LINE
  8
1
 62
7
 10
-27.32097104972422
 20
9.639810013664601
 30
0
 11
2.179028950275864
 21
9.639810013664601
 31
0
  0
LINE
  8
1
 62
7
 10
13.67902895027586
 20
-136.3601899863354
 30
0
 11
13.67902895027586
 21
-97.3601899863354
 31
0
  0
LINE
  8
1
 62
7
 10
192.3868521201216
 20
37.6398100136646
 30
0
 11
212.9052460038172
 21
37.6398100136646
 31
0
  0
LINE
  8
1
 62
7
 10
190.6766048989392
 20
35.83416036609305
 30
0
 11
190.6766048989392
 21
14.49797913867764
 31
0
  0
LINE
  8
1
 62
7
 10
241.9876135340361
 20
59.78249046054691
 30
0
 11
247.2286443491903
 21
58.47828589889269
 31
0
  0
LINE
  8
1
 62
7
 10
247.2286443491903
 20
58.47828589889269
 30
0
 11
234.3933602589979
 21
10.57635354471432
 31
0
  0
LINE
  8
1
 62
7
 10
241.9876135340361
 20
59.78249046054691
 30
0
 11
229.1773607970371
 21
11.97397638826794
 31
0
  0
LINE
  8
1
 62
7
 10
-18.38107445416713
 20
61.61021884767371
 30
0
 11
-18.38107445416713
 21
58.0604096857997
 31
0
  0
LINE
  8
1
 62
7
 10
-17.99326967480724
 20
61.61021884767371
 30
0
 11
-17.99326967480724
 21
58.0604096857997
 31
0
  0
LINE
  8
1
 62
7
 10
-16.94065670225913
 20
61.58251850629091
 30
0
 11
-16.94065670225913
 21
58.0604096857997
 31
0
  0
LINE
  8
1
 62
7
 10
-17.30076114023623
 20
61.61021884767371
 30
0
 11
-17.30076114023623
 21
58.0604096857997
 31
0
  0
LINE
  8
1
 62
7
 10
-16.30000273398483
 20
58.0604096857997
 30
0
 11
-16.30000273398483
 21
9.639810013664715
 31
0
  0
LINE
  8
1
 62
7
 10
-19.00000273398493
 20
58.0604096857997
 30
0
 11
-19.00000273398493
 21
9.639810013664715
 31
0
  0
LINE
  8
1
 62
7
 10
-19.00000273398493
 20
58.0604096857997
 30
0
 11
-16.30000273398483
 21
58.0604096857997
 31
0
  0
LINE
  8
1
 62
3
  6
DASHDOT
 10
121.934645057967
 20
-50.74379773725201
 30
0
 11
145.0859155472741
 21
-64.1101899863354
 31
0
  0
LINE
  8
1
 62
3
  6
DASHDOT
 10
260.2672942506044
 20
-64.1101899863354
 30
0
 11
283.4185647399116
 21
-50.74379773725207
 31
0
  0
LINE
  8
1
 62
7
 10
14.27902895027566
 20
10.1398100136646
 30
0
 11
22.47902895027576
 21
10.1398100136646
 31
0
  0
LINE
  8
1
 62
7
 10
22.47902895027576
 20
10.1398100136646
 30
0
 11
22.47902895027576
 21
3.639810013664601
 31
0
  0
LINE
  8
1
 62
7
 10
22.47902895027576
 20
-18.3601899863354
 30
0
 11
23.67902895027578
 21
-18.3601899863354
 31
0
  0
LINE
  8
1
 62
7
 10
23.67902895027578
 20
-18.3601899863354
 30
0
 11
23.67902895027578
 21
-97.3601899863354
 31
0
  0
LINE
  8
1
 62
7
 10
14.27902895027566
 20
-43.8601899863354
 30
0
 11
23.67902895027578
 21
-43.8601899863354
 31
0
  0
LINE
  8
1
 62
7
 10
22.47902895027576
 20
9.139810013664601
 30
0
 11
24.07902895027567
 21
9.139810013664601
 31
0
  0
LINE
  8
1
 62
7
 10
25.27902895027566
 20
-18.3601899863354
 30
0
 11
25.27902895027566
 21
-97.3601899863354
 31
0
  0
LINE
  8
1
 62
7
 10
22.47902895027576
 20
-13.88172901725278
 30
0
 11
23.67902895027578
 21
-18.3601899863354
 31
0
  0
LINE
  8
1
 62
7
 10
24.07902895027567
 20
9.139810013664601
 30
0
 11
24.07902895027567
 21
-13.73173577239516
 31
0
  0
LINE
  8
1
 62
7
 10
24.07902895027567
 20
-13.73173577239516
 30
0
 11
25.27902895027566
 21
-18.3601899863354
 31
0
  0
LINE
  8
1
 62
7
 10
22.47902895027576
 20
-11.8601899863354
 30
0
 11
24.07902895027567
 21
-11.8601899863354
 31
0
  0
LINE
  8
1
 62
7
 10
14.27902895027566
 20
8.639810013664601
 30
0
 11
19.27902895027566
 21
3.639810013664601
 31
0
  0
LINE
  8
1
 62
7
 10
19.27902895027566
 20
3.639810013664601
 30
0
 11
19.27902895027566
 21
-6.360189986335399
 31
0
  0
LINE
  8
1
 62
7
 10
19.27902895027566
 20
-6.360189986335399
 30
0
 11
14.27902895027566
 21
-11.3601899863354
 31
0
  0
LINE
  8
1
 62
7
 10
19.27902895027566
 20
-6.360189986335399
 30
0
 11
24.07902895027567
 21
-6.360189986335399
 31
0
  0
LINE
  8
1
 62
7
 10
19.27902895027566
 20
3.639810013664601
 30
0
 11
24.07902895027567
 21
3.639810013664601
 31
0
  0
LINE
  8
1
 62
7
 10
24.07902895027567
 20
6.639810013664601
 30
0
 11
27.87902895027568
 21
6.639810013664601
 31
0
  0
LINE
  8
1
 62
7
 10
28.87902895027568
 20
5.639810013664601
 30
0
 11
28.87902895027568
 21
-8.360189986335399
 31
0
  0
LINE
  8
1
 62
7
 10
24.07902895027567
 20
-9.360189986335399
 30
0
 11
27.87902895027568
 21
-9.360189986335399
 31
0
  0
LINE
  8
1
 62
7
 10
25.07902895027567
 20
6.639810013664601
 30
0
 11
25.07902895027567
 21
-9.360189986335399
 31
0
  0
LINE
  8
1
 62
7
 10
22.47902895027576
 20
-6.360189986335399
 30
0
 11
22.47902895027576
 21
-18.3601899863354
 31
0
  0
LINE
  8
1
 62
7
 10
28.87902895027568
 20
5.639810013664601
 30
0
 11
27.87902895027568
 21
6.639810013664601
 31
0
  0
LINE
  8
1
 62
7
 10
27.87902895027568
 20
-9.360189986335399
 30
0
 11
28.87902895027568
 21
-8.360189986335399
 31
0
  0
LINE
  8
1
 62
7
 10
25.27902895027566
 20
-97.3601899863354
 30
0
 11
25.27902895027566
 21
-171.3601899863354
 31
0
  0
LINE
  8
1
 62
7
 10
23.67902895027578
 20
-150.8601899863354
 30
0
 11
14.27902895027566
 21
-150.8601899863354
 31
0
  0
LINE
  8
1
 62
7
 10
22.47902895027576
 20
-204.8601899863354
 30
0
 11
14.27902895027566
 21
-204.8601899863354
 31
0
  0
LINE
  8
1
 62
7
 10
23.67902895027578
 20
-203.8601899863354
 30
0
 11
25.27902895027566
 21
-203.8601899863354
 31
0
  0
LINE
  8
1
 62
7
 10
14.27902895027566
 20
-166.3601899863354
 30
0
 11
23.67902895027578
 21
-166.3601899863354
 31
0
  0
LINE
  8
1
 62
7
 10
14.27902895027566
 20
-186.3601899863354
 30
0
 11
22.47902895027576
 21
-186.3601899863354
 31
0
  0
LINE
  8
1
 62
7
 10
25.27902895027566
 20
-166.8601899863354
 30
0
 11
30.17902895027578
 21
-166.8601899863354
 31
0
  0
LINE
  8
1
 62
7
 10
30.17902895027578
 20
-166.8601899863354
 30
0
 11
30.17902895027578
 21
-171.3601899863354
 31
0
  0
LINE
  8
1
 62
7
 10
30.17902895027578
 20
-181.3601899863354
 30
0
 11
30.17902895027578
 21
-185.8601899863354
 31
0
  0
LINE
  8
1
 62
7
 10
30.17902895027578
 20
-185.8601899863354
 30
0
 11
25.27902895027566
 21
-185.8601899863354
 31
0
  0
LINE
  8
1
 62
7
 10
25.27902895027566
 20
-181.3601899863354
 30
0
 11
25.27902895027566
 21
-203.8601899863354
 31
0
  0
LINE
  8
1
 62
3
  6
DASHDOT
 10
8.864028950275582
 20
-176.3601899863354
 30
0
 11
51.85274135548735
 21
-176.3601899863354
 31
0
  0
LINE
  8
1
 62
7
 10
23.67902895027558
 20
-163.8601899863354
 30
0
 11
25.27902895027566
 21
-163.8601899863354
 31
0
  0
LINE
  8
1
 62
7
 10
23.67902895027578
 20
-190.592974484502
 30
0
 11
25.27902895027566
 21
-190.592974484502
 31
0
  0
LINE
  8
1
 62
7
 10
214.6766048989392
 20
14.49797913867764
 30
0
 11
214.6766048989392
 21
35.74512818934852
 31
0
  0
LINE
  8
1
 62
3
  6
DASHDOT
 10
209.9266048989392
 20
27.6398100136646
 30
0
 11
195.4266048989392
 21
27.6398100136646
 31
0
  0
LINE
  8
1
 62
3
  6
DASHDOT
 10
202.6766048989392
 20
-97.3601899863354
 30
0
 11
195.6766048989392
 21
-97.3601899863354
 31
0
  0
LINE
  8
1
 62
7
 10
244.6081289416131
 20
59.13038817971994
 30
0
 11
231.7937474729728
 21
11.30646547118471
 31
0
  0
LINE
  8
1
 62
7
 10
23.67902895027578
 20
-184.3601899863354
 30
0
 11
22.67902895027578
 21
-184.3601899863354
 31
0
  0
LINE
  8
1
 62
7
 10
22.67902895027578
 20
-168.3601899863354
 30
0
 11
23.67902895027578
 21
-168.3601899863354
 31
0
  0
LINE
  8
1
 62
7
 10
22.67902895027578
 20
-167.3601899863354
 30
0
 11
21.87902895027568
 21
-167.3601899863354
 31
0
  0
LINE
  8
1
 62
7
 10
21.87902895027568
 20
-167.3601899863354
 30
0
 11
21.87902895027568
 21
-185.3601899863354
 31
0
  0
LINE
  8
1
 62
7
 10
21.87902895027568
 20
-185.3601899863354
 30
0
 11
22.67902895027578
 21
-185.3601899863354
 31
0
  0
LINE
  8
1
 62
7
 10
22.67902895027578
 20
-185.3601899863354
 30
0
 11
22.67902895027578
 21
-167.3601899863354
 31
0
  0
LINE
  8
1
 62
7
 10
16.47902895027576
 20
-171.3601899863354
 30
0
 11
16.47902895027576
 21
-181.3601899863354
 31
0
  0
LINE
  8
1
 62
7
 10
46.67902895027578
 20
-171.3601899863353
 30
0
 11
47.67902895027578
 21
-172.3601899863353
 31
0
  0
LINE
  8
1
 62
7
 10
47.67902895027578
 20
-172.3601899863353
 30
0
 11
47.67902895027578
 21
-180.3601899863353
 31
0
  0
LINE
  8
1
 62
7
 10
47.67902895027578
 20
-180.3601899863353
 30
0
 11
46.67902895027578
 21
-181.3601899863353
 31
0
  0
LINE
  8
1
 62
7
 10
46.67902895027578
 20
-181.3601899863353
 30
0
 11
23.67902895027578
 21
-181.3601899863354
 31
0
  0
LINE
  8
1
 62
7
 10
46.67902895027578
 20
-171.3601899863353
 30
0
 11
46.67902895027578
 21
-181.3601899863353
 31
0
  0
LINE
  8
1
 62
3
 10
47.67902895027578
 20
-172.3601899863353
 30
0
 11
24.91107975784448
 21
-172.3601899863354
 31
0
  0
LINE
  8
1
 62
3
 10
24.91107975784448
 20
-172.3601899863354
 30
0
 11
23.67902895027578
 21
-171.6488651209302
 31
0
  0
LINE
  8
1
 62
3
 10
47.67902895027578
 20
-180.3601899863353
 30
0
 11
24.91107975784448
 21
-180.3601899863354
 31
0
  0
LINE
  8
1
 62
3
 10
24.91107975784448
 20
-180.3601899863354
 30
0
 11
23.67902895027578
 21
-181.0715148517406
 31
0
  0
LINE
  8
1
 62
3
 10
24.91107975784448
 20
-171.3601899863354
 30
0
 11
24.91107975784448
 21
-181.3601899863354
 31
0
  0
LINE
  8
1
 62
7
 10
23.67902895027578
 20
-171.3601899863354
 30
0
 11
46.67902895027578
 21
-171.3601899863353
 31
0
  0
LINE
  8
1
 62
7
 10
-6.320971049724136
 20
-47.3601899863354
 30
0
 11
-6.320971049724136
 21
-64.8601899863354
 31
0
  0
LINE
  8
1
 62
7
 10
-6.320971049724136
 20
-47.3601899863354
 30
0
 11
-24.12097104972423
 21
-47.3601899863354
 31
0
  0
LINE
  8
1
 62
7
 10
-6.320971049724136
 20
-64.8601899863354
 30
0
 11
-24.12097104972423
 21
-64.8601899863354
 31
0
  0
LINE
  8
1
 62
7
 10
-6.320971049724136
 20
-129.8601899863354
 30
0
 11
-24.12097104972423
 21
-129.8601899863355
 31
0
  0
LINE
  8
1
 62
7
 10
-6.320971049724136
 20
-129.8601899863354
 30
0
 11
-6.320971049724136
 21
-147.3601899863354
 31
0
  0
LINE
  8
1
 62
7
 10
-6.320971049724136
 20
-147.3601899863354
 30
0
 11
-24.12097104972423
 21
-147.3601899863355
 31
0
  0
LINE
  8
1
 62
7
 10
-3.320971049724136
 20
-142.3601899863354
 30
0
 11
-3.320971049724136
 21
-138.234939025378
 31
0
  0
LINE
  8
1
 62
7
 10
-30.32097104972414
 20
-201.3601899863354
 30
0
 11
-30.32097104972414
 21
-97.3601899863354
 31
0
  0
LINE
  8
1
 62
7
 10
13.87902895027597
 20
-204.3601899863354
 30
0
 11
13.87902895027597
 21
-151.3601899863354
 31
0
  0
LINE
  8
1
 62
7
 10
260.1311008005274
 20
-7.845306676587484
 30
0
 11
260.6982333785329
 21
-6.863004236854806
 31
0
  0
LINE
  8
1
 62
7
 10
251.5374143527235
 20
-2.730008228499969
 30
0
 11
252.0379612447101
 21
-1.863035580008557
 31
0
  0
LINE
  8
1
 62
7
 10
96.4271939851039
 20
-92.36057862880506
 30
0
 11
95.2929288290932
 21
-92.36057862880477
 31
0
  0
LINE
  8
1
 62
7
 10
96.294058805023
 20
-102.3605786288049
 30
0
 11
95.2929650210498
 21
-102.360578628805
 31
0
  0
LINE
  8
1
 62
7
 10
251.4715199111864
 20
-191.8746846536136
 30
0
 11
252.0386524891916
 21
-192.8569870933464
 31
0
  0
LINE
  8
1
 62
7
 10
260.1983415390712
 20
-186.9899831017011
 30
0
 11
260.6988884310578
 21
-187.8569557501925
 31
0
  0
LINE
  8
1
 62
7
 10
282.5197069260843
 20
-102.3602702158684
 30
0
 11
255.9424400815235
 21
-102.3602702158684
 31
0
  0
LINE
  8
1
 62
7
 10
118.7957295237049
 20
-92.3602702158683
 30
0
 11
122.832512699371
 21
-92.3602702158683
 31
0
  0
LINE
  8
1
 62
7
 10
122.832512699371
 20
-102.3602702158683
 30
0
 11
117.378616312613
 21
-102.3602702158683
 31
0
  0
LINE
  8
1
 62
7
 10
246.9280353883281
 20
-164.0068536455651
 30
0
 11
249.6549835817071
 21
-168.7300664661058
 31
0
  0
LINE
  8
1
 62
7
 10
240.2861729383168
 20
-172.5028104252617
 30
0
 11
238.2677813504837
 21
-169.0068536455651
 31
0
  0
LINE
  8
1
 62
7
 10
238.2677813504839
 20
-25.71368678617171
 30
0
 11
240.994729543863
 21
-20.99047396563111
 31
0
  0
LINE
  8
1
 62
7
 10
248.9464269761614
 20
-27.21773000647517
 30
0
 11
246.9280353883283
 21
-30.71368678617171
 31
0
  0
LINE
  8
1
 62
7
 10
255.9424551436213
 20
-92.36027021586835
 30
0
 11
282.5197069260843
 21
-92.36027021586835
 31
0
  0
LINE
  8
1
 62
7
 10
171.7136222384899
 20
-53.73057040549656
 30
0
 11
158.4249963472583
 21
-30.71399519910841
 31
0
  0
LINE
  8
1
 62
7
 10
167.0852503851028
 20
-25.71399519910841
 30
0
 11
180.3738838073831
 21
-48.73058344965597
 31
0
  0
LINE
  8
1
 62
7
 10
158.4248573856307
 20
-164.0063045440292
 30
0
 11
171.7134908079112
 21
-140.9897162934817
 31
0
  0
LINE
  8
1
 62
7
 10
180.3737373147066
 20
-145.989729337641
 30
0
 11
167.085111423475
 21
-169.0063045440292
 31
0
  0
LINE
  8
1
 62
7
 10
-24.32097104972422
 20
-134.0635566164671
 30
0
 11
-17.94597104972414
 21
-134.0635566164671
 31
0
  0
LINE
  8
1
 62
7
 10
-13.32097104972414
 20
-34.3601899863354
 30
0
 11
-13.32097104972414
 21
-31.3601899863354
 31
0
  0
LINE
  8
1
 62
7
 10
-13.32097104972414
 20
-31.3601899863354
 30
0
 11
2.179028950275864
 21
-31.3601899863354
 31
0
  0
LINE
  8
1
 62
7
 10
2.179028950275864
 20
-163.3601899863354
 30
0
 11
-13.32097104972414
 21
-163.3601899863354
 31
0
  0
LINE
  8
1
 62
7
 10
-13.32097104972414
 20
-160.3601899863354
 30
0
 11
-13.32097104972414
 21
-163.3601899863354
 31
0
  0
LINE
  8
1
 62
7
 10
10.87902895027597
 20
-48.8601899863354
 30
0
 11
13.67902895027586
 21
-51.6601899863353
 31
0
  0
LINE
  8
1
 62
7
 10
13.67902895027586
 20
-51.6601899863353
 30
0
 11
13.67902895027586
 21
-58.3601899863354
 31
0
  0
LINE
  8
1
 62
7
 10
13.67902895027586
 20
-143.0601899863355
 30
0
 11
10.87902895027597
 21
-145.8601899863354
 31
0
  0
LINE
  8
1
 62
7
 10
13.67902895027586
 20
-143.0601899863355
 30
0
 11
13.67902895027586
 21
-136.3601899863354
 31
0
  0
LINE
  8
1
 62
7
 10
-26.82097104972422
 20
-64.8601899863354
 30
0
 11
-26.82097104972422
 21
-66.3601899863354
 31
0
  0
LINE
  8
1
 62
7
 10
-26.82097104972422
 20
-66.3601899863354
 30
0
 11
-24.12097104972423
 21
-66.3601899863354
 31
0
  0
LINE
  8
1
 62
7
 10
-24.12097104972423
 20
-66.3601899863354
 30
0
 11
-24.12097104972423
 21
-64.8601899863354
 31
0
  0
LINE
  8
1
 62
7
 10
-26.82097104972422
 20
-64.8601899863354
 30
0
 11
-30.32097104972414
 21
-64.8601899863354
 31
0
  0
LINE
  8
1
 62
7
 10
-24.32097104972422
 20
-49.46018998633531
 30
0
 11
-24.32097104972422
 21
-62.76018998633538
 31
0
  0
LINE
  8
1
 62
7
 10
-24.12097104972423
 20
-45.6101899863354
 30
0
 11
-24.12097104972423
 21
-47.3601899863354
 31
0
  0
LINE
  8
1
 62
7
 10
-24.32097104972422
 20
-131.9601899863354
 30
0
 11
-24.32097104972422
 21
-145.2601899863354
 31
0
  0
LINE
  8
1
 62
7
 10
-27.32097104972422
 20
-45.6101899863354
 30
0
 11
-27.32097104972422
 21
-47.3601899863354
 31
0
  0
LINE
  8
1
 62
7
 10
-24.12097104972423
 20
-147.3601899863355
 30
0
 11
-24.12097104972423
 21
-149.1101899863355
 31
0
  0
LINE
  8
1
 62
7
 10
-27.32097104972422
 20
-147.3601899863354
 30
0
 11
-27.32097104972422
 21
-149.1101899863355
 31
0
  0
LINE
  8
1
 62
7
 10
-24.12097104972423
 20
-129.8601899863355
 30
0
 11
-24.12097104972423
 21
-128.3601899863355
 31
0
  0
LINE
  8
1
 62
7
 10
-27.32097104972422
 20
-149.1101899863355
 30
0
 11
-24.12097104972423
 21
-149.1101899863355
 31
0
  0
LINE
  8
1
 62
7
 10
-24.12097104972423
 20
-128.3601899863355
 30
0
 11
-26.82097104972422
 21
-128.3601899863354
 31
0
  0
LINE
  8
1
 62
7
 10
-26.82097104972422
 20
-128.3601899863354
 30
0
 11
-26.82097104972422
 21
-129.8601899863354
 31
0
  0
LINE
  8
1
 62
7
 10
-26.82097104972422
 20
-129.8601899863354
 30
0
 11
-30.32097104972414
 21
-129.8601899863354
 31
0
  0
LINE
  8
1
 62
7
 10
-17.64976114023623
 20
61.61021884767371
 30
0
 11
-17.64976114023623
 21
58.0604096857997
 31
0
  0
LINE
  8
1
 62
3
  6
DASHDOT
 10
-30.32097104972414
 20
-97.3601899863354
 30
0
 11
-40.32097104972412
 21
-97.3601899863354
 31
0
  0
LINE
  8
1
 62
7
 10
-27.32097104972422
 20
-64.8601899863354
 30
0
 11
-27.32097104972422
 21
-45.6101899863354
 31
0
  0
LINE
  8
1
 62
7
 10
-24.32097104972422
 20
-53.91018998633541
 30
0
 11
-27.32097104972422
 21
-53.91018998633541
 31
0
  0
LINE
  8
1
 62
7
 10
-24.32097104972422
 20
-45.6101899863354
 30
0
 11
-24.32097104972422
 21
-66.3601899863354
 31
0
  0
LINE
  8
1
 62
7
 10
-27.32097104972422
 20
-45.6101899863354
 30
0
 11
-24.32097104972422
 21
-45.6101899863354
 31
0
  0
LINE
  8
1
 62
7
 10
-26.82097104972422
 20
-66.3601899863354
 30
0
 11
-26.82097104972422
 21
-59.96018998633537
 31
0
  0
LINE
  8
1
 62
7
 10
-24.32097104972422
 20
-66.3601899863354
 30
0
 11
-26.82097104972422
 21
-66.3601899863354
 31
0
  0
LINE
  8
1
 62
7
 10
-24.32097104972422
 20
-59.96018998633537
 30
0
 11
-24.32097104972422
 21
-66.3601899863354
 31
0
  0
LINE
  8
1
 62
7
 10
-26.82097104972422
 20
-59.96018998633537
 30
0
 11
-24.32097104972422
 21
-59.96018998633537
 31
0
  0
LINE
  8
1
 62
7
 10
-24.32097104972422
 20
-134.7601899863354
 30
0
 11
-26.82097104972422
 21
-134.7601899863354
 31
0
  0
LINE
  8
1
 62
7
 10
-24.32097104972422
 20
-128.3601899863354
 30
0
 11
-24.32097104972422
 21
-134.7601899863354
 31
0
  0
LINE
  8
1
 62
7
 10
-26.82097104972422
 20
-128.3601899863354
 30
0
 11
-24.32097104972422
 21
-128.3601899863354
 31
0
  0
LINE
  8
1
 62
7
 10
-26.82097104972422
 20
-134.7601899863354
 30
0
 11
-26.82097104972422
 21
-128.3601899863354
 31
0
  0
LINE
  8
1
 62
7
 10
-24.32097104972422
 20
-149.1101899863354
 30
0
 11
-27.32097104972422
 21
-149.1101899863355
 31
0
  0
LINE
  8
1
 62
7
 10
-24.32097104972422
 20
-128.3601899863354
 30
0
 11
-24.32097104972422
 21
-149.1101899863354
 31
0
  0
LINE
  8
1
 62
7
 10
-27.32097104972422
 20
-140.8101899863354
 30
0
 11
-24.32097104972422
 21
-140.8101899863354
 31
0
  0
LINE
  8
1
 62
7
 10
-27.32097104972422
 20
-149.1101899863355
 30
0
 11
-27.32097104972422
 21
-129.8601899863354
 31
0
  0
LINE
  8
1
 62
7
 10
-104.120971049724
 20
-145.8601899863354
 30
0
 11
-104.120971049724
 21
-151.3601899863354
 31
0
  0
LINE
  8
1
 62
7
 10
-100.7209710497243
 20
10.1398100136646
 30
0
 11
-100.7209710497243
 21
-204.8601899863354
 31
0
  0
LINE
  8
1
 62
7
 10
-91.32097104972422
 20
-97.3601899863354
 30
0
 11
-91.32097104972422
 21
-203.8601899863354
 31
0
  0
LINE
  8
1
 62
7
 10
-92.52097104972424
 20
-204.8601899863354
 30
0
 11
-92.52097104972424
 21
-176.3601899863354
 31
0
  0
LINE
  8
1
 62
3
  6
DASHDOT
 10
-79.72097104972431
 20
-97.3601899863354
 30
0
 11
-89.72097104972434
 21
-97.3601899863354
 31
0
  0
LINE
  8
1
 62
7
 10
-145.3209710497241
 20
-64.8601899863354
 30
0
 11
-145.3209710497241
 21
-97.3601899863354
 31
0
  0
LINE
  8
1
 62
7
 10
-107.2963975302668
 20
-209.8601899863354
 30
0
 11
-122.9209710497239
 21
-209.8601899863354
 31
0
  0
LINE
  8
1
 62
7
 10
-104.120971049724
 20
-204.3601899863354
 30
0
 11
-107.2963975302668
 21
-209.8601899863354
 31
0
  0
LINE
  8
1
 62
7
 10
-101.120971049724
 20
-204.3601899863354
 30
0
 11
-104.120971049724
 21
-204.3601899863354
 31
0
  0
LINE
  8
1
 62
7
 10
-104.120971049724
 20
-43.3601899863354
 30
0
 11
-104.120971049724
 21
-48.8601899863354
 31
0
  0
LINE
  8
1
 62
7
 10
-104.120971049724
 20
9.639810013664601
 30
0
 11
-101.120971049724
 21
9.639810013664601
 31
0
  0
LINE
  8
1
 62
7
 10
-107.2963975302668
 20
15.1398100136646
 30
0
 11
-104.120971049724
 21
9.639810013664601
 31
0
  0
LINE
  8
1
 62
7
 10
-122.9209710497239
 20
15.1398100136646
 30
0
 11
-107.2963975302668
 21
15.1398100136646
 31
0
  0
LINE
  8
1
 62
7
 10
-145.3209710497241
 20
-201.3601899863354
 30
0
 11
-142.3209710497242
 21
-204.3601899863354
 31
0
  0
LINE
  8
1
 62
7
 10
-142.3209710497242
 20
-204.3601899863354
 30
0
 11
-122.9209710497239
 21
-204.3601899863354
 31
0
  0
LINE
  8
1
 62
7
 10
-142.4209710497241
 20
37.6398100136646
 30
0
 11
-142.4209710497241
 21
9.539810013664688
 31
0
  0
LINE
  8
1
 62
3
  6
DASHDOT
 10
-146.9815977995374
 20
27.6398100136646
 30
0
 11
-140.166466911523
 21
27.6398100136646
 31
0
  0
LINE
  8
1
 62
7
 10
-145.3209710497241
 20
37.6398100136646
 30
0
 11
-145.3209710497241
 21
-64.8601899863354
 31
0
  0
LINE
  8
1
 62
7
 10
-145.3209710497241
 20
37.6398100136646
 30
0
 11
-142.4209710497241
 21
37.6398100136646
 31
0
  0
LINE
  8
1
 62
7
 10
-142.3209710497242
 20
9.639810013664601
 30
0
 11
-122.9209710497239
 21
9.639810013664601
 31
0
  0
LINE
  8
1
 62
7
 10
-133.3810744541671
 20
61.61021884767371
 30
0
 11
-133.3810744541671
 21
58.0604096857997
 31
0
  0
LINE
  8
1
 62
7
 10
-132.9932696748072
 20
61.61021884767371
 30
0
 11
-132.9932696748072
 21
58.0604096857997
 31
0
  0
LINE
  8
1
 62
7
 10
-131.9406567022591
 20
61.58251850629091
 30
0
 11
-131.9406567022591
 21
58.0604096857997
 31
0
  0
LINE
  8
1
 62
7
 10
-132.3007611402362
 20
61.61021884767371
 30
0
 11
-132.3007611402362
 21
58.0604096857997
 31
0
  0
LINE
  8
1
 62
7
 10
-131.3000027339848
 20
58.0604096857997
 30
0
 11
-131.3000027339848
 21
9.639810013664715
 31
0
  0
LINE
  8
1
 62
7
 10
-134.0000027339849
 20
58.0604096857997
 30
0
 11
-134.0000027339849
 21
9.639810013664715
 31
0
  0
LINE
  8
1
 62
7
 10
-134.0000027339849
 20
58.0604096857997
 30
0
 11
-131.3000027339848
 21
58.0604096857997
 31
0
  0
LINE
  8
1
 62
7
 10
-100.7209710497243
 20
10.1398100136646
 30
0
 11
-92.52097104972424
 21
10.1398100136646
 31
0
  0
LINE
  8
1
 62
7
 10
-92.52097104972424
 20
-18.3601899863354
 30
0
 11
-91.32097104972422
 21
-18.3601899863354
 31
0
  0
LINE
  8
1
 62
7
 10
-91.32097104972422
 20
-18.3601899863354
 30
0
 11
-91.32097104972422
 21
-97.3601899863354
 31
0
  0
LINE
  8
1
 62
7
 10
-92.52097104972424
 20
9.139810013664601
 30
0
 11
-90.92097104972433
 21
9.139810013664601
 31
0
  0
LINE
  8
1
 62
7
 10
-89.72097104972434
 20
-18.3601899863354
 30
0
 11
-89.72097104972434
 21
-97.3601899863354
 31
0
  0
LINE
  8
1
 62
7
 10
-92.52097104972424
 20
-13.88172901725278
 30
0
 11
-91.32097104972422
 21
-18.3601899863354
 31
0
  0
LINE
  8
1
 62
7
 10
-90.92097104972433
 20
9.139810013664601
 30
0
 11
-90.92097104972433
 21
-13.73173577239516
 31
0
  0
LINE
  8
1
 62
7
 10
-90.92097104972433
 20
-13.73173577239516
 30
0
 11
-89.72097104972434
 21
-18.3601899863354
 31
0
  0
LINE
  8
1
 62
7
 10
-92.52097104972424
 20
-11.8601899863354
 30
0
 11
-90.92097104972433
 21
-11.8601899863354
 31
0
  0
LINE
  8
1
 62
7
 10
-90.92097104972433
 20
6.639810013664601
 30
0
 11
-87.12097104972432
 21
6.639810013664601
 31
0
  0
LINE
  8
1
 62
7
 10
-86.12097104972432
 20
5.639810013664601
 30
0
 11
-86.12097104972432
 21
-8.360189986335399
 31
0
  0
LINE
  8
1
 62
7
 10
-90.92097104972433
 20
-9.360189986335399
 30
0
 11
-87.12097104972432
 21
-9.360189986335399
 31
0
  0
LINE
  8
1
 62
7
 10
-89.92097104972433
 20
6.639810013664601
 30
0
 11
-89.92097104972433
 21
-9.360189986335399
 31
0
  0
LINE
  8
1
 62
7
 10
-92.52097104972424
 20
10.1398100136646
 30
0
 11
-92.52097104972424
 21
-18.3601899863354
 31
0
  0
LINE
  8
1
 62
7
 10
-86.12097104972432
 20
5.639810013664601
 30
0
 11
-87.12097104972432
 21
6.639810013664601
 31
0
  0
LINE
  8
1
 62
7
 10
-87.12097104972432
 20
-9.360189986335399
 30
0
 11
-86.12097104972432
 21
-8.360189986335399
 31
0
  0
LINE
  8
1
 62
7
 10
-89.72097104972434
 20
-97.3601899863354
 30
0
 11
-89.72097104972434
 21
-171.3601899863354
 31
0
  0
LINE
  8
1
 62
7
 10
-92.52097104972424
 20
-204.8601899863354
 30
0
 11
-100.7209710497243
 21
-204.8601899863354
 31
0
  0
LINE
  8
1
 62
7
 10
-91.32097104972422
 20
-203.8601899863354
 30
0
 11
-89.72097104972434
 21
-203.8601899863354
 31
0
  0
LINE
  8
1
 62
7
 10
-89.72097104972434
 20
-166.8601899863354
 30
0
 11
-84.82097104972422
 21
-166.8601899863354
 31
0
  0
LINE
  8
1
 62
7
 10
-84.82097104972422
 20
-166.8601899863354
 30
0
 11
-84.82097104972422
 21
-171.3601899863354
 31
0
  0
LINE
  8
1
 62
7
 10
-84.82097104972422
 20
-181.3601899863354
 30
0
 11
-84.82097104972422
 21
-185.8601899863354
 31
0
  0
LINE
  8
1
 62
7
 10
-84.82097104972422
 20
-185.8601899863354
 30
0
 11
-89.72097104972434
 21
-185.8601899863354
 31
0
  0
LINE
  8
1
 62
7
 10
-89.72097104972434
 20
-171.3601899863354
 30
0
 11
-89.72097104972434
 21
-203.8601899863354
 31
0
  0
LINE
  8
1
 62
7
 10
-91.32097104972422
 20
-184.3601899863354
 30
0
 11
-92.32097104972422
 21
-184.3601899863354
 31
0
  0
LINE
  8
1
 62
7
 10
-92.32097104972422
 20
-185.3601899863354
 30
0
 11
-92.32097104972422
 21
-176.3601899863354
 31
0
  0
LINE
  8
1
 62
7
 10
-68.32097104972422
 20
-171.3601899863353
 30
0
 11
-67.32097104972422
 21
-172.3601899863353
 31
0
  0
LINE
  8
1
 62
7
 10
-67.32097104972422
 20
-172.3601899863353
 30
0
 11
-67.32097104972422
 21
-180.3601899863353
 31
0
  0
LINE
  8
1
 62
7
 10
-67.32097104972422
 20
-180.3601899863353
 30
0
 11
-68.32097104972422
 21
-181.3601899863353
 31
0
  0
LINE
  8
1
 62
7
 10
-68.32097104972422
 20
-181.3601899863353
 30
0
 11
-84.82097104972422
 21
-181.3601899863354
 31
0
  0
LINE
  8
1
 62
7
 10
-68.32097104972422
 20
-171.3601899863353
 30
0
 11
-68.32097104972422
 21
-181.3601899863353
 31
0
  0
LINE
  8
1
 62
3
 10
-67.32097104972422
 20
-172.3601899863353
 30
0
 11
-84.82097104972422
 21
-172.3601899863354
 31
0
  0
LINE
  8
1
 62
3
 10
-67.32097104972422
 20
-180.3601899863353
 30
0
 11
-84.82097104972422
 21
-180.3601899863354
 31
0
  0
LINE
  8
1
 62
7
 10
-145.3209710497241
 20
-201.3601899863354
 30
0
 11
-145.3209710497241
 21
-97.3601899863354
 31
0
  0
LINE
  8
1
 62
7
 10
-101.120971049724
 20
-204.3601899863354
 30
0
 11
-101.120971049724
 21
9.639810013664601
 31
0
  0
LINE
  8
1
 62
7
 10
-132.6497611402362
 20
61.61021884767371
 30
0
 11
-132.6497611402362
 21
58.0604096857997
 31
0
  0
LINE
  8
1
 62
3
  6
DASHDOT
 10
-145.3209710497241
 20
-97.3601899863354
 30
0
 11
-155.3209710497241
 21
-97.3601899863354
 31
0
  0
LINE
  8
1
 62
7
 10
-142.3209710497242
 20
9.639810013664601
 30
0
 11
-145.3209710497241
 21
6.639810013664601
 31
0
  0
LINE
  8
1
 62
7
 10
-142.3209710497242
 20
9.639810013664601
 30
0
 11
-142.3209710497242
 21
-204.3601899863354
 31
0
  0
LINE
  8
1
 62
7
 10
-122.9209710497239
 20
15.1398100136646
 30
0
 11
-122.9209710497239
 21
-209.8601899863354
 31
0
  0
LINE
  8
1
 62
7
 10
-107.2963975302668
 20
-209.8601899863354
 30
0
 11
-107.2963975302668
 21
15.1398100136646
 31
0
  0
LINE
  8
1
 62
7
 10
-104.120971049724
 20
9.639810013664601
 30
0
 11
-104.120971049724
 21
-204.3601899863354
 31
0
  0
LINE
  8
1
 62
7
 10
-84.82097104972422
 20
-171.3601899863354
 30
0
 11
-68.32097104972422
 21
-171.3601899863353
 31
0
  0
LINE
  8
1
 62
7
 10
-84.82097104972422
 20
-171.3601899863354
 30
0
 11
-84.82097104972422
 21
-181.3601899863354
 31
0
  0
LINE
  8
1
 62
7
 10
-92.52097104972424
 20
-176.3601899863354
 30
0
 11
-91.32097104972422
 21
-176.3601899863354
 31
0
  0
LINE
  8
1
 62
7
 10
-92.52097104972424
 20
-185.3601899863354
 30
0
 11
-92.32097104972422
 21
-185.3601899863354
 31
0
  0
LINE
  8
1
 62
7
 10
-92.52097104972424
 20
-176.3601899863354
 30
0
 11
-92.52097104972424
 21
-18.3601899863354
 31
0
  0
LINE
  8
1
 62
3
  6
DASHDOT
 10
-97.27041102787339
 20
-176.3601899863354
 30
0
 11
-63.14725864451265
 21
-176.3601899863354
 31
0
  0
LINE
  8
1
 62
3
  6
DASHDOT
 10
-317.3233951010608
 20
-97.3601899863354
 30
0
 11
-324.3233951010608
 21
-97.3601899863354
 31
0
  0
LINE
  8
1
 62
3
  6
DASHDOT
 10
-324.3233951010608
 20
-104.3601899863354
 30
0
 11
-324.3233951010608
 21
-97.3601899863354
 31
0
  0
LINE
  8
1
 62
3
  6
DASHDOT
 10
-324.3233951010608
 20
-90.3601899863354
 30
0
 11
-324.3233951010608
 21
-97.3601899863354
 31
0
  0
LINE
  8
1
 62
7
 10
-318.3233951010608
 20
-74.06018998633539
 30
0
 11
-318.3233951010608
 21
-78.28140595799647
 31
0
  0
LINE
  8
1
 62
7
 10
-330.3233951010608
 20
-74.06018998633539
 30
0
 11
-318.3233951010608
 21
-74.06018998633539
 31
0
  0
LINE
  8
1
 62
7
 10
-330.3233951010608
 20
-78.28140595799647
 30
0
 11
-330.3233951010608
 21
-74.06018998633539
 31
0
  0
LINE
  8
1
 62
3
  6
DASHDOT
 10
-324.3233951010608
 20
-97.3601899863354
 30
0
 11
-331.3233951010608
 21
-97.3601899863354
 31
0
  0
LINE
  8
1
 62
3
  6
DASHDOT
 10
-324.3233951010608
 20
36.0081227394866
 30
0
 11
-324.3233951010608
 21
21.0081227394866
 31
0
  0
LINE
  8
1
 62
7
 10
-334.6131478798784
 20
37.6398100136646
 30
0
 11
-314.0947539961828
 21
37.6398100136646
 31
0
  0
LINE
  8
1
 62
7
 10
-336.3233951010608
 20
35.83416036609305
 30
0
 11
-336.3233951010608
 21
14.49797913867764
 31
0
  0
LINE
  8
1
 62
7
 10
-312.3233951010608
 20
14.49797913867764
 30
0
 11
-312.3233951010608
 21
35.74512818934852
 31
0
  0
LINE
  8
1
 62
3
  6
DASHDOT
 10
-317.0733951010608
 20
27.6398100136646
 30
0
 11
-331.5733951010608
 21
27.6398100136646
 31
0
  0
LINE
  8
1
 62
7
 10
-369.1829558126921
 20
62.52374834963885
 30
0
 11
-368.1384745049984
 21
58.62569104177003
 31
0
  0
LINE
  8
1
 62
7
 10
-367.558919009225
 20
58.78098246883155
 30
0
 11
-368.6006190554527
 21
62.66865996760043
 31
0
  0
LINE
  8
1
 62
7
 10
-368.0182822982134
 20
62.813571585562
 30
0
 11
-366.9793635134516
 21
58.93627389589306
 31
0
  0
LINE
  8
1
 62
7
 10
-365.5304747740179
 20
59.32450246354683
 30
0
 11
-366.562440405115
 21
63.17585063046597
 31
0
  0
LINE
  8
1
 62
7
 10
-365.9801036478756
 20
63.32076224842754
 30
0
 11
-364.9509192782444
 21
59.47979389060834
 31
0
  0
LINE
  8
1
 62
7
 10
-364.371363782471
 20
59.63508531766986
 30
0
 11
-365.3977668906363
 21
63.46567386638913
 31
0
  0
LINE
  8
1
 62
7
 10
-368.8754345513119
 20
58.47828589889269
 30
0
 11
-363.6344037361577
 21
59.78249046054691
 31
0
  0
LINE
  8
1
 62
7
 10
-354.6162144744513
 20
5.262152095743043
 30
0
 11
-368.8754345513119
 21
58.47828589889269
 31
0
  0
LINE
  8
1
 62
7
 10
-349.4002150124905
 20
6.659774939296629
 30
0
 11
-363.6344037361577
 21
59.78249046054691
 31
0
  0
LINE
  8
1
 62
7
 10
-352.0170329270305
 20
5.993873426594874
 30
0
 11
-366.2549191437346
 21
59.13038817971994
 31
0
  0
LINE
  8
1
 62
7
 10
-7.920971049723931
 20
-205.3601899863354
 30
0
 11
-7.920971049723931
 21
-204.3601899863354
 31
0
  0
LINE
  8
1
 62
7
 10
-7.920971049723931
 20
10.6398100136646
 30
0
 11
-7.920971049723931
 21
9.639810013664601
 31
0
  0
ARC
  8
1
 62
7
 10
202.6766048989392
 20
-97.3601899863354
 30
0
 40
53.50000000000008
 50
5.362485318524758
 51
114.6373420825487
  0
ARC
  8
1
 62
7
 10
202.6766048989392
 20
-97.3601899863354
 30
0
 40
48.50000000000003
 50
25.23970795288126
 51
0
  0
ARC
  8
1
 62
3
  6
DASHDOT
 10
202.6766048989392
 20
-97.3601899863354
 30
0
 40
79.00000000000001
 50
138.227731403493
 51
161.5768752493294
  0
ARC
  8
1
 62
3
  6
DASHDOT
 10
202.6766048989392
 20
-97.3601899863354
 30
0
 40
79.00000000000014
 50
18.55046020790343
 51
41.52937606932606
  0
ARC
  8
1
 62
3
  6
DASHDOT
 10
202.6766048989392
 20
-97.3601899863354
 30
0
 40
78.99999999999996
 50
257.9450303654989
 51
281.4460204567257
  0
ARC
  8
1
 62
7
 10
202.6766048989392
 20
-97.3601899863354
 30
0
 40
48.5
 50
0
 51
25.23970795288126
  0
ARC
  8
1
 62
7
 10
202.6766048989392
 20
-97.3601899863354
 30
0
 40
20.00000000000001
 50
107.4576031237221
 51
72.54239687627793
  0
ARC
  8
1
 62
7
 10
192.6766048989392
 20
35.6398100136646
 30
0
 40
2
 50
90
 51
180
  0
ARC
  8
1
 62
7
 10
212.6766048989392
 20
35.6398100136646
 30
0
 40
2
 50
0
 51
90
  0
ARC
  8
1
 62
7
 10
100.4856072523756
 20
-38.3601899863354
 30
0
 40
24.76721550183337
 50
302.7047028571628
 51
357.2952971428372
  0
ARC
  8
1
 62
7
 10
174.4266048989393
 20
-48.42975467251461
 30
0
 40
50.00000000000004
 50
119.9999999999999
 51
169.7457365550781
  0
ARC
  8
1
 62
7
 10
180.4891461575525
 20
-49.77903116691118
 30
0
 40
33.00000000000001
 50
115
 51
195.4143167381764
  0
ARC
  8
1
 62
7
 10
202.6766048989392
 20
-97.3601899863354
 30
0
 40
66.49999999999996
 50
144.2953667715587
 51
155.7046332284411
  0
ARC
  8
1
 62
7
 10
202.6766048989392
 20
-97.3601899863354
 30
0
 40
85.50000000000016
 50
64.99999999999996
 51
115
  0
ARC
  8
1
 62
7
 10
202.6766048989392
 20
-97.3601899863354
 30
0
 40
106.5
 50
60.00000000000001
 51
119.9999999999999
  0
ARC
  8
1
 62
7
 10
202.6766048989392
 20
-97.3601899863354
 30
0
 40
106.4999999999999
 50
180
 51
240
  0
ARC
  8
1
 62
7
 10
202.6766048989392
 20
-97.3601899863354
 30
0
 40
85.49999999999994
 50
184.9999999999999
 51
235
  0
ARC
  8
1
 62
7
 10
150.3763832491226
 20
-101.9358664805874
 30
0
 40
33.00000000000005
 50
104.5856832618237
 51
184.9999999999999
  0
ARC
  8
1
 62
7
 10
146.1766048989392
 20
-97.3601899863354
 30
0
 40
49.99999999999993
 50
130.2542634449218
 51
180
  0
ARC
  8
1
 62
7
 10
202.6766048989392
 20
-215.3601899863354
 30
0
 40
24.76721550183346
 50
62.7047028571626
 51
117.2952971428371
  0
ARC
  8
1
 62
7
 10
230.9266048989393
 20
-146.2906253001561
 30
0
 40
50.00000000000008
 50
250.2542634449219
 51
300.0000000000001
  0
ARC
  8
1
 62
7
 10
232.7893678073692
 20
-140.3656723115074
 30
0
 40
33.00000000000025
 50
224.5856832618234
 51
304.9999999999998
  0
ARC
  8
1
 62
7
 10
202.6766048989392
 20
-97.3601899863354
 30
0
 40
66.4999999999999
 50
264.2953667715588
 51
275.704633228441
  0
ARC
  8
1
 62
7
 10
202.6766048989392
 20
-97.3601899863354
 30
0
 40
85.50000000000013
 50
305
 51
355.0000000000001
  0
ARC
  8
1
 62
7
 10
202.6766048989392
 20
-97.3601899863354
 30
0
 40
106.5000000000001
 50
300.0000000000001
 51
0
  0
ARC
  8
1
 62
7
 10
172.5638419905093
 20
-140.3656723115074
 30
0
 40
32.99999999999996
 50
235
 51
315.4143167381764
  0
ARC
  8
1
 62
7
 10
174.4266048989392
 20
-146.2906253001561
 30
0
 40
49.99999999999982
 50
240
 51
289.745736555078
  0
ARC
  8
1
 62
7
 10
304.867602545503
 20
-38.3601899863354
 30
0
 40
24.76721550183341
 50
182.7047028571629
 51
237.2952971428373
  0
ARC
  8
1
 62
7
 10
230.9266048989393
 20
-48.42975467251461
 30
0
 40
49.99999999999996
 50
10.25426344492188
 51
60.00000000000012
  0
ARC
  8
1
 62
7
 10
224.864063640326
 20
-49.77903116691118
 30
0
 40
33.00000000000009
 50
344.5856832618237
 51
64.99999999999999
  0
ARC
  8
1
 62
7
 10
202.6766048989392
 20
-97.3601899863354
 30
0
 40
66.50000000000016
 50
24.29536677155867
 51
35.70463322844115
  0
ARC
  8
1
 62
7
 10
254.9768265487559
 20
-101.9358664805875
 30
0
 40
32.99999999999996
 50
355.0000000000002
 51
75.41431673817608
  0
ARC
  8
1
 62
7
 10
259.1766048989392
 20
-97.3601899863354
 30
0
 40
50
 50
0
 51
49.74573655507801
  0
ARC
  8
1
 62
7
 10
202.6766048989392
 20
-97.3601899863354
 30
0
 40
79.00000000000011
 50
3.62868225894352
 51
12.56493730343677
  0
ARC
  8
1
 62
7
 10
202.6766048989392
 20
-97.3601899863354
 30
0
 40
79.00000000000004
 50
123.6286822589434
 51
132.5649373034367
  0
ARC
  8
1
 62
7
 10
202.6766048989392
 20
-97.3601899863354
 30
0
 40
79.00000000000004
 50
243.6286822589433
 51
252.5649373034369
  0
ARC
  8
1
 62
7
 10
24.78523833830198
 20
-176.9285726601709
 30
0
 40
10.00000000000037
 50
106.8951343742608
 51
146.1625763597095
  0
ARC
  8
1
 62
7
 10
24.78523833830138
 20
-175.7918073125008
 30
0
 40
9.999999999999318
 50
213.8374236402883
 51
253.1048656257411
  0
ARC
  8
1
 62
7
 10
202.6766048989392
 20
-97.3601899863354
 30
0
 40
107.4999999999999
 50
182.6660891295031
 51
297.3343255997706
  0
ARC
  8
1
 62
7
 10
202.6766048989392
 20
-97.3601899863354
 30
0
 40
107.4999999999999
 50
302.6660891295032
 51
0
  0
ARC
  8
1
 62
7
 10
202.6766048989392
 20
-97.3601899863354
 30
0
 40
107.4999999999999
 50
0
 51
57.33432559977063
  0
ARC
  8
1
 62
7
 10
202.6766048989392
 20
-97.3601899863354
 30
0
 40
107.5
 50
62.66608912950316
 51
177.3343255997706
  0
ARC
  8
1
 62
7
 10
162.6761098127278
 20
-28.0782379131133
 30
0
 40
5.002445588204799
 50
28.2083391507648
 51
211.7916608492358
  0
ARC
  8
1
 62
7
 10
162.6761098127278
 20
-166.6423025186235
 30
0
 40
5.002445588204994
 50
148.2083391507641
 51
331.7916608492362
  0
ARC
  8
1
 62
7
 10
282.6761098127278
 20
-97.36027021586835
 30
0
 40
5.002445588204918
 50
268.2083391507635
 51
91.79166084923656
  0
ARC
  8
1
 62
7
 10
122.6761098127278
 20
-97.36027021586835
 30
0
 40
5.002445588204809
 50
271.7916608492332
 51
88.20833915076688
  0
ARC
  8
1
 62
7
 10
242.6761098127278
 20
-166.6423025186235
 30
0
 40
5.002445588204732
 50
31.7916608492366
 51
208.2083391507633
  0
ARC
  8
1
 62
7
 10
242.6761098127278
 20
-28.0782379131133
 30
0
 40
5.002445588204874
 50
151.7916608492357
 51
328.2083391507646
  0
ARC
  8
1
 62
7
 10
202.6766048989392
 20
-97.3601899863354
 30
0
 40
53.49999999999993
 50
245.3624853185246
 51
354.6373420825489
  0
ARC
  8
1
 62
7
 10
202.6766048989392
 20
-97.3601899863354
 30
0
 40
53.49999999999999
 50
125.3624853185245
 51
234.6373420825489
  0
ARC
  8
1
 62
7
 10
202.6766048989392
 20
-97.3601899863354
 30
0
 40
79.00000000000013
 50
303.5328253090204
 51
356.3712011322393
  0
ARC
  8
1
 62
7
 10
202.6766048989392
 20
-97.3601899863354
 30
0
 40
79.00000000000007
 50
47.43506269656326
 51
56.46709372403569
  0
ARC
  8
1
 62
7
 10
202.6766048989392
 20
-97.3601899863354
 30
0
 40
79
 50
63.5334629675017
 51
116.3712011322393
  0
ARC
  8
1
 62
7
 10
202.6766048989392
 20
-97.3601899863354
 30
0
 40
78.99999999999997
 50
167.4350626965632
 51
176.4670102575423
  0
ARC
  8
1
 62
7
 10
202.6766048989392
 20
-97.3601899863354
 30
0
 40
78.9999999999999
 50
183.5331046620875
 51
236.3712011322395
  0
ARC
  8
1
 62
7
 10
202.6766048989392
 20
-97.3601899863354
 30
0
 40
79.00000000000001
 50
287.4350626965634
 51
296.4665030798125
  0
ARC
  8
1
 62
7
 10
202.6766048989392
 20
-97.3601899863354
 30
0
 40
54.00000000000001
 50
354.6871398012711
 51
0
  0
ARC
  8
1
 62
7
 10
202.6766048989392
 20
-97.3601899863354
 30
0
 40
53.99999999999992
 50
114.6871398012711
 51
125.3126892118254
  0
ARC
  8
1
 62
7
 10
202.6766048989392
 20
-97.3601899863354
 30
0
 40
54.00000000000003
 50
0
 51
5.312689211825785
  0
ARC
  8
1
 62
7
 10
202.6766048989392
 20
-97.3601899863354
 30
0
 40
53.99999999999999
 50
234.6871398012712
 51
245.3126892118256
  0
ARC
  8
1
 62
7
 10
-324.3233951010608
 20
-97.3601899863354
 30
0
 40
20.00000000000001
 50
107.4576031237221
 51
72.54239687627793
  0
ARC
  8
1
 62
7
 10
-334.3233951010608
 20
35.6398100136646
 30
0
 40
2
 50
90
 51
180
  0
ARC
  8
1
 62
7
 10
-314.3233951010608
 20
35.6398100136646
 30
0
 40
2
 50
0
 51
90
  0
ARC
  8
1
 62
7
 10
-324.3233951010608
 20
-97.3601899863354
 30
0
 40
112.5000000000001
 50
96.12319886626941
 51
103.6247692479815
  0
ARC
  8
1
 62
7
 10
-324.3233951010608
 20
-97.3601899863354
 30
0
 40
112.5
 50
106.3752307520185
 51
0
  0
ARC
  8
1
 62
7
 10
-324.3233951010608
 20
-97.3601899863354
 30
0
 40
112.5
 50
0
 51
83.8768011337306
  0
ARC
  8
1
 62
7
 10
-324.3233951010608
 20
-97.3601899863354
 30
0
 40
107
 50
96.43924159418734
 51
0
  0
ARC
  8
1
 62
7
 10
-324.3233951010608
 20
-97.3601899863354
 30
0
 40
107
 50
0
 51
83.56075840581266
  0
ARC
  8
1
 62
7
 10
-324.3233951010608
 20
-97.3601899863354
 30
0
 40
104
 50
0
 51
83.37419043517701
  0
ARC
  8
1
 62
7
 10
-324.3233951010608
 20
-97.3601899863354
 30
0
 40
104
 50
96.62580956482294
 51
0
  0
ARC
  8
1
 62
7
 10
-22.22097104972391
 20
-131.9601899863354
 30
0
 40
2.099999999999994
 50
90
 51
180
  0
ARC
  8
1
 62
7
 10
-8.420971049723931
 20
-145.2601899863354
 30
0
 40
2.099999999999994
 50
270
 51
0
  0
ARC
  8
1
 62
7
 10
-22.22097104972391
 20
-145.2601899863354
 30
0
 40
2.100000000000311
 50
180
 51
270
  0
ARC
  8
1
 62
7
 10
-8.420971049723931
 20
-131.9601899863354
 30
0
 40
2.099999999999795
 50
0
 51
90
  0
ARC
  8
1
 62
7
 10
-8.420971049723931
 20
-62.76018998633538
 30
0
 40
2.100000000000023
 50
270
 51
0
  0
ARC
  8
1
 62
7
 10
-22.22097104972391
 20
-49.46018998633531
 30
0
 40
2.099999999999909
 50
90
 51
180
  0
ARC
  8
1
 62
7
 10
-8.420971049723931
 20
-49.46018998633531
 30
0
 40
2.099999999999795
 50
0
 51
90
  0
ARC
  8
1
 62
7
 10
-22.22097104972391
 20
-62.76018998633538
 30
0
 40
2.100000000000311
 50
180
 51
270
  0
CIRCLE
  8
1
 62
7
 10
202.6766048989392
 20
-1.360189986335399
 30
0
 40
8
  0
CIRCLE
  8
1
 62
7
 10
134.2605979999686
 20
-57.8601899863354
 30
0
 40
9.5
  0
CIRCLE
  8
1
 62
7
 10
134.2605979999686
 20
-57.8601899863354
 30
0
 40
5
  0
CIRCLE
  8
1
 62
3
 10
134.2605979999686
 20
-57.8601899863354
 30
0
 40
4
  0
CIRCLE
  8
1
 62
7
 10
119.5381661356331
 20
-145.3601899863354
 30
0
 40
8.0000000000001
  0
CIRCLE
  8
1
 62
7
 10
285.8150436622453
 20
-145.3601899863354
 30
0
 40
8
  0
CIRCLE
  8
1
 62
7
 10
202.6766048989392
 20
-176.3601899863354
 30
0
 40
9.499999999999915
  0
CIRCLE
  8
1
 62
7
 10
271.09261179791
 20
-57.8601899863354
 30
0
 40
9.500000000000057
  0
CIRCLE
  8
1
 62
7
 10
202.6766048989392
 20
-176.3601899863354
 30
0
 40
5
  0
CIRCLE
  8
1
 62
7
 10
271.09261179791
 20
-57.8601899863354
 30
0
 40
5
  0
CIRCLE
  8
1
 62
3
 10
202.6766048989392
 20
-176.3601899863354
 30
0
 40
4
  0
CIRCLE
  8
1
 62
3
 10
271.09261179791
 20
-57.8601899863354
 30
0
 40
4.000000000000057
  0
CIRCLE
  8
1
 62
7
 10
202.6766048989392
 20
-97.3601899863354
 30
0
 40
112.4999999999998
  0
CIRCLE
  8
1
 62
7
 10
202.6766048989392
 20
27.6398100136646
 30
0
 40
4.25
  0
CIRCLE
  8
1
 62
7
 10
-15.32097104972414
 20
-56.1101899863354
 30
0
 40
5.249999999999989
  0
CIRCLE
  8
1
 62
7
 10
-15.32097104972414
 20
-138.6101899863354
 30
0
 40
5.249999999999989
  0
CIRCLE
  8
1
 62
7
 10
-324.3233951010608
 20
-97.3601899863354
 30
0
 40
32.5
  0
CIRCLE
  8
1
 62
7
 10
-324.3233951010608
 20
-97.3601899863354
 30
0
 40
50
  0
CIRCLE
  8
1
 62
7
 10
-324.3233951010608
 20
27.6398100136646
 30
0
 40
4.25
  0
TEXT
  8
1
 62
7
 10
-302.934046537458
 20
78.54152999038303
 30
0
 40
10
  1
VCE 20
 41
0.8473321344609001
  7
SIMPLEX
  0
INSERT
  8
0
  2
TMC20FCA
 10
765.742432219577
 20
-474.110414028898
 30
0
  0
ENDSEC
  0
EOF
