  0
SECTION
  2
HEADER
  9
$ACADVER
  1
AC1009
  9
$INSBASE
 10
0.0
 20
0.0
 30
0.0
  9
$EXTMIN
 10
-211.99842844184531
 20
-71.000000000000028
 30
0.0
  9
$EXTMAX
 10
369.16388388310838
 20
153.02888272879909
 30
0.0
  9
$LIMMIN
 10
-211.99842844184531
 20
-71.0
  9
$LIMMAX
 10
365.39018182955101
 20
153.028882728799
  9
$ORTHOMODE
 70
     0
  9
$REGENMODE
 70
     1
  9
$FILLMODE
 70
     1
  9
$QTEXTMODE
 70
     0
  9
$MIRRTEXT
 70
     1
  9
$DRAGMODE
 70
     2
  9
$LTSCALE
 40
1.0
  9
$OSMODE
 70
    37
  9
$ATTMODE
 70
     1
  9
$TEXTSIZE
 40
3.5
  9
$TRACEWID
 40
0.5
  9
$TEXTSTYLE
  7
STANDARD
  9
$CLAYER
  8
0
  9
$CELTYPE
  6
BYLAYER
  9
$CECOLOR
 62
   256
  9
$DIMSCALE
 40
1.0
  9
$DIMASZ
 40
0.18
  9
$DIMEXO
 40
0.0625
  9
$DIMDLI
 40
0.38
  9
$DIMRND
 40
0.0
  9
$DIMDLE
 40
0.0
  9
$DIMEXE
 40
0.18
  9
$DIMTP
 40
0.0
  9
$DIMTM
 40
0.0
  9
$DIMTXT
 40
0.18
  9
$DIMCEN
 40
0.09
  9
$DIMTSZ
 40
0.0
  9
$DIMTOL
 70
     0
  9
$DIMLIM
 70
     0
  9
$DIMTIH
 70
     1
  9
$DIMTOH
 70
     1
  9
$DIMSE1
 70
     0
  9
$DIMSE2
 70
     0
  9
$DIMTAD
 70
     0
  9
$DIMZIN
 70
     0
  9
$DIMBLK
  1

  9
$DIMASO
 70
     1
  9
$DIMSHO
 70
     1
  9
$DIMPOST
  1

  9
$DIMAPOST
  1

  9
$DIMALT
 70
     0
  9
$DIMALTD
 70
     2
  9
$DIMALTF
 40
25.399999999999999
  9
$DIMLFAC
 40
1.0
  9
$DIMTOFL
 70
     0
  9
$DIMTVP
 40
0.0
  9
$DIMTIX
 70
     0
  9
$DIMSOXD
 70
     0
  9
$DIMSAH
 70
     0
  9
$DIMBLK1
  1

  9
$DIMBLK2
  1

  9
$DIMSTYLE
  2
STANDARD
  9
$DIMCLRD
 70
     0
  9
$DIMCLRE
 70
     0
  9
$DIMCLRT
 70
     0
  9
$DIMTFAC
 40
1.0
  9
$DIMGAP
 40
0.09
  9
$LUNITS
 70
     2
  9
$LUPREC
 70
     4
  9
$SKETCHINC
 40
0.1
  9
$FILLETRAD
 40
2.0
  9
$AUNITS
 70
     0
  9
$AUPREC
 70
     0
  9
$MENU
  1
ACAD
  9
$ELEVATION
 40
0.0
  9
$PELEVATION
 40
0.0
  9
$THICKNESS
 40
0.0
  9
$LIMCHECK
 70
     0
  9
$BLIPMODE
 70
     0
  9
$CHAMFERA
 40
0.0
  9
$CHAMFERB
 40
0.0
  9
$SKPOLY
 70
     0
  9
$TDCREATE
 40
2452095.3547265041
  9
$TDUPDATE
 40
2452095.3551384248
  9
$TDINDWG
 40
0.0004284722
  9
$TDUSRTIMER
 40
0.0004284722
  9
$USRTIMER
 70
     1
  9
$ANGBASE
 50
0.0
  9
$ANGDIR
 70
     0
  9
$PDMODE
 70
     0
  9
$PDSIZE
 40
0.0
  9
$PLINEWID
 40
0.0
  9
$COORDS
 70
     1
  9
$SPLFRAME
 70
     0
  9
$SPLINETYPE
 70
     6
  9
$SPLINESEGS
 70
     8
  9
$ATTDIA
 70
     0
  9
$ATTREQ
 70
     1
  9
$HANDLING
 70
 10241
  9
$HANDSEED
  5
16B
  9
$SURFTAB1
 70
     6
  9
$SURFTAB2
 70
     6
  9
$SURFTYPE
 70
     6
  9
$SURFU
 70
     6
  9
$SURFV
 70
     6
  9
$UCSNAME
  2

  9
$UCSORG
 10
0.0
 20
0.0
 30
0.0
  9
$UCSXDIR
 10
1.0
 20
0.0
 30
0.0
  9
$UCSYDIR
 10
0.0
 20
1.0
 30
0.0
  9
$PUCSNAME
  2

  9
$PUCSORG
 10
0.0
 20
0.0
 30
0.0
  9
$PUCSXDIR
 10
1.0
 20
0.0
 30
0.0
  9
$PUCSYDIR
 10
0.0
 20
1.0
 30
0.0
  9
$USERI1
 70
     0
  9
$USERI2
 70
     0
  9
$USERI3
 70
     0
  9
$USERI4
 70
     0
  9
$USERI5
 70
     0
  9
$USERR1
 40
0.0
  9
$USERR2
 40
0.0
  9
$USERR3
 40
0.0
  9
$USERR4
 40
0.0
  9
$USERR5
 40
0.0
  9
$WORLDVIEW
 70
     1
  9
$SHADEDGE
 70
     3
  9
$SHADEDIF
 70
    70
  9
$TILEMODE
 70
     1
  9
$MAXACTVP
 70
    64
  9
$PLIMCHECK
 70
     0
  9
$PEXTMIN
 10
1.0000000000000000E+020
 20
1.0000000000000000E+020
 30
1.0000000000000000E+020
  9
$PEXTMAX
 10
-1.0000000000000000E+020
 20
-1.0000000000000000E+020
 30
-1.0000000000000000E+020
  9
$PLIMMIN
 10
0.0
 20
0.0
  9
$PLIMMAX
 10
12.0
 20
9.0
  9
$UNITMODE
 70
     0
  9
$VISRETAIN
 70
     1
  9
$PLINEGEN
 70
     0
  9
$PSLTSCALE
 70
     1
  0
ENDSEC
  0
SECTION
  2
TABLES
  0
TABLE
  2
VPORT
 70
     2
  0
VPORT
  2
*ACTIVE
 70
     0
 10
0.0
 20
0.0
 11
1.0
 21
1.0
 12
-118.26096566288339
 22
132.76227320951909
 13
0.0
 23
0.0
 14
1.0
 24
1.0
 15
0.0
 25
0.0
 16
0.0
 26
0.0
 36
1.0
 17
0.0
 27
0.0
 37
0.0
 40
9.0000004319407481
 41
2.4144144144144142
 42
50.0
 43
0.0
 44
0.0
 50
0.0
 51
0.0
 71
     0
 72
   100
 73
     1
 74
     1
 75
     0
 76
     0
 77
     0
 78
     0
  0
ENDTAB
  0
TABLE
  2
LTYPE
 70
     9
  0
LTYPE
  2
CONTINUOUS
 70
     0
  3
Solid line
 72
    65
 73
     0
 40
0.0
  0
LTYPE
  2
BORDER
 70
     0
  3
__ __ . __ __ .
 72
    65
 73
     6
 40
26.590264946709048
 49
7.5972185562025842
 49
-3.7986092781012921
 49
7.5972185562025842
 49
-3.7986092781012921
 49
0.0
 49
-3.7986092781012921
  0
LTYPE
  2
CENTER
 70
     0
  3
____ _ ____ _
 72
    65
 73
     4
 40
30.388874224810341
 49
18.993046390506461
 49
-3.7986092781012921
 49
3.7986092781012921
 49
-3.7986092781012921
  0
LTYPE
  2
DASHDOT
 70
     0
  3
__ . __ . __ .
 72
    65
 73
     4
 40
15.19443711240517
 49
7.5972185562025842
 49
-3.7986092781012921
 49
0.0
 49
-3.7986092781012921
  0
LTYPE
  2
DASHED
 70
     0
  3
__ __ __ __ __
 72
    65
 73
     2
 40
11.395827834303869
 49
7.5972185562025842
 49
-3.7986092781012921
  0
LTYPE
  2
DIVIDE
 70
     0
  3
__ . . __ . . 
 72
    65
 73
     6
 40
18.993046390506461
 49
7.5972185562025842
 49
-3.7986092781012921
 49
0.0
 49
-3.7986092781012921
 49
0.0
 49
-3.7986092781012921
  0
LTYPE
  2
DOT
 70
     0
  3
..............
 72
    65
 73
     4
 40
7.5972185562025842
 49
0.0
 49
-3.7986092781012921
 49
0.0
 49
-3.7986092781012921
  0
LTYPE
  2
HIDDEN
 70
     0
  3
_ _ _ _ _ _ _
 72
    65
 73
     2
 40
5.6979139171519373
 49
3.7986092781012921
 49
-1.8993046390506461
  0
LTYPE
  2
PHANTOM
 70
     0
  3
_____ _ _ _____ _ _ 
 72
    65
 73
     6
 40
37.986092781012921
 49
18.993046390506461
 49
-3.7986092781012921
 49
3.7986092781012921
 49
-3.7986092781012921
 49
3.7986092781012921
 49
-3.7986092781012921
  0
ENDTAB
  0
TABLE
  2
LAYER
 70
     2
  0
LAYER
  2
0
 70
     0
 62
     7
  6
CONTINUOUS
  0
LAYER
  2
1
 70
     0
 62
     7
  6
CONTINUOUS
  0
ENDTAB
  0
TABLE
  2
STYLE
 70
     4
  0
STYLE
  2
STANDARD
 70
     0
 40
0.0
 41
1.0
 50
0.0
 71
     0
 42
3.5
  3
txt
  4

  0
STYLE
  2
SIMPLEX
 70
     0
 40
0.0
 41
1.0
 50
0.0
 71
     0
 42
3.5
  3
simplex
  4

  0
STYLE
  2
COMPLEX
 70
     0
 40
0.0
 41
1.0
 50
0.0
 71
     0
 42
3.5
  3
complex
  4

  0
STYLE
  2
ITALIC
 70
     0
 40
0.0
 41
1.0
 50
0.0
 71
     0
 42
3.5
  3
italic
  4

  0
ENDTAB
  0
TABLE
  2
VIEW
 70
     0
  0
ENDTAB
  0
TABLE
  2
UCS
 70
     0
  0
ENDTAB
  0
TABLE
  2
APPID
 70
     1
  0
APPID
  2
ACAD
 70
     0
  0
ENDTAB
  0
TABLE
  2
DIMSTYLE
 70
     1
  0
DIMSTYLE
  2
STANDARD
 70
     0
  3

  4

  5

  6

  7

 40
1.0
 41
0.18
 42
0.0625
 43
0.38
 44
0.18
 45
0.0
 46
0.0
 47
0.0
 48
0.0
140
0.18
141
0.09
142
0.0
143
25.399999999999999
144
1.0
145
0.0
146
1.0
147
0.09
 71
     0
 72
     0
 73
     1
 74
     1
 75
     0
 76
     0
 77
     0
 78
     0
170
     0
171
     2
172
     0
173
     0
174
     0
175
     0
176
     0
177
     0
178
     0
  0
ENDTAB
  0
ENDSEC
  0
SECTION
  2
BLOCKS
  0
BLOCK
  8
0
  2
$MODEL_SPACE
 70
     0
 10
0.0
 20
0.0
 30
0.0
  3
$MODEL_SPACE
  1

  0
ENDBLK
  5
20
  8
0
  0
BLOCK
 67
     1
  8
0
  2
$PAPER_SPACE
 70
     0
 10
0.0
 20
0.0
 30
0.0
  3
$PAPER_SPACE
  1

  0
ENDBLK
  5
1C
 67
     1
  8
0
  0
ENDSEC
  0
SECTION
  2
ENTITIES
  0
LINE
  5
33
  8
1
 62
     7
 10
41.800000000000111
 20
-52.5
 30
0.0
 11
42.600000000000122
 21
-52.5
 31
0.0
  0
LINE
  5
34
  8
1
 62
     7
 10
154.29999999999981
 20
-58.281226189436723
 30
0.0
 11
155.29999999999981
 21
-58.281226189436779
 31
0.0
  0
LINE
  5
35
  8
1
 62
     7
 10
155.2999999999999
 20
-54.0
 30
0.0
 11
158.19999999999979
 21
-54.0
 31
0.0
  0
LINE
  5
36
  8
1
 62
     7
 10
158.19999999999979
 20
-50.5
 30
0.0
 11
158.19999999999979
 21
-54.0
 31
0.0
  0
LINE
  5
37
  8
1
 62
     7
 10
158.19999999999979
 20
-41.0
 30
0.0
 11
158.19999999999979
 21
-44.5
 31
0.0
  0
LINE
  5
38
  8
1
 62
     7
 10
155.2999999999999
 20
47.631652497587368
 30
0.0
 11
155.2999999999999
 21
-44.5
 31
0.0
  0
LINE
  5
39
  8
1
 62
     7
 10
155.2999999999999
 20
-41.0
 30
0.0
 11
158.19999999999979
 21
-41.0
 31
0.0
  0
LINE
  5
3A
  8
1
 62
     7
 10
155.2999999999999
 20
-50.5
 30
0.0
 11
155.2999999999999
 21
-66.536725737242591
 31
0.0
  0
LINE
  5
3B
  8
1
 62
     7
 10
153.49999999999989
 20
-53.5
 30
0.0
 11
153.49999999999989
 21
-68.0
 31
0.0
  0
LINE
  5
3C
  8
1
 62
     7
 10
148.59999999999971
 20
-53.5
 30
0.0
 11
153.49999999999989
 21
-53.5
 31
0.0
  0
LINE
  5
3D
  8
1
 62
     7
 10
148.59999999999971
 20
-41.5
 30
0.0
 11
154.2999999999999
 21
-41.5
 31
0.0
  0
LINE
  5
3E
  8
1
 62
     7
 10
154.29999999999981
 20
-38.5
 30
0.0
 11
155.29999999999981
 21
-38.5
 31
0.0
  0
LINE
  5
3F
  8
1
  6
DASHDOT
 62
     3
 10
148.59999999999971
 20
-47.5
 30
0.0
 11
170.75910746940571
 21
-47.5
 31
0.0
  0
LINE
  5
40
  8
1
 62
     7
 10
154.2999999999999
 20
-66.536725737242591
 30
0.0
 11
155.2999999999999
 21
-66.536725737242591
 31
0.0
  0
LINE
  5
41
  8
1
 62
     7
 10
154.49999999999989
 20
50.617293143642421
 30
0.0
 11
155.2999999999999
 21
47.631652497587368
 31
0.0
  0
LINE
  5
42
  8
1
 62
     7
 10
153.49999999999989
 20
50.48564064605511
 30
0.0
 11
154.2999999999999
 21
47.5
 31
0.0
  0
LINE
  5
43
  8
1
 62
     7
 10
154.49999999999989
 20
66.5
 30
0.0
 11
154.49999999999989
 21
50.617293143642421
 31
0.0
  0
LINE
  5
44
  8
1
 62
     7
 10
153.55885855344849
 20
54.5
 30
0.0
 11
154.49999999999989
 21
54.5
 31
0.0
  0
LINE
  5
45
  8
1
 62
     7
 10
156.79999999999981
 20
55.5
 30
0.0
 11
157.2999999999999
 21
56.0
 31
0.0
  0
LINE
  5
46
  8
1
 62
     7
 10
156.79999999999981
 20
65.5
 30
0.0
 11
157.2999999999999
 21
65.0
 31
0.0
  0
LINE
  5
47
  8
1
 62
     7
 10
155.1999999999999
 20
65.5
 30
0.0
 11
155.1999999999999
 21
55.5
 31
0.0
  0
LINE
  5
48
  8
1
 62
     7
 10
153.49999999999989
 20
66.5
 30
0.0
 11
154.49999999999989
 21
66.5
 31
0.0
  0
LINE
  5
49
  8
1
 62
     7
 10
154.49999999999989
 20
65.5
 30
0.0
 11
156.79999999999981
 21
65.5
 31
0.0
  0
LINE
  5
4A
  8
1
 62
     7
 10
154.49999999999989
 20
55.5
 30
0.0
 11
156.79999999999981
 21
55.5
 31
0.0
  0
LINE
  5
4B
  8
1
 62
     7
 10
157.2999999999999
 20
65.0
 30
0.0
 11
157.2999999999999
 21
56.0
 31
0.0
  0
LINE
  5
4C
  8
1
 62
     7
 10
153.49999999999989
 20
-68.0
 30
0.0
 11
148.59999999999971
 21
-68.0
 31
0.0
  0
LINE
  5
4D
  8
1
 62
     7
 10
154.2999999999999
 20
47.5
 30
0.0
 11
154.2999999999999
 21
-66.536725737242591
 31
0.0
  0
LINE
  5
4E
  8
1
 62
     7
 10
154.2999999999999
 20
-33.0
 30
0.0
 11
148.59999999999971
 21
-33.0
 31
0.0
  0
LINE
  5
4F
  8
1
 62
     7
 10
148.59999999999971
 20
33.0
 30
0.0
 11
154.2999999999999
 21
33.0
 31
0.0
  0
LINE
  5
50
  8
1
 62
     7
 10
153.49999999999989
 20
47.5
 30
0.0
 11
154.2999999999999
 21
47.5
 31
0.0
  0
LINE
  5
51
  8
1
 62
     7
 10
153.49999999999989
 20
68.0
 30
0.0
 11
153.49999999999989
 21
47.5
 31
0.0
  0
LINE
  5
52
  8
1
 62
     7
 10
148.59999999999971
 20
68.0
 30
0.0
 11
153.49999999999989
 21
68.0
 31
0.0
  0
LINE
  5
53
  8
1
 62
     7
 10
148.59999999999971
 20
68.0
 30
0.0
 11
148.59999999999971
 21
-68.0
 31
0.0
  0
LINE
  5
54
  8
1
  6
DASHDOT
 62
     3
 10
160.29999999999981
 20
0.0
 30
0.0
 11
155.29999999999981
 21
0.0
 31
0.0
  0
LINE
  5
55
  8
1
 62
     7
 10
46.500000000000107
 20
-44.5
 30
0.0
 11
55.900000000000098
 21
-44.5
 31
0.0
  0
LINE
  5
56
  8
1
 62
     7
 10
46.500000000000107
 20
-41.0
 30
0.0
 11
46.500000000000107
 21
-54.0
 31
0.0
  0
LINE
  5
57
  8
1
 62
     3
 10
56.900000000000112
 20
-45.499999999999993
 30
0.0
 11
46.500000000000107
 21
-45.499999999999993
 31
0.0
  0
LINE
  5
58
  8
1
 62
     7
 10
43.600000000000108
 20
-54.0
 30
0.0
 11
46.500000000000107
 21
-54.0
 31
0.0
  0
LINE
  5
59
  8
1
 62
     7
 10
43.600000000000108
 20
-41.0
 30
0.0
 11
46.500000000000107
 21
-41.0
 31
0.0
  0
LINE
  5
5A
  8
1
 62
     7
 10
43.600000000000108
 20
-66.536725737242591
 30
0.0
 11
43.600000000000108
 21
47.631652497587368
 31
0.0
  0
LINE
  5
5B
  8
1
 62
     7
 10
55.900000000000098
 20
-50.5
 30
0.0
 11
55.900000000000098
 21
-44.5
 31
0.0
  0
LINE
  5
5C
  8
1
 62
     7
 10
56.900000000000112
 20
-45.499999999999993
 30
0.0
 11
55.900000000000098
 21
-44.5
 31
0.0
  0
LINE
  5
5D
  8
1
 62
     7
 10
56.900000000000112
 20
-49.5
 30
0.0
 11
56.900000000000112
 21
-45.499999999999993
 31
0.0
  0
LINE
  5
5E
  8
1
 62
     7
 10
55.900000000000098
 20
-50.5
 30
0.0
 11
56.900000000000112
 21
-49.5
 31
0.0
  0
LINE
  5
5F
  8
1
 62
     7
 10
55.900000000000098
 20
-50.5
 30
0.0
 11
46.500000000000107
 21
-50.5
 31
0.0
  0
LINE
  5
60
  8
1
 62
     3
 10
56.900000000000112
 20
-49.5
 30
0.0
 11
46.500000000000107
 21
-49.5
 31
0.0
  0
LINE
  5
61
  8
1
 62
     7
 10
41.800000000000111
 20
-68.0
 30
0.0
 11
41.800000000000111
 21
68.0
 31
0.0
  0
LINE
  5
62
  8
1
  6
DASHDOT
 62
     3
 10
36.900000000000013
 20
-47.499999999999993
 30
0.0
 11
59.159107469406017
 21
-47.5
 31
0.0
  0
LINE
  5
63
  8
1
 62
     7
 10
42.600000000000122
 20
-66.536725737242591
 30
0.0
 11
43.600000000000108
 21
-66.536725737242591
 31
0.0
  0
LINE
  5
64
  8
1
 62
     7
 10
42.800000000000097
 20
50.617293143642492
 30
0.0
 11
43.600000000000108
 21
47.631652497587368
 31
0.0
  0
LINE
  5
65
  8
1
 62
     7
 10
41.800000000000111
 20
50.48564064605511
 30
0.0
 11
42.600000000000122
 21
47.5
 31
0.0
  0
LINE
  5
66
  8
1
 62
     7
 10
45.100000000000108
 20
55.5
 30
0.0
 11
45.600000000000122
 21
56.0
 31
0.0
  0
LINE
  5
67
  8
1
 62
     7
 10
45.100000000000108
 20
65.5
 30
0.0
 11
45.600000000000122
 21
65.0
 31
0.0
  0
LINE
  5
68
  8
1
 62
     7
 10
43.500000000000092
 20
65.5
 30
0.0
 11
43.500000000000092
 21
55.5
 31
0.0
  0
LINE
  5
69
  8
1
 62
     7
 10
41.800000000000111
 20
66.5
 30
0.0
 11
42.800000000000097
 21
66.5
 31
0.0
  0
LINE
  5
6A
  8
1
 62
     7
 10
42.800000000000097
 20
66.5
 30
0.0
 11
42.800000000000097
 21
50.617293143642492
 31
0.0
  0
LINE
  5
6B
  8
1
 62
     7
 10
42.800000000000097
 20
65.5
 30
0.0
 11
45.100000000000108
 21
65.5
 31
0.0
  0
LINE
  5
6C
  8
1
 62
     7
 10
42.800000000000097
 20
55.5
 30
0.0
 11
45.100000000000108
 21
55.5
 31
0.0
  0
LINE
  5
6D
  8
1
 62
     7
 10
45.600000000000122
 20
65.0
 30
0.0
 11
45.600000000000122
 21
56.0
 31
0.0
  0
LINE
  5
6E
  8
1
 62
     7
 10
36.900000000000013
 20
-68.0
 30
0.0
 11
36.900000000000013
 21
68.0
 31
0.0
  0
LINE
  5
6F
  8
1
 62
     7
 10
41.800000000000111
 20
-68.0
 30
0.0
 11
36.900000000000013
 21
-68.0
 31
0.0
  0
LINE
  5
70
  8
1
 62
     7
 10
42.600000000000122
 20
47.5
 30
0.0
 11
42.600000000000122
 21
-66.536725737242591
 31
0.0
  0
LINE
  5
71
  8
1
 62
     7
 10
41.800000000000111
 20
47.5
 30
0.0
 11
42.600000000000122
 21
47.5
 31
0.0
  0
LINE
  5
72
  8
1
 62
     7
 10
36.900000000000013
 20
68.0
 30
0.0
 11
41.800000000000111
 21
68.0
 31
0.0
  0
LINE
  5
73
  8
1
  6
DASHDOT
 62
     3
 10
48.600000000000001
 20
0.0
 30
0.0
 11
43.600000000000001
 21
0.0
 31
0.0
  0
LINE
  5
74
  8
1
 62
     7
 10
154.2999999999999
 20
-52.5
 30
0.0
 11
153.59999999999991
 21
-52.5
 31
0.0
  0
LINE
  5
75
  8
1
 62
     7
 10
153.59999999999991
 20
-42.5
 30
0.0
 11
154.2999999999999
 21
-42.5
 31
0.0
  0
LINE
  5
76
  8
1
 62
     7
 10
153.59999999999991
 20
-42.25
 30
0.0
 11
153.0999999999998
 21
-42.25
 31
0.0
  0
LINE
  5
77
  8
1
 62
     7
 10
153.0999999999998
 20
-42.25
 30
0.0
 11
153.0999999999998
 21
-52.75
 31
0.0
  0
LINE
  5
78
  8
1
 62
     7
 10
153.0999999999998
 20
-52.75
 30
0.0
 11
153.59999999999991
 21
-52.75
 31
0.0
  0
LINE
  5
79
  8
1
 62
     7
 10
153.59999999999991
 20
-52.75
 30
0.0
 11
153.59999999999991
 21
-42.25
 31
0.0
  0
LINE
  5
7A
  8
1
 62
     7
 10
149.39999999999981
 20
-44.5
 30
0.0
 11
149.39999999999981
 21
-50.5
 31
0.0
  0
LINE
  5
7B
  8
1
 62
     7
 10
167.99999999999989
 20
-44.5
 30
0.0
 11
168.59999999999991
 21
-45.09999999999998
 31
0.0
  0
LINE
  5
7C
  8
1
 62
     7
 10
168.59999999999991
 20
-45.09999999999998
 30
0.0
 11
168.59999999999991
 21
-49.899999999999977
 31
0.0
  0
LINE
  5
7D
  8
1
 62
     7
 10
168.59999999999991
 20
-49.899999999999977
 30
0.0
 11
167.99999999999989
 21
-50.5
 31
0.0
  0
LINE
  5
7E
  8
1
 62
     7
 10
167.99999999999989
 20
-50.5
 30
0.0
 11
154.2999999999999
 21
-50.5
 31
0.0
  0
LINE
  5
7F
  8
1
 62
     7
 10
167.99999999999989
 20
-44.5
 30
0.0
 11
167.99999999999989
 21
-50.5
 31
0.0
  0
LINE
  5
80
  8
1
 62
     3
 10
168.59999999999991
 20
-45.09999999999998
 30
0.0
 11
155.1392304845412
 21
-45.09999999999998
 31
0.0
  0
LINE
  5
81
  8
1
 62
     3
 10
155.1392304845412
 20
-45.09999999999998
 30
0.0
 11
154.2999999999999
 21
-44.615470053837932
 31
0.0
  0
LINE
  5
82
  8
1
 62
     3
 10
168.59999999999991
 20
-49.899999999999977
 30
0.0
 11
155.1392304845412
 21
-49.899999999999977
 31
0.0
  0
LINE
  5
83
  8
1
 62
     3
 10
155.1392304845412
 20
-49.899999999999977
 30
0.0
 11
154.2999999999999
 21
-50.384529946162033
 31
0.0
  0
LINE
  5
84
  8
1
 62
     3
 10
155.1392304845412
 20
-44.5
 30
0.0
 11
155.1392304845412
 21
-50.5
 31
0.0
  0
LINE
  5
85
  8
1
 62
     7
 10
154.2999999999999
 20
-44.5
 30
0.0
 11
167.99999999999989
 21
-44.5
 31
0.0
  0
LINE
  5
86
  8
1
 62
     7
 10
116.34999999999989
 20
-31.427499999999991
 30
0.0
 11
116.34999999999989
 21
-22.572499999999991
 31
0.0
  0
LINE
  5
87
  8
1
 62
     7
 10
128.0499999999999
 20
-31.427499999999991
 30
0.0
 11
128.0499999999999
 21
-22.572499999999991
 31
0.0
  0
LINE
  5
88
  8
1
 62
     7
 10
124.4124872880989
 20
-30.57
 30
0.0
 11
129.6999999999999
 21
-30.57
 31
0.0
  0
LINE
  5
89
  8
1
 62
     7
 10
119.98751271190081
 20
-30.57
 30
0.0
 11
114.6999999999999
 21
-30.57
 31
0.0
  0
LINE
  5
8A
  8
1
 62
     7
 10
124.4124872880989
 20
-23.429999999999989
 30
0.0
 11
129.6999999999999
 21
-23.429999999999989
 31
0.0
  0
LINE
  5
8B
  8
1
 62
     7
 10
119.98751271190081
 20
-23.429999999999989
 30
0.0
 11
114.6999999999999
 21
-23.429999999999989
 31
0.0
  0
LINE
  5
8C
  8
1
 62
     7
 10
116.34999999999989
 20
31.427500000000009
 30
0.0
 11
116.34999999999989
 21
22.572500000000002
 31
0.0
  0
LINE
  5
8D
  8
1
 62
     7
 10
128.0499999999999
 20
31.427500000000009
 30
0.0
 11
128.0499999999999
 21
22.572500000000002
 31
0.0
  0
LINE
  5
8E
  8
1
 62
     7
 10
124.4124872880989
 20
30.57
 30
0.0
 11
129.6999999999999
 21
30.57
 31
0.0
  0
LINE
  5
8F
  8
1
 62
     7
 10
119.98751271190081
 20
30.57
 30
0.0
 11
114.6999999999999
 21
30.57
 31
0.0
  0
LINE
  5
90
  8
1
 62
     7
 10
124.4124872880989
 20
23.429999999999989
 30
0.0
 11
129.6999999999999
 21
23.429999999999989
 31
0.0
  0
LINE
  5
91
  8
1
 62
     7
 10
119.98751271190081
 20
23.429999999999989
 30
0.0
 11
114.6999999999999
 21
23.429999999999989
 31
0.0
  0
LINE
  5
92
  8
1
 62
     7
 10
3.0
 20
84.0
 30
0.0
 11
3.0
 21
-60.325876138829258
 31
0.0
  0
LINE
  5
93
  8
1
 62
     7
 10
148.39999999999981
 20
67.500000000000014
 30
0.0
 11
148.39999999999981
 21
31.887007831023109
 31
0.0
  0
LINE
  5
94
  8
1
 62
     7
 10
114.6999999999999
 20
34.0
 30
0.0
 11
129.6999999999999
 21
34.0
 31
0.0
  0
LINE
  5
95
  8
1
 62
     7
 10
129.6999999999999
 20
20.000000000000011
 30
0.0
 11
114.6999999999999
 21
20.000000000000011
 31
0.0
  0
LINE
  5
96
  8
1
 62
     7
 10
129.6999999999999
 20
35.5
 30
0.0
 11
129.6999999999999
 21
20.000000000000011
 31
0.0
  0
LINE
  5
97
  8
1
 62
     7
 10
114.6999999999999
 20
-19.999999999999989
 30
0.0
 11
129.6999999999999
 21
-19.999999999999989
 31
0.0
  0
LINE
  5
98
  8
1
 62
     7
 10
129.6999999999999
 20
-35.499999999999879
 30
0.0
 11
129.6999999999999
 21
-19.999999999999989
 31
0.0
  0
LINE
  5
99
  8
1
 62
     7
 10
148.39999999999981
 20
-67.499999999999901
 30
0.0
 11
148.39999999999981
 21
-31.887007831023102
 31
0.0
  0
LINE
  5
9A
  8
1
 62
     7
 10
124.6999999999998
 20
93.511749462084538
 30
0.0
 11
124.6999999999998
 21
91.615942611840921
 31
0.0
  0
LINE
  5
9B
  8
1
 62
     7
 10
124.1999999999999
 20
93.455119159366149
 30
0.0
 11
124.1999999999999
 21
91.615942611840921
 31
0.0
  0
LINE
  5
9C
  8
1
 62
     7
 10
125.1999999999999
 20
91.615942611840921
 30
0.0
 11
125.1999999999999
 21
93.455119159366149
 31
0.0
  0
LINE
  5
9D
  8
1
  6
DASHDOT
 62
     3
 10
-0.122637906940696
 20
78.0
 30
0.0
 11
4.4831174887428071
 21
78.0
 31
0.0
  0
LINE
  5
9E
  8
1
  6
DASHDOT
 62
     3
 10
294.39018182955112
 20
81.804421131921259
 30
0.0
 11
294.39018182955112
 21
74.195578868078769
 31
0.0
  0
LINE
  5
9F
  8
1
  6
DASHDOT
 62
     3
 10
298.19460296147219
 20
78.0
 30
0.0
 11
290.58576069762978
 21
78.0
 31
0.0
  0
LINE
  5
A0
  8
1
  6
DASHDOT
 62
     3
 10
294.39018182955112
 20
-39.368352752351377
 30
0.0
 11
294.39018182955112
 21
-56.638453770014173
 31
0.0
  0
LINE
  5
A1
  8
1
  6
DASHDOT
 62
     3
 10
294.39018182955112
 20
8.2247388767547598
 30
0.0
 11
294.39018182955112
 21
-8.2247388767547491
 31
0.0
  0
LINE
  5
A2
  8
1
  6
DASHDOT
 62
     3
 10
302.61492070630578
 20
0.0000000000000036
 30
0.0
 11
286.1654429527963
 21
0.0000000000000036
 31
0.0
  0
LINE
  5
A3
  8
1
 62
     7
 10
286.39018182955112
 20
70.547856097829069
 30
0.0
 11
286.39018182955112
 21
82.0
 31
0.0
  0
LINE
  5
A4
  8
1
 62
     7
 10
302.39018182955112
 20
70.547856097829069
 30
0.0
 11
302.39018182955112
 21
82.0
 31
0.0
  0
LINE
  5
A5
  8
1
  6
DASHDOT
 62
     3
 10
245.06759270404589
 20
28.476410108739621
 30
0.0
 11
261.04820378385011
 21
19.25
 31
0.0
  0
LINE
  5
A6
  8
1
  6
DASHDOT
 62
     3
 10
329.06917272339189
 20
20.021924727783571
 30
0.0
 11
343.59003631734191
 21
28.405549232616519
 31
0.0
  0
LINE
  5
A7
  8
1
 62
     7
 10
316.7879181197053
 20
92.857070398309915
 30
0.0
 11
321.62478021995912
 21
91.589968979880425
 31
0.0
  0
LINE
  5
A8
  8
1
 62
     7
 10
321.62478021995912
 20
91.589968979880425
 30
0.0
 11
315.16975338109171
 21
67.891158526971708
 31
0.0
  0
LINE
  5
A9
  8
1
 62
     7
 10
320.79354612147313
 20
95.76785702847836
 30
0.0
 11
319.79744183699643
 21
92.068672529622148
 31
0.0
  0
LINE
  5
AA
  8
1
 62
     7
 10
321.3662522642511
 20
95.553092224936563
 30
0.0
 11
320.43545865551692
 21
91.901532760289726
 31
0.0
  0
LINE
  5
AB
  8
1
 62
     7
 10
321.9389584070293
 20
95.338327421394794
 30
0.0
 11
321.0910249180348
 21
91.729795604279559
 31
0.0
  0
LINE
  5
AC
  8
1
 62
     7
 10
318.61702432434078
 20
92.384964448869766
 30
0.0
 11
319.60396495859362
 21
96.086604340403156
 31
0.0
  0
LINE
  5
AD
  8
1
 62
     7
 10
317.9809156667942
 20
92.559225571905486
 30
0.0
 11
319.00060448827361
 21
96.186965636086214
 31
0.0
  0
LINE
  5
AE
  8
1
 62
     7
 10
317.32731005158462
 20
92.738279963285976
 30
0.0
 11
318.39724401795343
 21
96.287326931769357
 31
0.0
  0
LINE
  5
AF
  8
1
 62
     7
 10
288.39018182955112
 20
84.0
 30
0.0
 11
300.39018182955112
 21
84.0
 31
0.0
  0
LINE
  5
B0
  8
1
 62
     7
 10
316.7879181197053
 20
92.857070398309915
 30
0.0
 11
310.34012424964629
 21
69.185253752484329
 31
0.0
  0
LINE
  5
B1
  8
1
  6
DASHDOT
 62
     3
 10
1.0
 20
0.0
 30
0.0
 11
-4.0
 21
0.0
 31
0.0
  0
LINE
  5
B2
  8
1
 62
     7
 10
1.0
 20
84.0
 30
0.0
 11
1.0
 21
-52.5
 31
0.0
  0
LINE
  5
B3
  8
1
 62
     7
 10
34.700000000000003
 20
-67.499999999999901
 30
0.0
 11
32.679274057836402
 21
-70.999999999999901
 31
0.0
  0
LINE
  5
B4
  8
1
 62
     7
 10
36.700000000000003
 20
-67.499999999999901
 30
0.0
 11
34.700000000000003
 21
-67.499999999999901
 31
0.0
  0
LINE
  5
B5
  8
1
 62
     7
 10
20.199999999999999
 20
-70.999999999999901
 30
0.0
 11
20.199999999999999
 21
71.0
 31
0.0
  0
LINE
  5
B6
  8
1
 62
     7
 10
32.679274057836402
 20
-70.999999999999901
 30
0.0
 11
20.199999999999999
 21
-70.999999999999901
 31
0.0
  0
LINE
  5
B7
  8
1
 62
     7
 10
20.199999999999999
 20
71.0
 30
0.0
 11
32.679274057836402
 21
71.0
 31
0.0
  0
LINE
  5
B8
  8
1
 62
     7
 10
34.700000000000003
 20
67.5
 30
0.0
 11
36.700000000000003
 21
67.5
 31
0.0
  0
LINE
  5
B9
  8
1
 62
     7
 10
32.679274057836402
 20
71.0
 30
0.0
 11
34.700000000000003
 21
67.5
 31
0.0
  0
LINE
  5
BA
  8
1
 62
     7
 10
10.0
 20
-67.350000000000023
 30
0.0
 11
20.199999999999999
 21
-67.350000000000023
 31
0.0
  0
LINE
  5
BB
  8
1
 62
     7
 10
1.0
 20
-52.5
 30
0.0
 11
3.0
 21
-52.5
 31
0.0
  0
LINE
  5
BC
  8
1
 62
     7
 10
1.0
 20
84.0
 30
0.0
 11
3.0
 21
84.0
 31
0.0
  0
LINE
  5
BD
  8
1
 62
     7
 10
10.0
 20
67.350000000000023
 30
0.0
 11
20.199999999999999
 21
67.350000000000023
 31
0.0
  0
LINE
  5
BE
  8
1
 62
     7
 10
36.700000000000003
 20
-67.499999999999901
 30
0.0
 11
36.700000000000003
 21
67.5
 31
0.0
  0
LINE
  5
BF
  8
1
 62
     7
 10
11.80000000000001
 20
91.615942611840921
 30
0.0
 11
11.80000000000001
 21
67.350000000000009
 31
0.0
  0
LINE
  5
C0
  8
1
 62
     7
 10
11.80000000000001
 20
91.615942611840921
 30
0.0
 11
14.20000000000001
 21
91.615942611840921
 31
0.0
  0
LINE
  5
C1
  8
1
 62
     7
 10
14.20000000000001
 20
91.615942611840921
 30
0.0
 11
14.20000000000001
 21
67.350000000000009
 31
0.0
  0
LINE
  5
C2
  8
1
 62
     7
 10
13.0
 20
93.511749462084538
 30
0.0
 11
13.0
 21
91.615942611840921
 31
0.0
  0
LINE
  5
C3
  8
1
 62
     7
 10
12.5
 20
93.455119159366149
 30
0.0
 11
12.5
 21
91.615942611840921
 31
0.0
  0
LINE
  5
C4
  8
1
 62
     7
 10
13.5
 20
91.615942611840921
 30
0.0
 11
13.5
 21
93.455119159366149
 31
0.0
  0
LINE
  5
C5
  8
1
 62
     7
 10
34.700000000000003
 20
67.5
 30
0.0
 11
34.700000000000003
 21
-67.499999999999901
 31
0.0
  0
LINE
  5
C6
  8
1
 62
     7
 10
32.679274057836402
 20
-70.999999999999901
 30
0.0
 11
32.679274057836402
 21
71.0
 31
0.0
  0
LINE
  5
C7
  8
1
 62
     7
 10
131.2999999999999
 20
-35.5
 30
0.0
 11
129.6999999999999
 21
-35.499999999999879
 31
0.0
  0
LINE
  5
C8
  8
1
  6
DASHDOT
 62
     3
 10
112.6999999999999
 20
0.0000000000000036
 30
0.0
 11
107.6999999999999
 21
0.0
 31
0.0
  0
LINE
  5
C9
  8
1
 62
     7
 10
131.2999999999999
 20
35.5
 30
0.0
 11
129.6999999999999
 21
35.5
 31
0.0
  0
LINE
  5
CA
  8
1
 62
     7
 10
146.39999999999981
 20
29.0
 30
0.0
 11
148.1999999999999
 21
29.0
 31
0.0
  0
LINE
  5
CB
  8
1
 62
     7
 10
131.89999999999969
 20
-25.499999999999879
 30
0.0
 11
129.6999999999999
 21
-25.499999999999879
 31
0.0
  0
LINE
  5
CC
  8
1
 62
     7
 10
141.99999999999969
 20
-33.499999999999993
 30
0.0
 11
131.89999999999969
 21
-33.499999999999993
 31
0.0
  0
LINE
  5
CD
  8
1
 62
     7
 10
131.89999999999969
 20
-67.850000000000023
 30
0.0
 11
141.99999999999969
 21
-67.850000000000023
 31
0.0
  0
LINE
  5
CE
  8
1
 62
     7
 10
146.89999999999981
 20
-67.499999999999901
 30
0.0
 11
144.8792740578362
 21
-70.999999999999901
 31
0.0
  0
LINE
  5
CF
  8
1
 62
     7
 10
148.39999999999981
 20
-67.499999999999901
 30
0.0
 11
146.89999999999981
 21
-67.499999999999901
 31
0.0
  0
LINE
  5
D0
  8
1
 62
     7
 10
148.1999999999999
 20
-28.999999999999869
 30
0.0
 11
146.39999999999981
 21
-28.999999999999979
 31
0.0
  0
LINE
  5
D1
  8
1
 62
     7
 10
148.39999999999981
 20
-33.499999999999879
 30
0.0
 11
146.39999999999981
 21
-33.499999999999893
 31
0.0
  0
LINE
  5
D2
  8
1
 62
     7
 10
146.39999999999981
 20
-28.999999999999979
 30
0.0
 11
146.39999999999981
 21
-33.499999999999893
 31
0.0
  0
LINE
  5
D3
  8
1
 62
     7
 10
148.1999999999999
 20
29.0
 30
0.0
 11
148.1999999999999
 21
-28.999999999999869
 31
0.0
  0
LINE
  5
D4
  8
1
 62
     7
 10
144.8792740578362
 20
-70.999999999999901
 30
0.0
 11
131.89999999999969
 21
-70.999999999999901
 31
0.0
  0
LINE
  5
D5
  8
1
 62
     7
 10
131.2999999999999
 20
-29.499999999999879
 30
0.0
 11
129.6999999999999
 21
-29.499999999999879
 31
0.0
  0
LINE
  5
D6
  8
1
 62
     7
 10
131.2999999999999
 20
-28.245999999999881
 30
0.0
 11
131.2999999999999
 21
-35.5
 31
0.0
  0
LINE
  5
D7
  8
1
 62
     7
 10
129.6999999999999
 20
-35.499999999999879
 30
0.0
 11
131.2999999999999
 21
-35.5
 31
0.0
  0
LINE
  5
D8
  8
1
 62
     7
 10
131.2999999999999
 20
35.5
 30
0.0
 11
129.6999999999999
 21
35.5
 31
0.0
  0
LINE
  5
D9
  8
1
 62
     7
 10
131.2999999999999
 20
35.5
 30
0.0
 11
131.2999999999999
 21
28.245999999999889
 31
0.0
  0
LINE
  5
DA
  8
1
 62
     7
 10
129.6999999999999
 20
29.5
 30
0.0
 11
131.2999999999999
 21
29.5
 31
0.0
  0
LINE
  5
DB
  8
1
 62
     7
 10
131.89999999999969
 20
71.000000000000014
 30
0.0
 11
144.8792740578362
 21
71.000000000000014
 31
0.0
  0
LINE
  5
DC
  8
1
 62
     7
 10
131.89999999999969
 20
71.000000000000014
 30
0.0
 11
131.89999999999969
 21
67.850000000000023
 31
0.0
  0
LINE
  5
DD
  8
1
 62
     7
 10
146.39999999999981
 20
33.5
 30
0.0
 11
146.39999999999981
 21
29.0
 31
0.0
  0
LINE
  5
DE
  8
1
 62
     7
 10
146.39999999999981
 20
33.5
 30
0.0
 11
148.39999999999981
 21
33.5
 31
0.0
  0
LINE
  5
DF
  8
1
 62
     7
 10
146.89999999999981
 20
67.500000000000014
 30
0.0
 11
148.39999999999981
 21
67.500000000000014
 31
0.0
  0
LINE
  5
E0
  8
1
 62
     7
 10
144.8792740578362
 20
71.000000000000014
 30
0.0
 11
146.89999999999981
 21
67.500000000000014
 31
0.0
  0
LINE
  5
E1
  8
1
 62
     7
 10
141.99999999999969
 20
67.850000000000023
 30
0.0
 11
131.89999999999969
 21
67.850000000000023
 31
0.0
  0
LINE
  5
E2
  8
1
 62
     7
 10
131.89999999999969
 20
33.5
 30
0.0
 11
141.99999999999969
 21
33.5
 31
0.0
  0
LINE
  5
E3
  8
1
 62
     7
 10
131.89999999999969
 20
25.500000000000011
 30
0.0
 11
131.89999999999969
 21
33.5
 31
0.0
  0
LINE
  5
E4
  8
1
 62
     7
 10
129.6999999999999
 20
25.500000000000011
 30
0.0
 11
131.89999999999969
 21
25.500000000000011
 31
0.0
  0
LINE
  5
E5
  8
1
 62
     7
 10
121.6999999999998
 20
67.350000000000009
 30
0.0
 11
138.99999999999989
 21
67.350000000000023
 31
0.0
  0
LINE
  5
E6
  8
1
 62
     7
 10
138.99999999999989
 20
67.350000000000023
 30
0.0
 11
138.99999999999989
 21
34.0
 31
0.0
  0
LINE
  5
E7
  8
1
 62
     7
 10
131.2999999999999
 20
34.0
 30
0.0
 11
138.99999999999989
 21
34.0
 31
0.0
  0
LINE
  5
E8
  8
1
 62
     7
 10
138.99999999999989
 20
-33.999999999999993
 30
0.0
 11
131.2999999999999
 21
-33.999999999999993
 31
0.0
  0
LINE
  5
E9
  8
1
 62
     7
 10
114.7000415687432
 20
-33.999999999999993
 30
0.0
 11
129.6999999999999
 21
-33.999999999999993
 31
0.0
  0
LINE
  5
EA
  8
1
 62
     7
 10
138.99999999999989
 20
-33.999999999999993
 30
0.0
 11
138.99999999999989
 21
-67.350000000000023
 31
0.0
  0
LINE
  5
EB
  8
1
 62
     7
 10
138.99999999999989
 20
-67.350000000000023
 30
0.0
 11
121.6999999999998
 21
-67.350000000000023
 31
0.0
  0
LINE
  5
EC
  8
1
 62
     7
 10
112.6999999999999
 20
-52.5
 30
0.0
 11
114.6999999999999
 21
-52.5
 31
0.0
  0
LINE
  5
ED
  8
1
 62
     7
 10
112.6999999999999
 20
-30.749999999999989
 30
0.0
 11
114.6999999999999
 21
-30.749999999999989
 31
0.0
  0
LINE
  5
EE
  8
1
 62
     7
 10
112.6999999999999
 20
30.75
 30
0.0
 11
114.6999999999999
 21
30.75
 31
0.0
  0
LINE
  5
EF
  8
1
 62
     7
 10
112.6999999999999
 20
84.0
 30
0.0
 11
114.6999999999999
 21
84.0
 31
0.0
  0
LINE
  5
F0
  8
1
 62
     7
 10
112.6999999999999
 20
81.25
 30
0.0
 11
114.6999999999999
 21
81.25
 31
0.0
  0
LINE
  5
F1
  8
1
  6
DASHDOT
 62
     3
 10
111.57736209305909
 20
78.0
 30
0.0
 11
116.1831174887427
 21
78.0
 31
0.0
  0
LINE
  5
F2
  8
1
 62
     7
 10
112.6999999999999
 20
74.75
 30
0.0
 11
114.6999999999999
 21
74.75
 31
0.0
  0
LINE
  5
F3
  8
1
 62
     7
 10
114.6999999999999
 20
-12.5
 30
0.0
 11
148.1999999999999
 21
-12.5
 31
0.0
  0
LINE
  5
F4
  8
1
 62
     7
 10
114.6999999999999
 20
15.800000000000001
 30
0.0
 11
148.1999999999999
 21
15.800000000000001
 31
0.0
  0
LINE
  5
F5
  8
1
 62
     7
 10
114.6999999999999
 20
12.5
 30
0.0
 11
148.1999999999999
 21
12.5
 31
0.0
  0
LINE
  5
F6
  8
1
 62
     7
 10
123.4999999999998
 20
91.615942611840879
 30
0.0
 11
123.4999999999998
 21
67.350000000000023
 31
0.0
  0
LINE
  5
F7
  8
1
 62
     7
 10
123.4999999999998
 20
91.615942611840879
 30
0.0
 11
125.89999999999991
 21
91.615942611840921
 31
0.0
  0
LINE
  5
F8
  8
1
 62
     7
 10
125.89999999999991
 20
91.615942611840921
 30
0.0
 11
125.89999999999991
 21
67.350000000000009
 31
0.0
  0
LINE
  5
F9
  8
1
  6
DASHDOT
 62
     3
 10
-140.99842844184531
 20
74.195578868078769
 30
0.0
 11
-140.99842844184531
 21
81.804421131921259
 31
0.0
  0
LINE
  5
FA
  8
1
  6
DASHDOT
 62
     3
 10
-137.19400730992399
 20
78.0
 30
0.0
 11
-144.80284957376651
 21
78.0
 31
0.0
  0
LINE
  5
FB
  8
1
  6
DASHDOT
 62
     3
 10
-140.99842844184531
 20
-8.2247388767547491
 30
0.0
 11
-140.99842844184531
 21
8.2247388767547598
 31
0.0
  0
LINE
  5
FC
  8
1
  6
DASHDOT
 62
     3
 10
-132.77368956509051
 20
0.0000000000000036
 30
0.0
 11
-149.2231673186001
 21
0.0000000000000036
 31
0.0
  0
LINE
  5
FD
  8
1
 62
     7
 10
-144.99842844184531
 20
15.800000000000001
 30
0.0
 11
-136.99842844184531
 21
15.800000000000001
 31
0.0
  0
LINE
  5
FE
  8
1
 62
     7
 10
-168.2330268322535
 20
91.589968979880425
 30
0.0
 11
-163.39616473199951
 21
92.857070398309915
 31
0.0
  0
LINE
  5
FF
  8
1
 62
     7
 10
-160.81796742267451
 20
64.366586332839674
 30
0.0
 11
-168.2330268322535
 21
91.589968979880425
 31
0.0
  0
LINE
  5
100
  8
1
 62
     7
 10
-166.40568844929069
 20
92.068672529622148
 30
0.0
 11
-167.40179273376739
 21
95.76785702847836
 31
0.0
  0
LINE
  5
101
  8
1
 62
     7
 10
-167.0437052678113
 20
91.901532760289726
 30
0.0
 11
-167.97449887654531
 21
95.553092224936563
 31
0.0
  0
LINE
  5
102
  8
1
 62
     7
 10
-167.6992715303293
 20
91.729795604279559
 30
0.0
 11
-168.5472050193234
 21
95.338327421394794
 31
0.0
  0
LINE
  5
103
  8
1
 62
     7
 10
-166.212211570888
 20
96.086604340403156
 30
0.0
 11
-165.2252709366351
 21
92.384964448869766
 31
0.0
  0
LINE
  5
104
  8
1
 62
     7
 10
-165.60885110056779
 20
96.186965636086214
 30
0.0
 11
-164.58916227908841
 21
92.559225571905486
 31
0.0
  0
LINE
  5
105
  8
1
 62
     7
 10
-165.00549063024781
 20
96.287326931769357
 30
0.0
 11
-163.9355566638786
 21
92.738279963285976
 31
0.0
  0
LINE
  5
106
  8
1
 62
     7
 10
-155.9883382912291
 20
65.660681558352309
 30
0.0
 11
-163.39616473199951
 21
92.857070398309915
 31
0.0
  0
LINE
  5
107
  8
1
  6
DASHDOT
 62
     3
 10
-140.99842844184531
 20
81.804421131921259
 30
0.0
 11
-140.99842844184531
 21
74.195578868078769
 31
0.0
  0
LINE
  5
108
  8
1
  6
DASHDOT
 62
     3
 10
-137.19400730992399
 20
78.0
 30
0.0
 11
-144.80284957376651
 21
78.0
 31
0.0
  0
LINE
  5
109
  8
1
 62
     7
 10
-148.99842844184531
 20
82.0
 30
0.0
 11
-148.99842844184531
 21
58.346144796724488
 31
0.0
  0
LINE
  5
10A
  8
1
 62
     7
 10
-146.99842844184531
 20
84.0
 30
0.0
 11
-134.99842844184531
 21
84.0
 31
0.0
  0
LINE
  5
10B
  8
1
 62
     7
 10
-132.99842844184531
 20
58.346144796724488
 30
0.0
 11
-132.99842844184531
 21
82.0
 31
0.0
  0
LINE
  5
10C
  8
1
 62
     7
 10
319.10828310486329
 20
92.249209826098536
 30
0.0
 11
312.78652259037131
 21
68.575320973450587
 31
0.0
  0
LINE
  5
10D
  8
1
 62
     7
 10
-165.7165297171575
 20
92.249209826098536
 30
0.0
 11
-158.4530867601068
 21
65.048884717516444
 31
0.0
  0
LINE
  5
10E
  8
1
 62
     7
 10
141.99999999999969
 20
33.5
 30
0.0
 11
141.99999999999969
 21
67.850000000000023
 31
0.0
  0
LINE
  5
10F
  8
1
 62
     7
 10
131.89999999999969
 20
-67.850000000000023
 30
0.0
 11
131.89999999999969
 21
-70.999999999999901
 31
0.0
  0
LINE
  5
110
  8
1
 62
     7
 10
131.89999999999969
 20
-33.499999999999993
 30
0.0
 11
131.89999999999969
 21
-25.499999999999879
 31
0.0
  0
LINE
  5
111
  8
1
 62
     7
 10
141.99999999999969
 20
-33.499999999999993
 30
0.0
 11
141.99999999999969
 21
-67.850000000000023
 31
0.0
  0
LINE
  5
112
  8
1
 62
     7
 10
112.6999999999999
 20
84.0
 30
0.0
 11
112.6999999999999
 21
-52.5
 31
0.0
  0
LINE
  5
113
  8
1
 62
     7
 10
-136.99842844184531
 20
11.842719282327019
 30
0.0
 11
-136.99842844184531
 21
15.800000000000001
 31
0.0
  0
LINE
  5
114
  8
1
 62
     7
 10
-144.99842844184531
 20
11.842719282327019
 30
0.0
 11
-144.99842844184531
 21
15.800000000000001
 31
0.0
  0
LINE
  5
115
  8
1
 62
     7
 10
298.39018182955112
 20
11.84271928232701
 30
0.0
 11
298.39018182955112
 21
15.800000000000001
 31
0.0
  0
LINE
  5
116
  8
1
 62
     7
 10
290.39018182955112
 20
11.84271928232701
 30
0.0
 11
290.39018182955112
 21
15.800000000000001
 31
0.0
  0
LINE
  5
117
  8
1
 62
     7
 10
298.39018182955112
 20
15.800000000000001
 30
0.0
 11
290.39018182955112
 21
15.800000000000001
 31
0.0
  0
LINE
  5
118
  8
1
 62
     7
 10
114.6999999999999
 20
84.0
 30
0.0
 11
114.6999999999999
 21
-60.325876138829202
 31
0.0
  0
ARC
  5
119
  8
1
 62
     7
 10
294.39018182955112
 20
0.0000000000000036
 30
0.0
 40
47.500000000000057
 50
165.72286046805809
 51
254.27713953194191
  0
ARC
  5
11A
  8
1
 62
     7
 10
294.39018182955112
 20
0.0000000000000036
 30
0.0
 40
47.499999999999993
 50
285.72286046805812
 51
14.27713953194179
  0
ARC
  5
11B
  8
1
 62
     7
 10
294.39018182955112
 20
0.0000000000000036
 30
0.0
 40
47.500000000000021
 50
45.722860468058087
 51
134.27713953194191
  0
ARC
  5
11C
  8
1
 62
     7
 10
153.93336471440381
 20
-47.787644197019752
 30
0.0
 40
5.6000000000000023
 50
98.558267717352621
 51
144.04997927382931
  0
ARC
  5
11D
  8
1
 62
     7
 10
153.93336471440381
 20
-47.212355802980262
 30
0.0
 40
5.600000000000005
 50
215.95002072617049
 51
261.44173228264742
  0
ARC
  5
11E
  8
1
 62
     7
 10
9.9999792156283434
 20
-60.349979287133827
 30
0.0
 40
7.0000207128969993
 50
179.8027132409421
 51
270.00017012189301
  0
ARC
  5
11F
  8
1
 62
     7
 10
121.6999792156282
 20
-60.349979287133799
 30
0.0
 40
7.0000207128970526
 50
179.8027132409419
 51
270.00017012189272
  0
ARC
  5
120
  8
1
 62
     7
 10
-156.99842844184531
 20
58.346144796724488
 30
0.0
 40
7.9999999999999591
 50
285.33498679390061
 51
0.0
  0
ARC
  5
121
  8
1
 62
     7
 10
-124.99842844184521
 20
58.346144796724488
 30
0.0
 40
8.0
 50
180.0
 51
254.66501320609879
  0
ARC
  5
122
  8
1
  6
DASHDOT
 62
     3
 10
294.39018182955112
 20
0.0000000000000036
 30
0.0
 40
47.500000000000092
 50
139.46670633699841
 51
161.65168775171881
  0
ARC
  5
123
  8
1
  6
DASHDOT
 62
     3
 10
294.39018182955112
 20
0.0000000000000036
 30
0.0
 40
47.5
 50
259.82278983740042
 51
279.98587740279021
  0
ARC
  5
124
  8
1
  6
DASHDOT
 62
     3
 10
294.39018182955112
 20
0.0000000000000036
 30
0.0
 40
47.500000000000021
 50
19.202405969557091
 51
40.353338614648678
  0
ARC
  5
125
  8
1
 62
     7
 10
279.17592440688583
 20
32.627080333319391
 30
0.0
 40
17.999999999999961
 50
114.9999999999997
 51
211.1014122552603
  0
ARC
  5
126
  8
1
 62
     7
 10
275.89018182955101
 20
32.04293994002424
 30
0.0
 40
30.000000000000011
 50
119.9999999999999
 51
175.6197874655644
  0
ARC
  5
127
  8
1
 62
     7
 10
294.39018182955112
 20
0.0000000000000036
 30
0.0
 40
53.99999999999995
 50
65.000000000000071
 51
115.0
  0
ARC
  5
128
  8
1
 62
     7
 10
294.39018182955112
 20
0.0000000000000036
 30
0.0
 40
38.500000000000028
 50
142.70271808465191
 51
157.29728191534809
  0
ARC
  5
129
  8
1
 62
     7
 10
294.39018182955112
 20
0.0000000000000036
 30
0.0
 40
67.000000000000014
 50
180.00000000000011
 51
239.99999999999989
  0
ARC
  5
12A
  8
1
 62
     7
 10
227.273213036257
 20
38.75
 30
0.0
 40
19.218773810563199
 50
313.28329168614448
 51
346.71670831385518
  0
ARC
  5
12B
  8
1
 62
     7
 10
257.39018182955101
 20
-0.0000000000000249
 30
0.0
 40
30.00000000000005
 50
124.3802125344358
 51
180.00000000000011
  0
ARC
  5
12C
  8
1
 62
     7
 10
258.52717269824831
 20
-3.137606738915709
 30
0.0
 40
17.999999999999979
 50
88.898587744740013
 51
185.0
  0
ARC
  5
12D
  8
1
 62
     7
 10
315.0389335381887
 20
-29.489473594403702
 30
0.0
 40
17.999999999999979
 50
208.8985877447397
 51
304.99999999999977
  0
ARC
  5
12E
  8
1
 62
     7
 10
312.89018182955112
 20
-32.042939940024219
 30
0.0
 40
30.00000000000005
 50
244.3802125344354
 51
300.00000000000011
  0
ARC
  5
12F
  8
1
 62
     7
 10
294.39018182955112
 20
-77.5
 30
0.0
 40
19.218773810563199
 50
73.283291686145091
 51
106.7167083138557
  0
ARC
  5
130
  8
1
 62
     7
 10
294.39018182955112
 20
0.0000000000000036
 30
0.0
 40
66.999999999999986
 50
300.00000000000011
 51
359.99999999999977
  0
ARC
  5
131
  8
1
 62
     7
 10
294.39018182955112
 20
0.0000000000000036
 30
0.0
 40
38.500000000000028
 50
262.70271808465191
 51
277.29728191534792
  0
ARC
  5
132
  8
1
 62
     7
 10
294.39018182955112
 20
0.0000000000000036
 30
0.0
 40
53.999999999999957
 50
185.0
 51
235.0
  0
ARC
  5
133
  8
1
 62
     7
 10
275.89018182955101
 20
-32.042939940024212
 30
0.0
 40
30.0
 50
239.99999999999989
 51
295.61978746556429
  0
ARC
  5
134
  8
1
 62
     7
 10
273.74143012091332
 20
-29.489473594403702
 30
0.0
 40
17.999999999999961
 50
235.00000000000011
 51
331.10141225526007
  0
ARC
  5
135
  8
1
 62
     7
 10
309.60443925221631
 20
32.627080333319377
 30
0.0
 40
17.99999999999994
 50
328.8985877447397
 51
65.000000000000256
  0
ARC
  5
136
  8
1
 62
     7
 10
312.89018182955112
 20
32.042939940024212
 30
0.0
 40
29.999999999999989
 50
4.3802125344356106
 51
60.0
  0
ARC
  5
137
  8
1
 62
     7
 10
294.39018182955112
 20
0.0000000000000036
 30
0.0
 40
66.999999999999986
 50
60.0
 51
119.9999999999999
  0
ARC
  5
138
  8
1
 62
     7
 10
294.39018182955112
 20
0.0000000000000036
 30
0.0
 40
38.499999999999957
 50
22.702718084651991
 51
37.297281915348059
  0
ARC
  5
139
  8
1
 62
     7
 10
294.39018182955112
 20
0.0000000000000036
 30
0.0
 40
53.999999999999972
 50
304.99999999999977
 51
354.99999999999977
  0
ARC
  5
13A
  8
1
 62
     7
 10
361.50715062284507
 20
38.749999999999957
 30
0.0
 40
19.218773810563199
 50
193.28329168614471
 51
226.71670831385529
  0
ARC
  5
13B
  8
1
 62
     7
 10
331.39018182955112
 20
-0.0000000000000497
 30
0.0
 40
30.0
 50
359.99999999999977
 51
55.619787465564421
  0
ARC
  5
13C
  8
1
 62
     7
 10
330.25319096085377
 20
-3.1376067389157392
 30
0.0
 40
18.000000000000011
 50
354.99999999999977
 51
91.101412255260186
  0
ARC
  5
13D
  8
1
 62
     7
 10
300.39018182955112
 20
82.0
 30
0.0
 40
2.0
 50
0.0
 51
90.0
  0
ARC
  5
13E
  8
1
 62
     7
 10
288.39018182955112
 20
82.0
 30
0.0
 40
2.0
 50
90.0
 51
180.0
  0
ARC
  5
13F
  8
1
 62
     7
 10
10.0
 20
60.350000000000009
 30
0.0
 40
7.0
 50
90.0
 51
180.0
  0
ARC
  5
140
  8
1
 62
     7
 10
10.0
 20
60.350000000000009
 30
0.0
 40
7.0
 50
180.0
 51
180.19745688095
  0
ARC
  5
141
  8
1
 62
     7
 10
121.6999999999998
 20
60.350000000000001
 30
0.0
 40
7.0000000000000071
 50
90.0
 51
180.0
  0
ARC
  5
142
  8
1
 62
     7
 10
121.6999999999998
 20
40.499999999999993
 30
0.0
 40
7.0
 50
180.0
 51
248.21321070173821
  0
ARC
  5
143
  8
1
 62
     7
 10
121.6999999999998
 20
-40.499999999999993
 30
0.0
 40
6.9999999999999956
 50
111.7867892982617
 51
180.0
  0
ARC
  5
144
  8
1
 62
     7
 10
-134.99842844184531
 20
82.0
 30
0.0
 40
2.0
 50
0.0
 51
90.0
  0
ARC
  5
145
  8
1
 62
     7
 10
-146.99842844184531
 20
82.0
 30
0.0
 40
2.0
 50
90.0
 51
180.0
  0
ARC
  5
146
  8
1
 62
     7
 10
-140.99842844184531
 20
0.0000000000000036
 30
0.0
 40
71.000000000000028
 50
107.0178741429602
 51
83.530398389657364
  0
ARC
  5
147
  8
1
 62
     7
 10
-140.99842844184531
 20
0.0000000000000036
 30
0.0
 40
52.500186881036527
 50
105.33498679390119
 51
74.665013206098891
  0
ARC
  5
148
  8
1
 62
     7
 10
-140.99842844184531
 20
0.0000000000000036
 30
0.0
 40
12.5
 50
108.6629248849424
 51
71.337075115057544
  0
ARC
  5
149
  8
1
 62
     7
 10
294.39018182955112
 20
0.0000000000000036
 30
0.0
 40
12.5
 50
108.6629248849424
 51
71.337075115057544
  0
ARC
  5
14A
  8
1
 62
     7
 10
-140.99842844184531
 20
0.0000000000000036
 30
0.0
 40
67.350000000000009
 50
96.821841234133871
 51
83.178158765866115
  0
ARC
  5
14B
  8
1
 62
     7
 10
-140.99842844184531
 20
0.0000000000000036
 30
0.0
 40
70.999999999999929
 50
96.46960161034265
 51
102.98212585704
  0
CIRCLE
  5
14C
  8
1
 62
     7
 10
122.1999999999999
 20
-27.0
 30
0.0
 40
4.200000000000002
  0
CIRCLE
  5
14D
  8
1
 62
     7
 10
122.1999999999999
 20
27.0
 30
0.0
 40
4.200000000000002
  0
CIRCLE
  5
14E
  8
1
 62
     7
 10
294.39018182955112
 20
0.0000000000000036
 30
0.0
 40
33.0
  0
CIRCLE
  5
14F
  8
1
 62
     7
 10
294.39018182955112
 20
0.0000000000000036
 30
0.0
 40
29.0
  0
CIRCLE
  5
150
  8
1
 62
     7
 10
294.39018182955112
 20
0.0000000000000036
 30
0.0
 40
70.999999999999901
  0
CIRCLE
  5
151
  8
1
 62
     7
 10
294.39018182955112
 20
60.5
 30
0.0
 40
5.0
  0
CIRCLE
  5
152
  8
1
 62
     7
 10
253.25397514979019
 20
23.75
 30
0.0
 40
6.5000000000000266
  0
CIRCLE
  5
153
  8
1
 62
     7
 10
253.25397514979019
 20
23.75
 30
0.0
 40
3.000000000000028
  0
CIRCLE
  5
154
  8
1
 62
     7
 10
253.25397514979019
 20
23.75
 30
0.0
 40
2.5
  0
CIRCLE
  5
155
  8
1
 62
     7
 10
241.99564490059251
 20
-30.249999999999989
 30
0.0
 40
5.0
  0
CIRCLE
  5
156
  8
1
 62
     7
 10
346.7847187585096
 20
-30.25000000000005
 30
0.0
 40
5.0
  0
CIRCLE
  5
157
  8
1
 62
     7
 10
294.39018182955112
 20
-47.5
 30
0.0
 40
6.5
  0
CIRCLE
  5
158
  8
1
 62
     7
 10
335.5263885093118
 20
23.749999999999961
 30
0.0
 40
6.5
  0
CIRCLE
  5
159
  8
1
 62
     7
 10
294.39018182955112
 20
-47.5
 30
0.0
 40
3.0
  0
CIRCLE
  5
15A
  8
1
 62
     7
 10
335.5263885093118
 20
23.749999999999961
 30
0.0
 40
3.0
  0
CIRCLE
  5
15B
  8
1
 62
     7
 10
294.39018182955112
 20
-47.5
 30
0.0
 40
2.5
  0
CIRCLE
  5
15C
  8
1
 62
     7
 10
335.5263885093118
 20
23.749999999999961
 30
0.0
 40
2.5
  0
CIRCLE
  5
15D
  8
1
 62
     7
 10
294.39018182955112
 20
0.0000000000000036
 30
0.0
 40
68.0
  0
CIRCLE
  5
15E
  8
1
 62
     7
 10
294.39018182955112
 20
78.0
 30
0.0
 40
3.25
  0
CIRCLE
  5
15F
  8
1
 62
     7
 10
-140.99842844184531
 20
78.0
 30
0.0
 40
3.25
  0
CIRCLE
  5
160
  8
1
 62
     7
 10
-140.99842844184531
 20
0.0000000000000036
 30
0.0
 40
30.75
  0
CIRCLE
  5
161
  8
1
 62
     7
 10
-140.99842844184531
 20
0.0000000000000036
 30
0.0
 40
22.50177837831869
  0
TEXT
  5
163
  8
1
 62
     7
 10
-150.46300773467951
 20
145.02888272879909
 30
0.0
 40
8.0
  1
VCE 5
 41
0.9
  7
SIMPLEX
  0
ENDSEC
  0
EOF
