  0
SECTION
  2
HEADER
  9
$ACADVER
  1
AC1009
  9
$INSBASE
 10
0.0
 20
0.0
 30
0.0
  9
$EXTMIN
 10
-199.535220897378
 20
-70.999999999999929
 30
0.0
  9
$EXTMAX
 10
220.61088388310839
 20
150.028882728799
 30
0.0
  9
$LIMMIN
 10
-199.535220897378
 20
-70.999999999999929
  9
$LIMMAX
 10
216.83718182955101
 20
150.028882728799
  9
$ORTHOMODE
 70
     0
  9
$REGENMODE
 70
     1
  9
$FILLMODE
 70
     1
  9
$QTEXTMODE
 70
     0
  9
$MIRRTEXT
 70
     1
  9
$DRAGMODE
 70
     2
  9
$LTSCALE
 40
1.0
  9
$OSMODE
 70
    37
  9
$ATTMODE
 70
     1
  9
$TEXTSIZE
 40
3.5
  9
$TRACEWID
 40
0.5
  9
$TEXTSTYLE
  7
STANDARD
  9
$CLAYER
  8
0
  9
$CELTYPE
  6
BYLAYER
  9
$CECOLOR
 62
   256
  9
$DIMSCALE
 40
1.0
  9
$DIMASZ
 40
0.18
  9
$DIMEXO
 40
0.0625
  9
$DIMDLI
 40
0.38
  9
$DIMRND
 40
0.0
  9
$DIMDLE
 40
0.0
  9
$DIMEXE
 40
0.18
  9
$DIMTP
 40
0.0
  9
$DIMTM
 40
0.0
  9
$DIMTXT
 40
0.18
  9
$DIMCEN
 40
0.09
  9
$DIMTSZ
 40
0.0
  9
$DIMTOL
 70
     0
  9
$DIMLIM
 70
     0
  9
$DIMTIH
 70
     1
  9
$DIMTOH
 70
     1
  9
$DIMSE1
 70
     0
  9
$DIMSE2
 70
     0
  9
$DIMTAD
 70
     0
  9
$DIMZIN
 70
     0
  9
$DIMBLK
  1

  9
$DIMASO
 70
     1
  9
$DIMSHO
 70
     1
  9
$DIMPOST
  1

  9
$DIMAPOST
  1

  9
$DIMALT
 70
     0
  9
$DIMALTD
 70
     2
  9
$DIMALTF
 40
25.399999999999999
  9
$DIMLFAC
 40
1.0
  9
$DIMTOFL
 70
     0
  9
$DIMTVP
 40
0.0
  9
$DIMTIX
 70
     0
  9
$DIMSOXD
 70
     0
  9
$DIMSAH
 70
     0
  9
$DIMBLK1
  1

  9
$DIMBLK2
  1

  9
$DIMSTYLE
  2
STANDARD
  9
$DIMCLRD
 70
     0
  9
$DIMCLRE
 70
     0
  9
$DIMCLRT
 70
     0
  9
$DIMTFAC
 40
1.0
  9
$DIMGAP
 40
0.09
  9
$LUNITS
 70
     2
  9
$LUPREC
 70
     4
  9
$SKETCHINC
 40
0.1
  9
$FILLETRAD
 40
2.0
  9
$AUNITS
 70
     0
  9
$AUPREC
 70
     0
  9
$MENU
  1
ACAD
  9
$ELEVATION
 40
0.0
  9
$PELEVATION
 40
0.0
  9
$THICKNESS
 40
0.0
  9
$LIMCHECK
 70
     0
  9
$BLIPMODE
 70
     0
  9
$CHAMFERA
 40
0.0
  9
$CHAMFERB
 40
0.0
  9
$SKPOLY
 70
     0
  9
$TDCREATE
 40
2452095.431642476
  9
$TDUPDATE
 40
2452095.432304861
  9
$TDINDWG
 40
0.0006706019
  9
$TDUSRTIMER
 40
0.0006706019
  9
$USRTIMER
 70
     1
  9
$ANGBASE
 50
0.0
  9
$ANGDIR
 70
     0
  9
$PDMODE
 70
     0
  9
$PDSIZE
 40
0.0
  9
$PLINEWID
 40
0.0
  9
$COORDS
 70
     1
  9
$SPLFRAME
 70
     0
  9
$SPLINETYPE
 70
     6
  9
$SPLINESEGS
 70
     8
  9
$ATTDIA
 70
     0
  9
$ATTREQ
 70
     1
  9
$HANDLING
 70
 10241
  9
$HANDSEED
  5
197
  9
$SURFTAB1
 70
     6
  9
$SURFTAB2
 70
     6
  9
$SURFTYPE
 70
     6
  9
$SURFU
 70
     6
  9
$SURFV
 70
     6
  9
$UCSNAME
  2

  9
$UCSORG
 10
0.0
 20
0.0
 30
0.0
  9
$UCSXDIR
 10
1.0
 20
0.0
 30
0.0
  9
$UCSYDIR
 10
0.0
 20
1.0
 30
0.0
  9
$PUCSNAME
  2

  9
$PUCSORG
 10
0.0
 20
0.0
 30
0.0
  9
$PUCSXDIR
 10
1.0
 20
0.0
 30
0.0
  9
$PUCSYDIR
 10
0.0
 20
1.0
 30
0.0
  9
$USERI1
 70
     0
  9
$USERI2
 70
     0
  9
$USERI3
 70
     0
  9
$USERI4
 70
     0
  9
$USERI5
 70
     0
  9
$USERR1
 40
0.0
  9
$USERR2
 40
0.0
  9
$USERR3
 40
0.0
  9
$USERR4
 40
0.0
  9
$USERR5
 40
0.0
  9
$WORLDVIEW
 70
     1
  9
$SHADEDGE
 70
     3
  9
$SHADEDIF
 70
    70
  9
$TILEMODE
 70
     1
  9
$MAXACTVP
 70
    64
  9
$PLIMCHECK
 70
     0
  9
$PEXTMIN
 10
1.0000000000000000E+020
 20
1.0000000000000000E+020
 30
1.0000000000000000E+020
  9
$PEXTMAX
 10
-1.0000000000000000E+020
 20
-1.0000000000000000E+020
 30
-1.0000000000000000E+020
  9
$PLIMMIN
 10
0.0
 20
0.0
  9
$PLIMMAX
 10
12.0
 20
9.0
  9
$UNITMODE
 70
     0
  9
$VISRETAIN
 70
     1
  9
$PLINEGEN
 70
     0
  9
$PSLTSCALE
 70
     1
  0
ENDSEC
  0
SECTION
  2
TABLES
  0
TABLE
  2
VPORT
 70
     2
  0
VPORT
  2
*ACTIVE
 70
     0
 10
0.0
 20
0.0
 11
1.0
 21
1.0
 12
-188.0473388796307
 22
142.37397045518409
 13
0.0
 23
0.0
 14
1.0
 24
1.0
 15
0.0
 25
0.0
 16
0.0
 26
0.0
 36
1.0
 17
0.0
 27
0.0
 37
0.0
 40
9.0000002927306468
 41
3.0569948186528491
 42
50.0
 43
0.0
 44
0.0
 50
0.0
 51
0.0
 71
     0
 72
   100
 73
     1
 74
     1
 75
     0
 76
     0
 77
     0
 78
     0
  0
ENDTAB
  0
TABLE
  2
LTYPE
 70
     9
  0
LTYPE
  2
CONTINUOUS
 70
     0
  3
Solid line
 72
    65
 73
     0
 40
0.0
  0
LTYPE
  2
BORDER
 70
     0
  3
__ __ . __ __ .
 72
    65
 73
     6
 40
19.175044862424372
 49
5.4785842464069621
 49
-2.739292123203481
 49
5.4785842464069621
 49
-2.739292123203481
 49
0.0
 49
-2.739292123203481
  0
LTYPE
  2
CENTER
 70
     0
  3
____ _ ____ _
 72
    65
 73
     4
 40
21.914336985627848
 49
13.696460616017401
 49
-2.739292123203481
 49
2.739292123203481
 49
-2.739292123203481
  0
LTYPE
  2
DASHDOT
 70
     0
  3
__ . __ . __ .
 72
    65
 73
     4
 40
10.957168492813921
 49
5.4785842464069621
 49
-2.739292123203481
 49
0.0
 49
-2.739292123203481
  0
LTYPE
  2
DASHED
 70
     0
  3
__ __ __ __ __
 72
    65
 73
     2
 40
8.2178763696104422
 49
5.4785842464069621
 49
-2.739292123203481
  0
LTYPE
  2
DIVIDE
 70
     0
  3
__ . . __ . . 
 72
    65
 73
     6
 40
13.696460616017401
 49
5.4785842464069621
 49
-2.739292123203481
 49
0.0
 49
-2.739292123203481
 49
0.0
 49
-2.739292123203481
  0
LTYPE
  2
DOT
 70
     0
  3
..............
 72
    65
 73
     4
 40
5.4785842464069621
 49
0.0
 49
-2.739292123203481
 49
0.0
 49
-2.739292123203481
  0
LTYPE
  2
HIDDEN
 70
     0
  3
_ _ _ _ _ _ _
 72
    65
 73
     2
 40
4.1089381848052211
 49
2.739292123203481
 49
-1.3696460616017401
  0
LTYPE
  2
PHANTOM
 70
     0
  3
_____ _ _ _____ _ _ 
 72
    65
 73
     6
 40
27.392921232034809
 49
13.696460616017401
 49
-2.739292123203481
 49
2.739292123203481
 49
-2.739292123203481
 49
2.739292123203481
 49
-2.739292123203481
  0
ENDTAB
  0
TABLE
  2
LAYER
 70
     2
  0
LAYER
  2
0
 70
     0
 62
     7
  6
CONTINUOUS
  0
LAYER
  2
1
 70
     0
 62
     7
  6
CONTINUOUS
  0
ENDTAB
  0
TABLE
  2
STYLE
 70
     4
  0
STYLE
  2
STANDARD
 70
     0
 40
0.0
 41
1.0
 50
0.0
 71
     0
 42
3.5
  3
txt
  4

  0
STYLE
  2
SIMPLEX
 70
     0
 40
0.0
 41
1.0
 50
0.0
 71
     0
 42
3.5
  3
simplex
  4

  0
STYLE
  2
COMPLEX
 70
     0
 40
0.0
 41
1.0
 50
0.0
 71
     0
 42
3.5
  3
complex
  4

  0
STYLE
  2
ITALIC
 70
     0
 40
0.0
 41
1.0
 50
0.0
 71
     0
 42
3.5
  3
italic
  4

  0
ENDTAB
  0
TABLE
  2
VIEW
 70
     0
  0
ENDTAB
  0
TABLE
  2
UCS
 70
     0
  0
ENDTAB
  0
TABLE
  2
APPID
 70
     1
  0
APPID
  2
ACAD
 70
     0
  0
ENDTAB
  0
TABLE
  2
DIMSTYLE
 70
     1
  0
DIMSTYLE
  2
STANDARD
 70
     0
  3

  4

  5

  6

  7

 40
1.0
 41
0.18
 42
0.0625
 43
0.38
 44
0.18
 45
0.0
 46
0.0
 47
0.0
 48
0.0
140
0.18
141
0.09
142
0.0
143
25.399999999999999
144
1.0
145
0.0
146
1.0
147
0.09
 71
     0
 72
     0
 73
     1
 74
     1
 75
     0
 76
     0
 77
     0
 78
     0
170
     0
171
     2
172
     0
173
     0
174
     0
175
     0
176
     0
177
     0
178
     0
  0
ENDTAB
  0
ENDSEC
  0
SECTION
  2
BLOCKS
  0
BLOCK
  8
0
  2
$MODEL_SPACE
 70
     0
 10
0.0
 20
0.0
 30
0.0
  3
$MODEL_SPACE
  1

  0
ENDBLK
  5
20
  8
0
  0
BLOCK
 67
     1
  8
0
  2
$PAPER_SPACE
 70
     0
 10
0.0
 20
0.0
 30
0.0
  3
$PAPER_SPACE
  1

  0
ENDBLK
  5
1C
 67
     1
  8
0
  0
ENDSEC
  0
SECTION
  2
ENTITIES
  0
LINE
  5
33
  8
1
 62
     7
 10
-134.76780877513229
 20
-54.0
 30
0.0
 11
-134.76780877513229
 21
52.999999999999972
 31
0.0
  0
LINE
  5
34
  8
1
 62
     7
 10
2.2169999999998979
 20
-45.09999999999998
 30
0.0
 11
2.2169999999998979
 21
-31.0
 31
0.0
  0
LINE
  5
35
  8
1
 62
     7
 10
10.716999999999899
 20
12.5
 30
0.0
 11
28.716999999999889
 21
12.5
 31
0.0
  0
LINE
  5
36
  8
1
 62
     7
 10
10.716999999999899
 20
-12.5
 30
0.0
 11
28.716999999999889
 21
-12.5
 31
0.0
  0
LINE
  5
37
  8
1
 62
     7
 10
-23.283000000000079
 20
-13.0
 30
0.0
 11
10.716999999999899
 21
-13.0
 31
0.0
  0
LINE
  5
38
  8
1
 62
     7
 10
-23.283000000000079
 20
13.0
 30
0.0
 11
-23.283000000000079
 21
-13.0
 31
0.0
  0
LINE
  5
39
  8
1
 62
     7
 10
10.716999999999899
 20
13.0
 30
0.0
 11
-23.283000000000079
 21
13.0
 31
0.0
  0
LINE
  5
3A
  8
1
 62
     7
 10
10.716999999999899
 20
-13.0
 30
0.0
 11
10.716999999999899
 21
13.0
 31
0.0
  0
LINE
  5
3B
  8
1
 62
     7
 10
-7.7830000000001007
 20
-23.5
 30
0.0
 11
-7.7830000000001007
 21
-28.999999999999869
 31
0.0
  0
LINE
  5
3C
  8
1
 62
     7
 10
-45.783041568743393
 20
84.0
 30
0.0
 11
-45.783041568743393
 21
33.5
 31
0.0
  0
LINE
  5
3D
  8
1
 62
     7
 10
-47.783041568743393
 20
84.0
 30
0.0
 11
-47.783041568743393
 21
-52.5
 31
0.0
  0
LINE
  5
3E
  8
1
 62
     7
 10
-13.983000000000199
 20
-33.499999999999993
 30
0.0
 11
-13.983000000000199
 21
-67.850000000000023
 31
0.0
  0
LINE
  5
3F
  8
1
 62
     7
 10
-24.083000000000201
 20
-33.499999999999993
 30
0.0
 11
-24.083000000000201
 21
-25.499999999999879
 31
0.0
  0
LINE
  5
40
  8
1
 62
     7
 10
-24.083000000000201
 20
-67.850000000000023
 30
0.0
 11
-24.083000000000201
 21
-70.999999999999901
 31
0.0
  0
LINE
  5
41
  8
1
 62
     7
 10
-13.983000000000199
 20
33.5
 30
0.0
 11
-13.983000000000199
 21
67.850000000000023
 31
0.0
  0
LINE
  5
42
  8
1
 62
     7
 10
-41.283000000000087
 20
12.5
 30
0.0
 11
-23.283000000000079
 21
12.5
 31
0.0
  0
LINE
  5
43
  8
1
 62
     7
 10
-41.283000000000087
 20
15.800000000000001
 30
0.0
 11
28.716999999999889
 21
15.800000000000001
 31
0.0
  0
LINE
  5
44
  8
1
 62
     7
 10
-41.283000000000087
 20
-12.5
 30
0.0
 11
-23.283000000000079
 21
-12.5
 31
0.0
  0
LINE
  5
45
  8
1
 62
     7
 10
-47.783041568743393
 20
74.75
 30
0.0
 11
-45.783041568743393
 21
74.75
 31
0.0
  0
LINE
  5
46
  8
1
  6
DASHDOT
 62
     3
 10
-48.905679475684103
 20
78.0
 30
0.0
 11
-44.299924080000601
 21
78.0
 31
0.0
  0
LINE
  5
47
  8
1
 62
     7
 10
-47.783041568743393
 20
81.25
 30
0.0
 11
-45.783041568743393
 21
81.25
 31
0.0
  0
LINE
  5
48
  8
1
 62
     7
 10
-47.783041568743393
 20
84.0
 30
0.0
 11
-45.783041568743393
 21
84.0
 31
0.0
  0
LINE
  5
49
  8
1
 62
     7
 10
-47.783041568743393
 20
30.75
 30
0.0
 11
-45.783041568743393
 21
30.75
 31
0.0
  0
LINE
  5
4A
  8
1
 62
     7
 10
-47.783041568743393
 20
-30.749999999999989
 30
0.0
 11
-45.783041568743393
 21
-30.749999999999989
 31
0.0
  0
LINE
  5
4B
  8
1
 62
     7
 10
-47.783041568743393
 20
-52.5
 30
0.0
 11
-45.783041568743393
 21
-52.5
 31
0.0
  0
LINE
  5
4C
  8
1
 62
     7
 10
-16.983000000000111
 20
-67.350000000000023
 30
0.0
 11
-38.7830415687434
 21
-67.350000000000023
 31
0.0
  0
LINE
  5
4D
  8
1
 62
     7
 10
-16.983000000000111
 20
-33.999999999999993
 30
0.0
 11
-16.983000000000111
 21
-67.350000000000023
 31
0.0
  0
LINE
  5
4E
  8
1
 62
     7
 10
-16.983000000000111
 20
-33.999999999999993
 30
0.0
 11
-24.68300000000011
 21
-33.999999999999993
 31
0.0
  0
LINE
  5
4F
  8
1
 62
     7
 10
-24.68300000000011
 20
34.0
 30
0.0
 11
-16.983000000000111
 21
34.0
 31
0.0
  0
LINE
  5
50
  8
1
 62
     7
 10
-16.983000000000111
 20
67.350000000000023
 30
0.0
 11
-16.983000000000111
 21
34.0
 31
0.0
  0
LINE
  5
51
  8
1
 62
     7
 10
-38.7830415687434
 20
67.349999999999994
 30
0.0
 11
-16.983000000000111
 21
67.350000000000023
 31
0.0
  0
LINE
  5
52
  8
1
 62
     7
 10
-26.283000000000101
 20
25.500000000000011
 30
0.0
 11
-24.083000000000201
 21
25.500000000000011
 31
0.0
  0
LINE
  5
53
  8
1
 62
     7
 10
-24.083000000000201
 20
25.500000000000011
 30
0.0
 11
-24.083000000000201
 21
33.5
 31
0.0
  0
LINE
  5
54
  8
1
 62
     7
 10
-24.083000000000201
 20
33.5
 30
0.0
 11
-13.983000000000199
 21
33.5
 31
0.0
  0
LINE
  5
55
  8
1
 62
     7
 10
-13.983000000000199
 20
67.850000000000023
 30
0.0
 11
-24.083000000000201
 21
67.850000000000023
 31
0.0
  0
LINE
  5
56
  8
1
 62
     7
 10
-11.103725942163811
 20
71.000000000000014
 30
0.0
 11
-9.0830000000001956
 21
67.500000000000014
 31
0.0
  0
LINE
  5
57
  8
1
 62
     7
 10
-9.0830000000001956
 20
67.500000000000014
 30
0.0
 11
-7.5830000000001956
 21
67.500000000000014
 31
0.0
  0
LINE
  5
58
  8
1
 62
     7
 10
-9.5830000000001956
 20
33.5
 30
0.0
 11
-7.5830000000001956
 21
33.5
 31
0.0
  0
LINE
  5
59
  8
1
 62
     7
 10
-9.5830000000001956
 20
33.5
 30
0.0
 11
-9.5830000000001956
 21
29.0
 31
0.0
  0
LINE
  5
5A
  8
1
 62
     7
 10
-24.083000000000201
 20
71.000000000000014
 30
0.0
 11
-24.083000000000201
 21
67.850000000000023
 31
0.0
  0
LINE
  5
5B
  8
1
 62
     7
 10
-24.083000000000201
 20
71.000000000000014
 30
0.0
 11
-11.103725942163811
 21
71.000000000000014
 31
0.0
  0
LINE
  5
5C
  8
1
 62
     7
 10
-26.283000000000101
 20
29.5
 30
0.0
 11
-24.68300000000011
 21
29.5
 31
0.0
  0
LINE
  5
5D
  8
1
 62
     7
 10
-24.68300000000011
 20
35.5
 30
0.0
 11
-24.68300000000011
 21
28.245999999999889
 31
0.0
  0
LINE
  5
5E
  8
1
 62
     7
 10
-24.68300000000011
 20
35.5
 30
0.0
 11
-26.283000000000101
 21
35.5
 31
0.0
  0
LINE
  5
5F
  8
1
 62
     7
 10
-26.283000000000101
 20
-35.499999999999879
 30
0.0
 11
-24.68300000000011
 21
-35.5
 31
0.0
  0
LINE
  5
60
  8
1
 62
     7
 10
-24.68300000000011
 20
-28.245999999999881
 30
0.0
 11
-24.68300000000011
 21
-35.5
 31
0.0
  0
LINE
  5
61
  8
1
 62
     7
 10
-24.68300000000011
 20
-29.499999999999879
 30
0.0
 11
-26.283000000000101
 21
-29.499999999999879
 31
0.0
  0
LINE
  5
62
  8
1
 62
     7
 10
-11.103725942163811
 20
-70.999999999999901
 30
0.0
 11
-24.083000000000201
 21
-70.999999999999901
 31
0.0
  0
LINE
  5
63
  8
1
 62
     7
 10
-7.7830000000001007
 20
29.0
 30
0.0
 11
-7.7830000000001007
 21
23.499999999999961
 31
0.0
  0
LINE
  5
64
  8
1
 62
     7
 10
-9.5830000000001139
 20
-28.999999999999979
 30
0.0
 11
-9.5830000000001956
 21
-33.499999999999893
 31
0.0
  0
LINE
  5
65
  8
1
 62
     7
 10
-7.5830000000001956
 20
-33.499999999999879
 30
0.0
 11
-9.5830000000001956
 21
-33.499999999999893
 31
0.0
  0
LINE
  5
66
  8
1
 62
     7
 10
-7.7830000000001007
 20
-28.999999999999869
 30
0.0
 11
-9.5830000000001139
 21
-28.999999999999979
 31
0.0
  0
LINE
  5
67
  8
1
 62
     7
 10
-7.5830000000001956
 20
-67.499999999999901
 30
0.0
 11
-9.0830000000001956
 21
-67.499999999999901
 31
0.0
  0
LINE
  5
68
  8
1
 62
     7
 10
-9.0830000000001956
 20
-67.499999999999901
 30
0.0
 11
-11.103725942163811
 21
-70.999999999999901
 31
0.0
  0
LINE
  5
69
  8
1
 62
     7
 10
-24.083000000000201
 20
-67.850000000000023
 30
0.0
 11
-13.983000000000199
 21
-67.850000000000023
 31
0.0
  0
LINE
  5
6A
  8
1
 62
     7
 10
-13.983000000000199
 20
-33.499999999999993
 30
0.0
 11
-24.083000000000201
 21
-33.499999999999993
 31
0.0
  0
LINE
  5
6B
  8
1
 62
     7
 10
-24.083000000000201
 20
-25.499999999999879
 30
0.0
 11
-26.283000000000101
 21
-25.499999999999879
 31
0.0
  0
LINE
  5
6C
  8
1
 62
     7
 10
-9.5830000000001956
 20
29.0
 30
0.0
 11
-7.7830000000001007
 21
29.0
 31
0.0
  0
LINE
  5
6D
  8
1
 62
     7
 10
-24.68300000000011
 20
35.5
 30
0.0
 11
-26.283000000000101
 21
35.5
 31
0.0
  0
LINE
  5
6E
  8
1
  6
DASHDOT
 62
     3
 10
-47.783041568743393
 20
0.0000000000000036
 30
0.0
 11
-52.783041568743393
 21
0.0
 31
0.0
  0
LINE
  5
6F
  8
1
 62
     7
 10
-24.68300000000011
 20
-35.5
 30
0.0
 11
-26.283000000000101
 21
-35.499999999999879
 31
0.0
  0
LINE
  5
70
  8
1
 62
     7
 10
-148.588534717296
 20
-70.999999999999901
 30
0.0
 11
-148.588534717296
 21
71.0
 31
0.0
  0
LINE
  5
71
  8
1
 62
     7
 10
-146.56780877513239
 20
67.5
 30
0.0
 11
-146.56780877513239
 21
-67.499999999999901
 31
0.0
  0
LINE
  5
72
  8
1
 62
     7
 10
-144.56780877513239
 20
-67.499999999999901
 30
0.0
 11
-144.56780877513239
 21
67.5
 31
0.0
  0
LINE
  5
73
  8
1
 62
     7
 10
-175.76780877513221
 20
67.350000000000023
 30
0.0
 11
-161.06780877513239
 21
67.350000000000023
 31
0.0
  0
LINE
  5
74
  8
1
 62
     7
 10
-184.76780877513221
 20
84.0
 30
0.0
 11
-182.76780877513229
 21
84.0
 31
0.0
  0
LINE
  5
75
  8
1
 62
     7
 10
-184.76780877513221
 20
-52.5
 30
0.0
 11
-182.76780877513229
 21
-52.5
 31
0.0
  0
LINE
  5
76
  8
1
 62
     7
 10
-175.76780877513221
 20
-67.350000000000023
 30
0.0
 11
-161.06780877513239
 21
-67.350000000000023
 31
0.0
  0
LINE
  5
77
  8
1
 62
     7
 10
-148.588534717296
 20
71.0
 30
0.0
 11
-146.56780877513239
 21
67.5
 31
0.0
  0
LINE
  5
78
  8
1
 62
     7
 10
-146.56780877513239
 20
67.5
 30
0.0
 11
-144.56780877513239
 21
67.5
 31
0.0
  0
LINE
  5
79
  8
1
 62
     7
 10
-161.06780877513239
 20
71.0
 30
0.0
 11
-148.588534717296
 21
71.0
 31
0.0
  0
LINE
  5
7A
  8
1
 62
     7
 10
-148.588534717296
 20
-70.999999999999901
 30
0.0
 11
-161.06780877513239
 21
-70.999999999999901
 31
0.0
  0
LINE
  5
7B
  8
1
 62
     7
 10
-161.06780877513239
 20
-70.999999999999901
 30
0.0
 11
-161.06780877513239
 21
71.0
 31
0.0
  0
LINE
  5
7C
  8
1
 62
     7
 10
-144.56780877513239
 20
-67.499999999999901
 30
0.0
 11
-146.56780877513239
 21
-67.499999999999901
 31
0.0
  0
LINE
  5
7D
  8
1
 62
     7
 10
-146.56780877513239
 20
-67.499999999999901
 30
0.0
 11
-148.588534717296
 21
-70.999999999999901
 31
0.0
  0
LINE
  5
7E
  8
1
 62
     7
 10
-184.76780877513221
 20
84.0
 30
0.0
 11
-184.76780877513221
 21
-52.5
 31
0.0
  0
LINE
  5
7F
  8
1
  6
DASHDOT
 62
     3
 10
-184.76780877513221
 20
0.0
 30
0.0
 11
-189.76780877513229
 21
0.0
 31
0.0
  0
LINE
  5
80
  8
1
  6
DASHDOT
 62
     3
 10
-185.89044668207299
 20
78.0
 30
0.0
 11
-181.28469128638949
 21
78.0
 31
0.0
  0
LINE
  5
81
  8
1
 62
     7
 10
-7.5830000000001956
 20
-67.499999999999901
 30
0.0
 11
-7.5830000000001956
 21
-31.887007831023102
 31
0.0
  0
LINE
  5
82
  8
1
 62
     7
 10
-26.283000000000101
 20
-35.499999999999879
 30
0.0
 11
-26.283000000000101
 21
-19.999999999999989
 31
0.0
  0
LINE
  5
83
  8
1
 62
     7
 10
-41.283000000000087
 20
-19.999999999999989
 30
0.0
 11
-26.283000000000101
 21
-19.999999999999989
 31
0.0
  0
LINE
  5
84
  8
1
 62
     7
 10
-26.283000000000101
 20
35.5
 30
0.0
 11
-26.283000000000101
 21
20.000000000000011
 31
0.0
  0
LINE
  5
85
  8
1
 62
     7
 10
-26.283000000000101
 20
20.000000000000011
 30
0.0
 11
-41.283000000000087
 21
20.000000000000011
 31
0.0
  0
LINE
  5
86
  8
1
 62
     7
 10
-41.38111778009668
 20
34.0
 30
0.0
 11
-26.283000000000101
 21
34.0
 31
0.0
  0
LINE
  5
87
  8
1
 62
     7
 10
-7.5830000000001956
 20
67.500000000000014
 30
0.0
 11
-7.5830000000001956
 21
31.887007831023109
 31
0.0
  0
LINE
  5
88
  8
1
 62
     7
 10
-182.76780877513229
 20
84.0
 30
0.0
 11
-182.76780877513229
 21
-60.325876138829258
 31
0.0
  0
LINE
  5
89
  8
1
 62
     7
 10
-35.995487288099199
 20
23.429999999999989
 30
0.0
 11
-41.283000000000087
 21
23.429999999999989
 31
0.0
  0
LINE
  5
8A
  8
1
 62
     7
 10
-31.57051271190101
 20
23.429999999999989
 30
0.0
 11
-26.283000000000101
 21
23.429999999999989
 31
0.0
  0
LINE
  5
8B
  8
1
 62
     7
 10
-35.995487288099199
 20
30.57
 30
0.0
 11
-41.283000000000087
 21
30.57
 31
0.0
  0
LINE
  5
8C
  8
1
 62
     7
 10
-31.57051271190101
 20
30.57
 30
0.0
 11
-26.283000000000101
 21
30.57
 31
0.0
  0
LINE
  5
8D
  8
1
 62
     7
 10
-27.933000000000099
 20
31.427500000000009
 30
0.0
 11
-27.933000000000099
 21
22.572500000000002
 31
0.0
  0
LINE
  5
8E
  8
1
 62
     7
 10
-39.633000000000102
 20
31.427500000000009
 30
0.0
 11
-39.633000000000102
 21
22.572500000000002
 31
0.0
  0
LINE
  5
8F
  8
1
 62
     7
 10
-35.995487288099199
 20
-23.429999999999989
 30
0.0
 11
-41.283000000000087
 21
-23.429999999999989
 31
0.0
  0
LINE
  5
90
  8
1
 62
     7
 10
-31.57051271190101
 20
-23.429999999999989
 30
0.0
 11
-26.283000000000101
 21
-23.429999999999989
 31
0.0
  0
LINE
  5
91
  8
1
 62
     7
 10
-35.995487288099199
 20
-30.57
 30
0.0
 11
-41.283000000000087
 21
-30.57
 31
0.0
  0
LINE
  5
92
  8
1
 62
     7
 10
-31.57051271190101
 20
-30.57
 30
0.0
 11
-26.283000000000101
 21
-30.57
 31
0.0
  0
LINE
  5
93
  8
1
 62
     7
 10
-27.933000000000099
 20
-31.427499999999991
 30
0.0
 11
-27.933000000000099
 21
-22.572499999999991
 31
0.0
  0
LINE
  5
94
  8
1
 62
     7
 10
-39.633000000000102
 20
-31.427499999999991
 30
0.0
 11
-39.633000000000102
 21
-22.572499999999991
 31
0.0
  0
LINE
  5
95
  8
1
 62
     7
 10
-1.683000000000106
 20
-44.5
 30
0.0
 11
12.01699999999988
 21
-44.5
 31
0.0
  0
LINE
  5
96
  8
1
 62
     3
 10
-0.8437695154588027
 20
-44.5
 30
0.0
 11
-0.8437695154588027
 21
-50.5
 31
0.0
  0
LINE
  5
97
  8
1
 62
     3
 10
-0.8437695154588027
 20
-49.899999999999977
 30
0.0
 11
-1.683000000000106
 21
-50.384529946162033
 31
0.0
  0
LINE
  5
98
  8
1
 62
     3
 10
12.6169999999999
 20
-49.899999999999977
 30
0.0
 11
-0.8437695154588027
 21
-49.899999999999977
 31
0.0
  0
LINE
  5
99
  8
1
 62
     3
 10
-0.8437695154588027
 20
-45.09999999999998
 30
0.0
 11
-1.683000000000106
 21
-44.615470053837932
 31
0.0
  0
LINE
  5
9A
  8
1
 62
     3
 10
12.6169999999999
 20
-45.09999999999998
 30
0.0
 11
-0.8437695154588027
 21
-45.09999999999998
 31
0.0
  0
LINE
  5
9B
  8
1
 62
     7
 10
12.01699999999988
 20
-44.5
 30
0.0
 11
12.01699999999988
 21
-50.5
 31
0.0
  0
LINE
  5
9C
  8
1
 62
     7
 10
12.01699999999988
 20
-50.5
 30
0.0
 11
-1.683000000000106
 21
-50.5
 31
0.0
  0
LINE
  5
9D
  8
1
 62
     7
 10
12.6169999999999
 20
-49.899999999999977
 30
0.0
 11
12.01699999999988
 21
-50.5
 31
0.0
  0
LINE
  5
9E
  8
1
 62
     7
 10
12.6169999999999
 20
-45.09999999999998
 30
0.0
 11
12.6169999999999
 21
-49.899999999999977
 31
0.0
  0
LINE
  5
9F
  8
1
 62
     7
 10
12.01699999999988
 20
-44.5
 30
0.0
 11
12.6169999999999
 21
-45.09999999999998
 31
0.0
  0
LINE
  5
A0
  8
1
 62
     7
 10
-6.5830000000001121
 20
-44.5
 30
0.0
 11
-6.5830000000001121
 21
-50.5
 31
0.0
  0
LINE
  5
A1
  8
1
 62
     7
 10
-2.383000000000095
 20
-52.75
 30
0.0
 11
-2.383000000000095
 21
-42.25
 31
0.0
  0
LINE
  5
A2
  8
1
 62
     7
 10
-2.883000000000095
 20
-52.75
 30
0.0
 11
-2.383000000000095
 21
-52.75
 31
0.0
  0
LINE
  5
A3
  8
1
 62
     7
 10
-2.883000000000095
 20
-42.25
 30
0.0
 11
-2.883000000000095
 21
-52.75
 31
0.0
  0
LINE
  5
A4
  8
1
 62
     7
 10
-2.383000000000095
 20
-42.25
 30
0.0
 11
-2.883000000000095
 21
-42.25
 31
0.0
  0
LINE
  5
A5
  8
1
 62
     7
 10
-2.383000000000095
 20
-42.5
 30
0.0
 11
-1.683000000000106
 21
-42.5
 31
0.0
  0
LINE
  5
A6
  8
1
 62
     7
 10
-1.683000000000106
 20
-52.5
 30
0.0
 11
-2.383000000000095
 21
-52.5
 31
0.0
  0
LINE
  5
A7
  8
1
 62
     7
 10
-144.36780877513229
 20
68.0
 30
0.0
 11
-139.4678087751322
 21
68.0
 31
0.0
  0
LINE
  5
A8
  8
1
 62
     7
 10
-139.4678087751322
 20
47.5
 30
0.0
 11
-138.6678087751321
 21
47.5
 31
0.0
  0
LINE
  5
A9
  8
1
 62
     7
 10
-138.6678087751321
 20
47.5
 30
0.0
 11
-138.6678087751321
 21
-66.536725737242591
 31
0.0
  0
LINE
  5
AA
  8
1
 62
     7
 10
-139.4678087751322
 20
-68.0
 30
0.0
 11
-144.36780877513229
 21
-68.0
 31
0.0
  0
LINE
  5
AB
  8
1
 62
     7
 10
-144.36780877513229
 20
-68.0
 30
0.0
 11
-144.36780877513229
 21
68.0
 31
0.0
  0
LINE
  5
AC
  8
1
 62
     7
 10
-135.6678087751321
 20
65.0
 30
0.0
 11
-135.6678087751321
 21
56.0
 31
0.0
  0
LINE
  5
AD
  8
1
 62
     7
 10
-138.4678087751322
 20
55.5
 30
0.0
 11
-136.1678087751321
 21
55.5
 31
0.0
  0
LINE
  5
AE
  8
1
 62
     7
 10
-138.4678087751322
 20
65.5
 30
0.0
 11
-136.1678087751321
 21
65.5
 31
0.0
  0
LINE
  5
AF
  8
1
 62
     7
 10
-138.4678087751322
 20
66.5
 30
0.0
 11
-138.4678087751322
 21
50.617293143642492
 31
0.0
  0
LINE
  5
B0
  8
1
 62
     7
 10
-139.4678087751322
 20
66.5
 30
0.0
 11
-138.4678087751322
 21
66.5
 31
0.0
  0
LINE
  5
B1
  8
1
 62
     7
 10
-137.76780877513229
 20
65.5
 30
0.0
 11
-137.76780877513229
 21
55.5
 31
0.0
  0
LINE
  5
B2
  8
1
 62
     7
 10
-136.1678087751321
 20
65.5
 30
0.0
 11
-135.6678087751321
 21
65.0
 31
0.0
  0
LINE
  5
B3
  8
1
 62
     7
 10
-136.1678087751321
 20
55.5
 30
0.0
 11
-135.6678087751321
 21
56.0
 31
0.0
  0
LINE
  5
B4
  8
1
 62
     7
 10
-139.4678087751322
 20
50.48564064605511
 30
0.0
 11
-138.6678087751321
 21
47.5
 31
0.0
  0
LINE
  5
B5
  8
1
 62
     7
 10
-138.4678087751322
 20
50.617293143642492
 30
0.0
 11
-137.6678087751321
 21
47.631652497587368
 31
0.0
  0
LINE
  5
B6
  8
1
 62
     7
 10
-138.6678087751321
 20
-66.536725737242591
 30
0.0
 11
-137.6678087751321
 21
-66.536725737242591
 31
0.0
  0
LINE
  5
B7
  8
1
 62
     7
 10
-139.4678087751322
 20
-68.0
 30
0.0
 11
-139.4678087751322
 21
68.0
 31
0.0
  0
LINE
  5
B8
  8
1
 62
     7
 10
-137.6678087751321
 20
-66.536725737242591
 30
0.0
 11
-137.6678087751321
 21
47.631652497587368
 31
0.0
  0
LINE
  5
B9
  8
1
 62
     7
 10
-137.6678087751321
 20
-41.0
 30
0.0
 11
-134.76780877513229
 21
-41.0
 31
0.0
  0
LINE
  5
BA
  8
1
 62
     7
 10
-137.6678087751321
 20
-54.0
 30
0.0
 11
-134.76780877513229
 21
-54.0
 31
0.0
  0
LINE
  5
BB
  8
1
 62
     7
 10
-7.3830000000002078
 20
68.0
 30
0.0
 11
-7.3830000000002078
 21
31.887007831023109
 31
0.0
  0
LINE
  5
BC
  8
1
 62
     7
 10
-7.3830000000002078
 20
68.0
 30
0.0
 11
-2.4830000000001178
 21
68.0
 31
0.0
  0
LINE
  5
BD
  8
1
 62
     7
 10
-2.4830000000001178
 20
68.0
 30
0.0
 11
-2.4830000000001178
 21
47.5
 31
0.0
  0
LINE
  5
BE
  8
1
 62
     7
 10
-2.4830000000001178
 20
47.5
 30
0.0
 11
-1.683000000000106
 21
47.5
 31
0.0
  0
LINE
  5
BF
  8
1
 62
     7
 10
-7.3830000000002078
 20
33.0
 30
0.0
 11
-1.683000000000106
 21
33.0
 31
0.0
  0
LINE
  5
C0
  8
1
 62
     7
 10
-1.683000000000106
 20
-33.0
 30
0.0
 11
-7.3830000000002078
 21
-33.0
 31
0.0
  0
LINE
  5
C1
  8
1
 62
     7
 10
-1.683000000000106
 20
47.5
 30
0.0
 11
-1.683000000000106
 21
31.887007831023109
 31
0.0
  0
LINE
  5
C2
  8
1
 62
     7
 10
-2.4830000000001178
 20
-68.0
 30
0.0
 11
-7.3830000000002078
 21
-68.0
 31
0.0
  0
LINE
  5
C3
  8
1
 62
     7
 10
1.316999999999894
 20
65.0
 30
0.0
 11
1.316999999999894
 21
56.0
 31
0.0
  0
LINE
  5
C4
  8
1
 62
     7
 10
-1.4830000000001169
 20
55.5
 30
0.0
 11
0.8169999999998935
 21
55.5
 31
0.0
  0
LINE
  5
C5
  8
1
 62
     7
 10
-1.4830000000001169
 20
65.5
 30
0.0
 11
0.8169999999998935
 21
65.5
 31
0.0
  0
LINE
  5
C6
  8
1
 62
     7
 10
-2.4830000000001178
 20
66.5
 30
0.0
 11
-1.4830000000001169
 21
66.5
 31
0.0
  0
LINE
  5
C7
  8
1
 62
     7
 10
-0.7830000000001008
 20
65.5
 30
0.0
 11
-0.7830000000001008
 21
55.5
 31
0.0
  0
LINE
  5
C8
  8
1
 62
     7
 10
0.8169999999998935
 20
65.5
 30
0.0
 11
1.316999999999894
 21
65.0
 31
0.0
  0
LINE
  5
C9
  8
1
 62
     7
 10
0.8169999999998935
 20
55.5
 30
0.0
 11
1.316999999999894
 21
56.0
 31
0.0
  0
LINE
  5
CA
  8
1
 62
     7
 10
-2.4241414465515141
 20
54.5
 30
0.0
 11
-1.4830000000001169
 21
54.5
 31
0.0
  0
LINE
  5
CB
  8
1
 62
     7
 10
-1.4830000000001169
 20
66.5
 30
0.0
 11
-1.4830000000001169
 21
50.617293143642421
 31
0.0
  0
LINE
  5
CC
  8
1
 62
     7
 10
-2.4830000000001178
 20
50.48564064605511
 30
0.0
 11
-1.683000000000106
 21
47.5
 31
0.0
  0
LINE
  5
CD
  8
1
 62
     7
 10
-1.4830000000001169
 20
50.617293143642421
 30
0.0
 11
-0.6830000000001064
 21
47.631652497587368
 31
0.0
  0
LINE
  5
CE
  8
1
 62
     7
 10
-1.683000000000106
 20
-66.536725737242591
 30
0.0
 11
-0.6830000000001064
 21
-66.536725737242591
 31
0.0
  0
LINE
  5
CF
  8
1
 62
     7
 10
-1.683000000000191
 20
-38.5
 30
0.0
 11
-0.6830000000001917
 21
-38.5
 31
0.0
  0
LINE
  5
D0
  8
1
 62
     7
 10
-7.3830000000002078
 20
-41.5
 30
0.0
 11
-1.683000000000106
 21
-41.5
 31
0.0
  0
LINE
  5
D1
  8
1
 62
     7
 10
-7.3830000000002078
 20
-53.5
 30
0.0
 11
-2.4830000000001178
 21
-53.5
 31
0.0
  0
LINE
  5
D2
  8
1
 62
     7
 10
-2.4830000000001178
 20
-53.5
 30
0.0
 11
-2.4830000000001178
 21
-68.0
 31
0.0
  0
LINE
  5
D3
  8
1
 62
     7
 10
-0.6830000000001064
 20
-50.5
 30
0.0
 11
-0.6830000000001064
 21
-66.536725737242591
 31
0.0
  0
LINE
  5
D4
  8
1
 62
     7
 10
-0.6830000000001064
 20
-41.0
 30
0.0
 11
2.2169999999998979
 21
-41.0
 31
0.0
  0
LINE
  5
D5
  8
1
 62
     7
 10
-0.6830000000001064
 20
47.631652497587368
 30
0.0
 11
-0.6830000000001064
 21
31.887007831023109
 31
0.0
  0
LINE
  5
D6
  8
1
 62
     7
 10
2.2169999999998979
 20
-49.899999999999977
 30
0.0
 11
2.2169999999998979
 21
-54.0
 31
0.0
  0
LINE
  5
D7
  8
1
 62
     7
 10
-0.6830000000001064
 20
-54.0
 30
0.0
 11
2.2169999999998979
 21
-54.0
 31
0.0
  0
LINE
  5
D8
  8
1
 62
     7
 10
-1.683000000000191
 20
-58.281226189436723
 30
0.0
 11
-0.6830000000001917
 21
-58.281226189436779
 31
0.0
  0
LINE
  5
D9
  8
1
 62
     7
 10
-139.4678087751322
 20
-52.5
 30
0.0
 11
-138.6678087751321
 21
-52.5
 31
0.0
  0
LINE
  5
DA
  8
1
 62
     7
 10
-123.7678087751322
 20
52.999999999999972
 30
0.0
 11
-123.7678087751322
 21
-53.0
 31
0.0
  0
LINE
  5
DB
  8
1
 62
     7
 10
-111.2678087751322
 20
35.999999999999957
 30
0.0
 11
-111.2678087751322
 21
-36.0
 31
0.0
  0
LINE
  5
DC
  8
1
 62
     7
 10
-109.6678087751324
 20
-23.59999999999998
 30
0.0
 11
-111.2678087751322
 21
-23.59999999999998
 31
0.0
  0
LINE
  5
DD
  8
1
 62
     7
 10
-109.6678087751324
 20
23.59999999999998
 30
0.0
 11
-109.6678087751324
 21
-23.59999999999998
 31
0.0
  0
LINE
  5
DE
  8
1
 62
     7
 10
-109.6678087751324
 20
-20.0
 30
0.0
 11
-108.2678087751322
 21
-20.0
 31
0.0
  0
LINE
  5
DF
  8
1
 62
     7
 10
-111.2678087751322
 20
23.59999999999998
 30
0.0
 11
-109.6678087751324
 21
23.59999999999998
 31
0.0
  0
LINE
  5
E0
  8
1
 62
     7
 10
-109.6678087751324
 20
19.999999999999961
 30
0.0
 11
-108.2678087751322
 21
19.999999999999961
 31
0.0
  0
LINE
  5
E1
  8
1
 62
     7
 10
-108.2678087751322
 20
19.999999999999961
 30
0.0
 11
-108.2678087751322
 21
-20.0
 31
0.0
  0
LINE
  5
E2
  8
1
 62
     7
 10
-123.7678087751322
 20
52.999999999999972
 30
0.0
 11
-134.76780877513229
 21
52.999999999999972
 31
0.0
  0
LINE
  5
E3
  8
1
 62
     7
 10
-111.2678087751322
 20
35.999999999999957
 30
0.0
 11
-123.7678087751322
 21
35.999999999999957
 31
0.0
  0
LINE
  5
E4
  8
1
 62
     7
 10
-134.76780877513229
 20
-53.0
 30
0.0
 11
-123.7678087751322
 21
-53.0
 31
0.0
  0
LINE
  5
E5
  8
1
 62
     7
 10
-123.7678087751322
 20
-36.0
 30
0.0
 11
-111.2678087751322
 21
-36.0
 31
0.0
  0
LINE
  5
E6
  8
1
  6
DASHDOT
 62
     3
 10
16.216999999999789
 20
44.999999999999972
 30
0.0
 11
-0.7830000000002073
 21
44.999999999999972
 31
0.0
  0
LINE
  5
E7
  8
1
 62
     7
 10
2.2169999999997918
 20
47.400000000000013
 30
0.0
 11
13.216999999999789
 21
47.400000000000013
 31
0.0
  0
LINE
  5
E8
  8
1
 62
     7
 10
13.216999999999789
 20
42.59999999999998
 30
0.0
 11
2.2169999999997918
 21
42.59999999999998
 31
0.0
  0
LINE
  5
E9
  8
1
 62
     3
 10
2.2169999999997918
 20
47.999999999999972
 30
0.0
 11
13.216999999999789
 21
47.999999999999972
 31
0.0
  0
LINE
  5
EA
  8
1
 62
     3
 10
13.216999999999789
 20
41.999999999999957
 30
0.0
 11
2.2169999999997918
 21
41.999999999999957
 31
0.0
  0
LINE
  5
EB
  8
1
 62
     7
 10
25.716999999999789
 20
-36.0
 30
0.0
 11
25.716999999999789
 21
-26.0
 31
0.0
  0
LINE
  5
EC
  8
1
 62
     7
 10
13.216999999999789
 20
-36.0
 30
0.0
 11
25.716999999999789
 21
-36.0
 31
0.0
  0
LINE
  5
ED
  8
1
 62
     7
 10
13.216999999999789
 20
-53.0
 30
0.0
 11
13.216999999999789
 21
-36.0
 31
0.0
  0
LINE
  5
EE
  8
1
 62
     7
 10
2.2169999999997918
 20
-53.0
 30
0.0
 11
13.216999999999789
 21
-53.0
 31
0.0
  0
LINE
  5
EF
  8
1
  6
DASHDOT
 62
     3
 10
190.0044774225575
 20
-25.5
 30
0.0
 11
179.61217257714421
 21
-19.5
 31
0.0
  0
LINE
  5
F0
  8
1
  6
DASHDOT
 62
     3
 10
101.6698862365446
 20
-25.5
 30
0.0
 11
112.06219108195801
 21
-19.5
 31
0.0
  0
LINE
  5
F1
  8
1
  6
DASHDOT
 62
     3
 10
145.83718182955101
 20
50.999999999999972
 30
0.0
 11
145.83718182955101
 21
38.999999999999957
 31
0.0
  0
LINE
  5
F2
  8
1
 62
     7
 10
149.8371818295511
 20
15.799999999999979
 30
0.0
 11
141.83718182955101
 21
15.799999999999979
 31
0.0
  0
LINE
  5
F3
  8
1
 62
     7
 10
141.83718182955101
 20
11.84271928232701
 30
0.0
 11
141.83718182955101
 21
15.799999999999979
 31
0.0
  0
LINE
  5
F4
  8
1
 62
     7
 10
149.8371818295511
 20
11.84271928232701
 30
0.0
 11
149.8371818295511
 21
15.799999999999979
 31
0.0
  0
LINE
  5
F5
  8
1
 62
     7
 10
170.55528310486341
 20
92.249209826098522
 30
0.0
 11
164.23352259037139
 21
68.575320973450602
 31
0.0
  0
LINE
  5
F6
  8
1
  6
DASHDOT
 62
     3
 10
33.716999999999857
 20
0.0
 30
0.0
 11
28.71699999999991
 21
0.0
 31
0.0
  0
LINE
  5
F7
  8
1
  6
DASHDOT
 62
     3
 10
-103.26780877513239
 20
0.0
 30
0.0
 11
-108.26780877513239
 21
0.0
 31
0.0
  0
LINE
  5
F8
  8
1
 62
     7
 10
168.2349181197053
 20
92.857070398309901
 30
0.0
 11
161.7871242496463
 21
69.185253752484329
 31
0.0
  0
LINE
  5
F9
  8
1
 62
     7
 10
139.83718182955101
 20
83.999999999999957
 30
0.0
 11
151.8371818295511
 21
83.999999999999957
 31
0.0
  0
LINE
  5
FA
  8
1
 62
     7
 10
168.77431005158451
 20
92.738279963285976
 30
0.0
 11
169.8442440179534
 21
96.287326931769357
 31
0.0
  0
LINE
  5
FB
  8
1
 62
     7
 10
169.42791566679409
 20
92.559225571905444
 30
0.0
 11
170.44760448827361
 21
96.186965636086214
 31
0.0
  0
LINE
  5
FC
  8
1
 62
     7
 10
170.06402432434089
 20
92.384964448869795
 30
0.0
 11
171.0509649585936
 21
96.086604340403113
 31
0.0
  0
LINE
  5
FD
  8
1
 62
     7
 10
173.38595840702931
 20
95.338327421394865
 30
0.0
 11
172.53802491803481
 21
91.729795604279587
 31
0.0
  0
LINE
  5
FE
  8
1
 62
     7
 10
172.8132522642511
 20
95.553092224936535
 30
0.0
 11
171.88245865551701
 21
91.901532760289726
 31
0.0
  0
LINE
  5
FF
  8
1
 62
     7
 10
172.24054612147299
 20
95.76785702847836
 30
0.0
 11
171.2444418369964
 21
92.068672529622148
 31
0.0
  0
LINE
  5
100
  8
1
 62
     7
 10
173.07178021995909
 20
91.589968979880481
 30
0.0
 11
166.6167533810916
 21
67.89115852697168
 31
0.0
  0
LINE
  5
101
  8
1
 62
     7
 10
168.2349181197053
 20
92.857070398309901
 30
0.0
 11
173.07178021995909
 21
91.589968979880481
 31
0.0
  0
LINE
  5
102
  8
1
 62
     7
 10
153.8371818295511
 20
70.547856097829111
 30
0.0
 11
153.8371818295511
 21
81.999999999999972
 31
0.0
  0
LINE
  5
103
  8
1
 62
     7
 10
137.83718182955101
 20
70.547856097829111
 30
0.0
 11
137.83718182955101
 21
81.999999999999972
 31
0.0
  0
LINE
  5
104
  8
1
  6
DASHDOT
 62
     3
 10
154.06192070630581
 20
0.0
 30
0.0
 11
137.6124429527963
 21
0.0
 31
0.0
  0
LINE
  5
105
  8
1
  6
DASHDOT
 62
     3
 10
145.83718182955101
 20
8.2247388767547687
 30
0.0
 11
145.83718182955101
 21
-8.224738876754742
 31
0.0
  0
LINE
  5
106
  8
1
  6
DASHDOT
 62
     3
 10
149.6416029614723
 20
77.999999999999972
 30
0.0
 11
142.03276069762981
 21
77.999999999999972
 31
0.0
  0
LINE
  5
107
  8
1
  6
DASHDOT
 62
     3
 10
145.83718182955101
 20
81.804421131921259
 30
0.0
 11
145.83718182955101
 21
74.195578868078741
 31
0.0
  0
LINE
  5
108
  8
1
 62
     7
 10
25.716999999999789
 20
35.999999999999957
 30
0.0
 11
13.216999999999789
 21
35.999999999999957
 31
0.0
  0
LINE
  5
109
  8
1
 62
     7
 10
13.216999999999789
 20
35.999999999999957
 30
0.0
 11
13.216999999999789
 21
52.999999999999972
 31
0.0
  0
LINE
  5
10A
  8
1
 62
     7
 10
13.216999999999789
 20
52.999999999999972
 30
0.0
 11
2.2169999999997918
 21
52.999999999999972
 31
0.0
  0
LINE
  5
10B
  8
1
 62
     7
 10
22.716999999999789
 20
30.999999999999961
 30
0.0
 11
-1.2830000000002051
 21
30.999999999999961
 31
0.0
  0
LINE
  5
10C
  8
1
 62
     7
 10
-1.2830000000002051
 20
30.999999999999961
 30
0.0
 11
-1.2830000000002051
 21
19.999999999999961
 31
0.0
  0
LINE
  5
10D
  8
1
 62
     7
 10
6.3669999999998028
 20
28.357883832488621
 30
0.0
 11
15.066999999999769
 21
28.357883832488621
 31
0.0
  0
LINE
  5
10E
  8
1
 62
     7
 10
3.066999999999783
 20
28.357883832488621
 30
0.0
 11
-1.2830000000002051
 21
28.357883832488621
 31
0.0
  0
LINE
  5
10F
  8
1
 62
     7
 10
3.066999999999783
 20
22.642116167511379
 30
0.0
 11
-1.2830000000002051
 21
22.642116167511379
 31
0.0
  0
LINE
  5
110
  8
1
 62
     7
 10
6.3669999999998028
 20
22.642116167511379
 30
0.0
 11
15.066999999999769
 21
22.642116167511379
 31
0.0
  0
LINE
  5
111
  8
1
 62
     7
 10
-0.0830000000001974
 20
22.20000000000001
 30
0.0
 11
-0.0830000000001974
 21
28.799999999999979
 31
0.0
  0
LINE
  5
112
  8
1
 62
     7
 10
22.716999999999789
 20
19.999999999999961
 30
0.0
 11
22.716999999999789
 21
30.999999999999961
 31
0.0
  0
LINE
  5
113
  8
1
 62
     7
 10
22.716999999999789
 20
28.357883832488621
 30
0.0
 11
18.366999999999798
 21
28.357883832488621
 31
0.0
  0
LINE
  5
114
  8
1
 62
     7
 10
22.716999999999789
 20
22.642116167511379
 30
0.0
 11
18.366999999999798
 21
22.642116167511379
 31
0.0
  0
LINE
  5
115
  8
1
 62
     7
 10
21.51699999999979
 20
28.799999999999979
 30
0.0
 11
21.51699999999979
 21
22.20000000000001
 31
0.0
  0
LINE
  5
116
  8
1
 62
     7
 10
2.2169999999997918
 20
52.999999999999972
 30
0.0
 11
2.2169999999997918
 21
30.999999999999961
 31
0.0
  0
LINE
  5
117
  8
1
 62
     7
 10
-1.2830000000002051
 20
-31.0
 30
0.0
 11
22.716999999999789
 21
-31.0
 31
0.0
  0
LINE
  5
118
  8
1
 62
     7
 10
-1.2830000000002051
 20
-20.0
 30
0.0
 11
-1.2830000000002051
 21
-31.0
 31
0.0
  0
LINE
  5
119
  8
1
 62
     7
 10
15.066999999999769
 20
-28.357883832488621
 30
0.0
 11
6.3669999999998028
 21
-28.357883832488621
 31
0.0
  0
LINE
  5
11A
  8
1
 62
     7
 10
-1.2830000000002051
 20
-28.357883832488621
 30
0.0
 11
3.066999999999783
 21
-28.357883832488639
 31
0.0
  0
LINE
  5
11B
  8
1
 62
     7
 10
-1.2830000000002051
 20
-22.642116167511379
 30
0.0
 11
3.066999999999783
 21
-22.64211616751135
 31
0.0
  0
LINE
  5
11C
  8
1
 62
     7
 10
15.066999999999769
 20
-22.64211616751135
 30
0.0
 11
6.3669999999998028
 21
-22.64211616751135
 31
0.0
  0
LINE
  5
11D
  8
1
 62
     7
 10
-0.0830000000001974
 20
-28.800000000000001
 30
0.0
 11
-0.0830000000001974
 21
-22.199999999999989
 31
0.0
  0
LINE
  5
11E
  8
1
 62
     7
 10
22.716999999999789
 20
-31.0
 30
0.0
 11
22.716999999999789
 21
-20.0
 31
0.0
  0
LINE
  5
11F
  8
1
 62
     7
 10
18.366999999999798
 20
-28.357883832488639
 30
0.0
 11
22.716999999999789
 21
-28.357883832488621
 31
0.0
  0
LINE
  5
120
  8
1
 62
     7
 10
18.366999999999798
 20
-22.64211616751135
 30
0.0
 11
22.716999999999789
 21
-22.642116167511379
 31
0.0
  0
LINE
  5
121
  8
1
 62
     7
 10
21.51699999999979
 20
-22.199999999999989
 30
0.0
 11
21.51699999999979
 21
-28.800000000000001
 31
0.0
  0
LINE
  5
122
  8
1
 62
     7
 10
25.716999999999789
 20
26.999999999999972
 30
0.0
 11
22.716999999999789
 21
26.999999999999972
 31
0.0
  0
LINE
  5
123
  8
1
 62
     7
 10
25.716999999999789
 20
-27.0
 30
0.0
 11
22.716999999999789
 21
-27.0
 31
0.0
  0
LINE
  5
124
  8
1
 62
     7
 10
-7.7830000000001007
 20
23.499999999999961
 30
0.0
 11
-1.2830000000002051
 21
23.499999999999961
 31
0.0
  0
LINE
  5
125
  8
1
 62
     7
 10
-1.2830000000002051
 20
-23.5
 30
0.0
 11
-7.7830000000001007
 21
-23.5
 31
0.0
  0
LINE
  5
126
  8
1
 62
     7
 10
-1.2830000000002051
 20
19.999999999999961
 30
0.0
 11
25.566999999999769
 21
19.999999999999961
 31
0.0
  0
LINE
  5
127
  8
1
 62
     7
 10
-1.2830000000002051
 20
-20.0
 30
0.0
 11
25.566999999999769
 21
-20.0
 31
0.0
  0
LINE
  5
128
  8
1
 62
     7
 10
28.71699999999991
 20
19.999999999999961
 30
0.0
 11
28.71699999999991
 21
-20.0
 31
0.0
  0
LINE
  5
129
  8
1
 62
     7
 10
25.566999999999769
 20
18.999999999999961
 30
0.0
 11
25.566999999999769
 21
24.999999999999961
 31
0.0
  0
LINE
  5
12A
  8
1
 62
     7
 10
25.566999999999769
 20
23.59999999999998
 30
0.0
 11
27.316999999999791
 21
23.59999999999998
 31
0.0
  0
LINE
  5
12B
  8
1
 62
     7
 10
27.316999999999791
 20
23.59999999999998
 30
0.0
 11
27.316999999999791
 21
18.999999999999961
 31
0.0
  0
LINE
  5
12C
  8
1
 62
     7
 10
27.316999999999791
 20
18.999999999999961
 30
0.0
 11
25.566999999999769
 21
18.999999999999961
 31
0.0
  0
LINE
  5
12D
  8
1
 62
     7
 10
25.566999999999769
 20
-25.0
 30
0.0
 11
25.566999999999769
 21
-19.0
 31
0.0
  0
LINE
  5
12E
  8
1
 62
     7
 10
27.316999999999791
 20
-23.59999999999998
 30
0.0
 11
25.566999999999769
 21
-23.59999999999998
 31
0.0
  0
LINE
  5
12F
  8
1
 62
     7
 10
27.316999999999791
 20
-19.0
 30
0.0
 11
27.316999999999791
 21
-23.59999999999998
 31
0.0
  0
LINE
  5
130
  8
1
 62
     7
 10
25.566999999999769
 20
-19.0
 30
0.0
 11
27.316999999999791
 21
-19.0
 31
0.0
  0
LINE
  5
131
  8
1
 62
     7
 10
22.716999999999789
 20
24.999999999999961
 30
0.0
 11
25.566999999999769
 21
24.999999999999961
 31
0.0
  0
LINE
  5
132
  8
1
 62
     7
 10
25.566999999999769
 20
-25.0
 30
0.0
 11
22.716999999999789
 21
-25.0
 31
0.0
  0
LINE
  5
133
  8
1
 62
     7
 10
25.716999999999789
 20
25.999999999999961
 30
0.0
 11
25.716999999999789
 21
35.999999999999957
 31
0.0
  0
LINE
  5
134
  8
1
 62
     7
 10
27.316999999999791
 20
-20.0
 30
0.0
 11
28.71699999999991
 21
-20.0
 31
0.0
  0
LINE
  5
135
  8
1
 62
     7
 10
27.316999999999791
 20
19.999999999999961
 30
0.0
 11
28.71699999999991
 21
19.999999999999961
 31
0.0
  0
LINE
  5
136
  8
1
 62
     7
 10
-7.3830000000002078
 20
-31.887007831023102
 30
0.0
 11
-7.3830000000002078
 21
-68.0
 31
0.0
  0
LINE
  5
137
  8
1
 62
     7
 10
-1.683000000000106
 20
-31.887007831023102
 30
0.0
 11
-1.683000000000106
 21
-66.536725737242591
 31
0.0
  0
LINE
  5
138
  8
1
 62
     7
 10
-0.6830000000001064
 20
-31.887007831023102
 30
0.0
 11
-0.6830000000001064
 21
-44.5
 31
0.0
  0
LINE
  5
139
  8
1
 62
     7
 10
-170.06780877513231
 20
91.615942611840921
 30
0.0
 11
-170.06780877513231
 21
67.350000000000023
 31
0.0
  0
LINE
  5
13A
  8
1
 62
     7
 10
-172.4678087751322
 20
91.615942611840879
 30
0.0
 11
-170.06780877513231
 21
91.615942611840921
 31
0.0
  0
LINE
  5
13B
  8
1
 62
     7
 10
-172.4678087751322
 20
91.615942611840879
 30
0.0
 11
-172.4678087751322
 21
67.350000000000023
 31
0.0
  0
LINE
  5
13C
  8
1
 62
     7
 10
-170.76780877513229
 20
91.615942611840921
 30
0.0
 11
-170.76780877513229
 21
93.455119159366134
 31
0.0
  0
LINE
  5
13D
  8
1
 62
     7
 10
-171.76780877513229
 20
93.455119159366134
 30
0.0
 11
-171.76780877513229
 21
91.615942611840921
 31
0.0
  0
LINE
  5
13E
  8
1
 62
     7
 10
-171.26780877513229
 20
93.511749462084538
 30
0.0
 11
-171.26780877513229
 21
91.615942611840921
 31
0.0
  0
LINE
  5
13F
  8
1
 62
     7
 10
-43.283000000000087
 20
33.5
 30
0.0
 11
-43.283000000000087
 21
30.75
 31
0.0
  0
LINE
  5
140
  8
1
 62
     7
 10
-47.783041568743393
 20
30.75
 30
0.0
 11
-41.283000000000087
 21
30.75
 31
0.0
  0
LINE
  5
141
  8
1
 62
     7
 10
-47.783041568743393
 20
33.5
 30
0.0
 11
-41.283000000000087
 21
33.5
 31
0.0
  0
LINE
  5
142
  8
1
 62
     7
 10
-33.083041568743369
 20
91.615942611840921
 30
0.0
 11
-33.083041568743369
 21
67.350000000000023
 31
0.0
  0
LINE
  5
143
  8
1
 62
     7
 10
-35.483041568743388
 20
91.615942611840879
 30
0.0
 11
-33.083041568743369
 21
91.615942611840921
 31
0.0
  0
LINE
  5
144
  8
1
 62
     7
 10
-35.483041568743388
 20
91.615942611840879
 30
0.0
 11
-35.483041568743388
 21
67.350000000000023
 31
0.0
  0
LINE
  5
145
  8
1
 62
     7
 10
-33.783041568743393
 20
91.615942611840921
 30
0.0
 11
-33.783041568743393
 21
93.455119159366134
 31
0.0
  0
LINE
  5
146
  8
1
 62
     7
 10
-34.783041568743393
 20
93.455119159366134
 30
0.0
 11
-34.783041568743393
 21
91.615942611840921
 31
0.0
  0
LINE
  5
147
  8
1
 62
     7
 10
-34.283041568743393
 20
93.511749462084538
 30
0.0
 11
-34.283041568743393
 21
91.615942611840921
 31
0.0
  0
LINE
  5
148
  8
1
 62
     7
 10
-41.283000000000087
 20
34.0
 30
0.0
 11
-41.283000000000087
 21
-33.999999999999993
 31
0.0
  0
LINE
  5
149
  8
1
 62
     7
 10
-45.783041568743393
 20
30.75
 30
0.0
 11
-45.783041568743393
 21
-60.325876138829202
 31
0.0
  0
LINE
  5
14A
  8
1
 62
     7
 10
-26.283000000000101
 20
-33.999999999999993
 30
0.0
 11
-41.38111778009668
 21
-34.0
 31
0.0
  0
ARC
  5
14B
  8
1
 62
     7
 10
-38.7830415687434
 20
60.350000000000001
 30
0.0
 40
6.999999999999992
 50
90.0
 51
180.0
  0
ARC
  5
14C
  8
1
 62
     7
 10
-175.76780877513221
 20
60.350000000000009
 30
0.0
 40
7.0
 50
180.0
 51
180.19745688095
  0
ARC
  5
14D
  8
1
 62
     7
 10
-175.76780877513221
 20
60.350000000000009
 30
0.0
 40
7.0
 50
90.0
 51
180.0
  0
ARC
  5
14E
  8
1
 62
     7
 10
-38.783062353115
 20
-60.349979287133799
 30
0.0
 40
7.0000207128970482
 50
179.8027132409419
 51
270.00017012189272
  0
ARC
  5
14F
  8
1
 62
     7
 10
-175.76782955950381
 20
-60.349979287133827
 30
0.0
 40
7.0000207128970526
 50
179.8027132409421
 51
270.00017012189272
  0
ARC
  5
150
  8
1
 62
     7
 10
-2.049635285596195
 20
-47.212355802980262
 30
0.0
 40
5.600000000000005
 50
215.95002072617049
 51
261.44173228264742
  0
ARC
  5
151
  8
1
 62
     7
 10
-2.049635285596195
 20
-47.787644197019752
 30
0.0
 40
5.6000000000000023
 50
98.558267717352621
 51
144.04997927382931
  0
ARC
  5
152
  8
1
  6
DASHDOT
 62
     3
 10
145.83718182955101
 20
0.0000000000000036
 30
0.0
 40
44.999999999999993
 50
322.33774433923401
 51
337.66225566076611
  0
ARC
  5
153
  8
1
  6
DASHDOT
 62
     3
 10
145.83718182955101
 20
0.0000000000000036
 30
0.0
 40
44.999999999999993
 50
202.33774433923401
 51
217.66225566076611
  0
ARC
  5
154
  8
1
  6
DASHDOT
 62
     3
 10
145.83718182955101
 20
0.0000000000000036
 30
0.0
 40
45.0
 50
82.33774433923395
 51
97.662255660766064
  0
ARC
  5
155
  8
1
 62
     7
 10
104.7009751497902
 20
23.749999999999961
 30
0.0
 40
6.4999999999999813
 50
115.7633282795959
 51
184.23667172040331
  0
ARC
  5
156
  8
1
 62
     7
 10
186.97338850931189
 20
23.749999999999961
 30
0.0
 40
6.5000000000000258
 50
355.76332827959862
 51
64.236671720401858
  0
ARC
  5
157
  8
1
 62
     7
 10
145.83718182955101
 20
-47.5
 30
0.0
 40
6.5000000000000311
 50
235.76332827959689
 51
304.23667172040291
  0
ARC
  5
158
  8
1
 62
     7
 10
181.70019096085389
 20
-3.137606738915736
 30
0.0
 40
17.999999999999979
 50
354.99999999999977
 51
18.445597884359191
  0
ARC
  5
159
  8
1
 62
     7
 10
125.1884301209134
 20
-29.489473594403709
 30
0.0
 40
17.999999999999979
 50
235.0
 51
258.44559788435993
  0
ARC
  5
15A
  8
1
 62
     7
 10
130.62292440688589
 20
32.627080333319412
 30
0.0
 40
17.99999999999994
 50
114.9999999999997
 51
138.44559788435919
  0
ARC
  5
15B
  8
1
 62
     7
 10
145.83718182955101
 20
0.0000000000000036
 30
0.0
 40
12.5
 50
108.6629248849424
 51
71.337075115057516
  0
ARC
  5
15C
  8
1
 62
     7
 10
139.83718182955101
 20
81.999999999999972
 30
0.0
 40
2.0
 50
90.0
 51
180.0
  0
ARC
  5
15D
  8
1
 62
     7
 10
151.8371818295511
 20
81.999999999999972
 30
0.0
 40
2.0
 50
0.0
 51
90.0
  0
ARC
  5
15E
  8
1
 62
     7
 10
182.8371818295511
 20
-0.0000000000000568
 30
0.0
 40
30.0
 50
359.99999999999977
 51
55.619787465564393
  0
ARC
  5
15F
  8
1
 62
     7
 10
212.95415062284499
 20
38.749999999999957
 30
0.0
 40
19.21877381056326
 50
193.28329168614471
 51
226.71670831385529
  0
ARC
  5
160
  8
1
 62
     7
 10
145.83718182955101
 20
0.0000000000000036
 30
0.0
 40
54.000000000000007
 50
304.99999999999977
 51
354.99999999999977
  0
ARC
  5
161
  8
1
 62
     7
 10
145.83718182955101
 20
0.0000000000000036
 30
0.0
 40
66.999999999999929
 50
59.999999999999972
 51
119.9999999999999
  0
ARC
  5
162
  8
1
 62
     7
 10
164.3371818295511
 20
32.04293994002424
 30
0.0
 40
29.999999999999989
 50
4.3802125344355689
 51
59.999999999999922
  0
ARC
  5
163
  8
1
 62
     7
 10
161.05143925221631
 20
32.627080333319348
 30
0.0
 40
17.999999999999979
 50
41.554402115641018
 51
65.000000000000369
  0
ARC
  5
164
  8
1
 62
     7
 10
127.3371818295509
 20
-32.042939940024212
 30
0.0
 40
30.0
 50
239.99999999999989
 51
295.61978746556429
  0
ARC
  5
165
  8
1
 62
     7
 10
145.83718182955101
 20
0.0000000000000036
 30
0.0
 40
53.999999999999922
 50
185.0
 51
235.0
  0
ARC
  5
166
  8
1
 62
     7
 10
145.83718182955101
 20
0.0000000000000036
 30
0.0
 40
66.999999999999986
 50
300.00000000000011
 51
359.99999999999977
  0
ARC
  5
167
  8
1
 62
     7
 10
145.83718182955101
 20
-77.5
 30
0.0
 40
19.218773810563231
 50
73.283291686144935
 51
106.71670831385561
  0
ARC
  5
168
  8
1
 62
     7
 10
164.3371818295511
 20
-32.04293994002424
 30
0.0
 40
30.000000000000011
 50
244.38021253443549
 51
300.00000000000011
  0
ARC
  5
169
  8
1
 62
     7
 10
166.48593353818859
 20
-29.489473594403709
 30
0.0
 40
18.000000000000011
 50
281.55440211564058
 51
304.99999999999977
  0
ARC
  5
16A
  8
1
 62
     7
 10
109.9741726982482
 20
-3.1376067389157059
 30
0.0
 40
17.99999999999995
 50
161.55440211564101
 51
185.0
  0
ARC
  5
16B
  8
1
 62
     7
 10
108.837181829551
 20
-0.0000000000000284
 30
0.0
 40
30.00000000000005
 50
124.3802125344358
 51
180.00000000000011
  0
ARC
  5
16C
  8
1
 62
     7
 10
78.720213036257121
 20
38.749999999999957
 30
0.0
 40
19.218773810563171
 50
313.28329168614448
 51
346.71670831385518
  0
ARC
  5
16D
  8
1
 62
     7
 10
145.83718182955101
 20
0.0000000000000036
 30
0.0
 40
66.999999999999972
 50
180.00000000000011
 51
239.99999999999989
  0
ARC
  5
16E
  8
1
 62
     7
 10
145.83718182955101
 20
0.0000000000000036
 30
0.0
 40
53.99999999999995
 50
65.000000000000071
 51
115.0
  0
ARC
  5
16F
  8
1
 62
     7
 10
127.337181829551
 20
32.04293994002424
 30
0.0
 40
30.0
 50
119.9999999999999
 51
175.6197874655644
  0
ARC
  5
170
  8
1
 62
     7
 10
-38.783041568743393
 20
-40.499999999999957
 30
0.0
 40
6.9999999999999654
 50
111.7867892982617
 51
180.0
  0
ARC
  5
171
  8
1
 62
     7
 10
-38.783041568743393
 20
40.499999999999993
 30
0.0
 40
7.0
 50
180.0
 51
248.2132107017384
  0
CIRCLE
  5
172
  8
1
 62
     7
 10
-33.783000000000101
 20
27.0
 30
0.0
 40
4.1999999999999984
  0
CIRCLE
  5
173
  8
1
 62
     7
 10
-33.783000000000101
 20
-27.0
 30
0.0
 40
4.1999999999999984
  0
CIRCLE
  5
174
  8
1
 62
     7
 10
145.83718182955101
 20
0.0000000000000036
 30
0.0
 40
20.0
  0
CIRCLE
  5
175
  8
1
 62
     3
 10
184.80832499985081
 20
-22.5
 30
0.0
 40
3.0000000000000031
  0
CIRCLE
  5
176
  8
1
 62
     7
 10
184.80832499985081
 20
-22.5
 30
0.0
 40
2.399999999999967
  0
CIRCLE
  5
177
  8
1
 62
     3
 10
106.8660386592513
 20
-22.5
 30
0.0
 40
3.0000000000000031
  0
CIRCLE
  5
178
  8
1
 62
     7
 10
106.8660386592513
 20
-22.5
 30
0.0
 40
2.399999999999991
  0
CIRCLE
  5
179
  8
1
 62
     3
 10
145.83718182955101
 20
44.999999999999972
 30
0.0
 40
3.0
  0
CIRCLE
  5
17A
  8
1
 62
     7
 10
145.83718182955101
 20
44.999999999999972
 30
0.0
 40
2.4000000000000061
  0
CIRCLE
  5
17B
  8
1
 62
     7
 10
145.83718182955101
 20
0.0000000000000036
 30
0.0
 40
27.0
  0
CIRCLE
  5
17C
  8
1
 62
     7
 10
145.83718182955101
 20
0.0000000000000036
 30
0.0
 40
36.0
  0
CIRCLE
  5
17D
  8
1
 62
     7
 10
145.83718182955101
 20
0.0000000000000036
 30
0.0
 40
53.0
  0
CIRCLE
  5
17E
  8
1
 62
     7
 10
145.83718182955101
 20
77.999999999999972
 30
0.0
 40
3.25
  0
CIRCLE
  5
17F
  8
1
 62
     7
 10
145.83718182955101
 20
0.0000000000000036
 30
0.0
 40
68.0
  0
CIRCLE
  5
180
  8
1
 62
     7
 10
186.97338850931189
 20
23.749999999999961
 30
0.0
 40
2.5
  0
CIRCLE
  5
181
  8
1
 62
     7
 10
145.83718182955101
 20
-47.5
 30
0.0
 40
2.5
  0
CIRCLE
  5
182
  8
1
 62
     7
 10
186.97338850931189
 20
23.749999999999961
 30
0.0
 40
3.0
  0
CIRCLE
  5
183
  8
1
 62
     7
 10
145.83718182955101
 20
-47.5
 30
0.0
 40
3.0
  0
CIRCLE
  5
184
  8
1
 62
     7
 10
198.2317187585096
 20
-30.25000000000005
 30
0.0
 40
5.0
  0
CIRCLE
  5
185
  8
1
 62
     7
 10
93.442644900592498
 20
-30.25
 30
0.0
 40
5.0
  0
CIRCLE
  5
186
  8
1
 62
     7
 10
104.7009751497902
 20
23.749999999999961
 30
0.0
 40
2.5
  0
CIRCLE
  5
187
  8
1
 62
     7
 10
104.7009751497902
 20
23.749999999999961
 30
0.0
 40
3.0
  0
CIRCLE
  5
188
  8
1
 62
     7
 10
145.83718182955101
 20
60.499999999999972
 30
0.0
 40
5.0
  0
CIRCLE
  5
189
  8
1
 62
     7
 10
145.83718182955101
 20
0.0000000000000036
 30
0.0
 40
70.999999999999929
  0
CIRCLE
  5
18A
  8
1
 62
     7
 10
4.7169999999997927
 20
25.499999999999972
 30
0.0
 40
3.3000000000000012
  0
CIRCLE
  5
18B
  8
1
 62
     7
 10
16.716999999999789
 20
25.499999999999972
 30
0.0
 40
3.2999999999999878
  0
CIRCLE
  5
18C
  8
1
 62
     7
 10
4.7169999999997927
 20
-25.5
 30
0.0
 40
3.3000000000000012
  0
CIRCLE
  5
18D
  8
1
 62
     7
 10
16.716999999999789
 20
-25.5
 30
0.0
 40
3.2999999999999878
  0
TEXT
  5
18E
  8
1
 62
     7
 10
-199.535220897378
 20
145.02888272879909
 30
0.0
 40
5.0
  1
VCEH 5P
 41
0.9
  7
SIMPLEX
  0
ENDSEC
  0
EOF
