  0
SECTION
  2
HEADER
  9
$ACADVER
  1
AC1009
  9
$INSBASE
 10
0.0
 20
0.0
 30
0.0
  9
$EXTMIN
 10
-138.92443987888231
 20
-45.0
 30
0.0
  9
$EXTMAX
 10
239.28752582265139
 20
116.1102707022788
 30
0.0
  9
$LIMMIN
 10
-138.92443987888231
 20
-45.0
  9
$LIMMAX
 10
237.41445886370499
 20
116.1102707022788
  9
$ORTHOMODE
 70
     0
  9
$REGENMODE
 70
     1
  9
$FILLMODE
 70
     1
  9
$QTEXTMODE
 70
     0
  9
$MIRRTEXT
 70
     1
  9
$DRAGMODE
 70
     2
  9
$LTSCALE
 40
1.0
  9
$OSMODE
 70
    37
  9
$ATTMODE
 70
     1
  9
$TEXTSIZE
 40
3.5
  9
$TRACEWID
 40
0.5
  9
$TEXTSTYLE
  7
STANDARD
  9
$CLAYER
  8
0
  9
$CELTYPE
  6
BYLAYER
  9
$CECOLOR
 62
   256
  9
$DIMSCALE
 40
1.0
  9
$DIMASZ
 40
0.18
  9
$DIMEXO
 40
0.0625
  9
$DIMDLI
 40
0.38
  9
$DIMRND
 40
0.0
  9
$DIMDLE
 40
0.0
  9
$DIMEXE
 40
0.18
  9
$DIMTP
 40
0.0
  9
$DIMTM
 40
0.0
  9
$DIMTXT
 40
0.18
  9
$DIMCEN
 40
0.09
  9
$DIMTSZ
 40
0.0
  9
$DIMTOL
 70
     0
  9
$DIMLIM
 70
     0
  9
$DIMTIH
 70
     1
  9
$DIMTOH
 70
     1
  9
$DIMSE1
 70
     0
  9
$DIMSE2
 70
     0
  9
$DIMTAD
 70
     0
  9
$DIMZIN
 70
     0
  9
$DIMBLK
  1

  9
$DIMASO
 70
     1
  9
$DIMSHO
 70
     1
  9
$DIMPOST
  1

  9
$DIMAPOST
  1

  9
$DIMALT
 70
     0
  9
$DIMALTD
 70
     2
  9
$DIMALTF
 40
25.399999999999999
  9
$DIMLFAC
 40
1.0
  9
$DIMTOFL
 70
     0
  9
$DIMTVP
 40
0.0
  9
$DIMTIX
 70
     0
  9
$DIMSOXD
 70
     0
  9
$DIMSAH
 70
     0
  9
$DIMBLK1
  1

  9
$DIMBLK2
  1

  9
$DIMSTYLE
  2
STANDARD
  9
$DIMCLRD
 70
     0
  9
$DIMCLRE
 70
     0
  9
$DIMCLRT
 70
     0
  9
$DIMTFAC
 40
1.0
  9
$DIMGAP
 40
0.09
  9
$LUNITS
 70
     2
  9
$LUPREC
 70
     4
  9
$SKETCHINC
 40
0.1
  9
$FILLETRAD
 40
2.0
  9
$AUNITS
 70
     0
  9
$AUPREC
 70
     0
  9
$MENU
  1
ACAD
  9
$ELEVATION
 40
0.0
  9
$PELEVATION
 40
0.0
  9
$THICKNESS
 40
0.0
  9
$LIMCHECK
 70
     0
  9
$BLIPMODE
 70
     0
  9
$CHAMFERA
 40
0.0
  9
$CHAMFERB
 40
0.0
  9
$SKPOLY
 70
     0
  9
$TDCREATE
 40
2452095.3780310182
  9
$TDUPDATE
 40
2452095.3787684022
  9
$TDINDWG
 40
0.000746412
  9
$TDUSRTIMER
 40
0.000746412
  9
$USRTIMER
 70
     1
  9
$ANGBASE
 50
0.0
  9
$ANGDIR
 70
     0
  9
$PDMODE
 70
     0
  9
$PDSIZE
 40
0.0
  9
$PLINEWID
 40
0.0
  9
$COORDS
 70
     1
  9
$SPLFRAME
 70
     0
  9
$SPLINETYPE
 70
     6
  9
$SPLINESEGS
 70
     8
  9
$ATTDIA
 70
     0
  9
$ATTREQ
 70
     1
  9
$HANDLING
 70
 10241
  9
$HANDSEED
  5
1A5
  9
$SURFTAB1
 70
     6
  9
$SURFTAB2
 70
     6
  9
$SURFTYPE
 70
     6
  9
$SURFU
 70
     6
  9
$SURFV
 70
     6
  9
$UCSNAME
  2

  9
$UCSORG
 10
0.0
 20
0.0
 30
0.0
  9
$UCSXDIR
 10
1.0
 20
0.0
 30
0.0
  9
$UCSYDIR
 10
0.0
 20
1.0
 30
0.0
  9
$PUCSNAME
  2

  9
$PUCSORG
 10
0.0
 20
0.0
 30
0.0
  9
$PUCSXDIR
 10
1.0
 20
0.0
 30
0.0
  9
$PUCSYDIR
 10
0.0
 20
1.0
 30
0.0
  9
$USERI1
 70
     0
  9
$USERI2
 70
     0
  9
$USERI3
 70
     0
  9
$USERI4
 70
     0
  9
$USERI5
 70
     0
  9
$USERR1
 40
0.0
  9
$USERR2
 40
0.0
  9
$USERR3
 40
0.0
  9
$USERR4
 40
0.0
  9
$USERR5
 40
0.0
  9
$WORLDVIEW
 70
     1
  9
$SHADEDGE
 70
     3
  9
$SHADEDIF
 70
    70
  9
$TILEMODE
 70
     1
  9
$MAXACTVP
 70
    64
  9
$PLIMCHECK
 70
     0
  9
$PEXTMIN
 10
1.0000000000000000E+020
 20
1.0000000000000000E+020
 30
1.0000000000000000E+020
  9
$PEXTMAX
 10
-1.0000000000000000E+020
 20
-1.0000000000000000E+020
 30
-1.0000000000000000E+020
  9
$PLIMMIN
 10
0.0
 20
0.0
  9
$PLIMMAX
 10
12.0
 20
9.0
  9
$UNITMODE
 70
     0
  9
$VISRETAIN
 70
     1
  9
$PLINEGEN
 70
     0
  9
$PSLTSCALE
 70
     1
  0
ENDSEC
  0
SECTION
  2
TABLES
  0
TABLE
  2
VPORT
 70
     2
  0
VPORT
  2
*ACTIVE
 70
     0
 10
0.0
 20
0.0
 11
1.0
 21
1.0
 12
-97.624508002608252
 22
106.6226585813162
 13
0.0
 23
0.0
 14
1.0
 24
1.0
 15
0.0
 25
0.0
 16
0.0
 26
0.0
 36
1.0
 17
0.0
 27
0.0
 37
0.0
 40
8.9999999771566195
 41
2.4144144144144142
 42
50.0
 43
0.0
 44
0.0
 50
0.0
 51
0.0
 71
     0
 72
   100
 73
     1
 74
     1
 75
     0
 76
     0
 77
     0
 78
     0
  0
ENDTAB
  0
TABLE
  2
LTYPE
 70
     9
  0
LTYPE
  2
CONTINUOUS
 70
     0
  3
Solid line
 72
    65
 73
     0
 40
0.0
  0
LTYPE
  2
BORDER
 70
     0
  3
__ __ . __ __ .
 72
    65
 73
     6
 40
17.331396652619159
 49
4.9518276150340439
 49
-2.4759138075170211
 49
4.9518276150340439
 49
-2.4759138075170211
 49
0.0
 49
-2.4759138075170211
  0
LTYPE
  2
CENTER
 70
     0
  3
____ _ ____ _
 72
    65
 73
     4
 40
19.807310460136179
 49
12.3795690375851
 49
-2.4759138075170211
 49
2.4759138075170211
 49
-2.4759138075170211
  0
LTYPE
  2
DASHDOT
 70
     0
  3
__ . __ . __ .
 72
    65
 73
     4
 40
9.9036552300680896
 49
4.9518276150340439
 49
-2.4759138075170211
 49
0.0
 49
-2.4759138075170211
  0
LTYPE
  2
DASHED
 70
     0
  3
__ __ __ __ __
 72
    65
 73
     2
 40
7.4277414225510672
 49
4.9518276150340439
 49
-2.4759138075170211
  0
LTYPE
  2
DIVIDE
 70
     0
  3
__ . . __ . . 
 72
    65
 73
     6
 40
12.3795690375851
 49
4.9518276150340439
 49
-2.4759138075170211
 49
0.0
 49
-2.4759138075170211
 49
0.0
 49
-2.4759138075170211
  0
LTYPE
  2
DOT
 70
     0
  3
..............
 72
    65
 73
     4
 40
4.9518276150340439
 49
0.0
 49
-2.4759138075170211
 49
0.0
 49
-2.4759138075170211
  0
LTYPE
  2
HIDDEN
 70
     0
  3
_ _ _ _ _ _ _
 72
    65
 73
     2
 40
3.7138707112755331
 49
2.4759138075170211
 49
-1.2379569037585101
  0
LTYPE
  2
PHANTOM
 70
     0
  3
_____ _ _ _____ _ _ 
 72
    65
 73
     6
 40
24.75913807517021
 49
12.3795690375851
 49
-2.4759138075170211
 49
2.4759138075170211
 49
-2.4759138075170211
 49
2.4759138075170211
 49
-2.4759138075170211
  0
ENDTAB
  0
TABLE
  2
LAYER
 70
     2
  0
LAYER
  2
0
 70
     0
 62
     7
  6
CONTINUOUS
  0
LAYER
  2
1
 70
     0
 62
     7
  6
CONTINUOUS
  0
ENDTAB
  0
TABLE
  2
STYLE
 70
     4
  0
STYLE
  2
STANDARD
 70
     0
 40
0.0
 41
1.0
 50
0.0
 71
     0
 42
3.5
  3
txt
  4

  0
STYLE
  2
SIMPLEX
 70
     0
 40
0.0
 41
1.0
 50
0.0
 71
     0
 42
3.5
  3
simplex
  4

  0
STYLE
  2
COMPLEX
 70
     0
 40
0.0
 41
1.0
 50
0.0
 71
     0
 42
3.5
  3
complex
  4

  0
STYLE
  2
ITALIC
 70
     0
 40
0.0
 41
1.0
 50
0.0
 71
     0
 42
3.5
  3
italic
  4

  0
ENDTAB
  0
TABLE
  2
VIEW
 70
     0
  0
ENDTAB
  0
TABLE
  2
UCS
 70
     0
  0
ENDTAB
  0
TABLE
  2
APPID
 70
     1
  0
APPID
  2
ACAD
 70
     0
  0
ENDTAB
  0
TABLE
  2
DIMSTYLE
 70
     1
  0
DIMSTYLE
  2
STANDARD
 70
     0
  3

  4

  5

  6

  7

 40
1.0
 41
0.18
 42
0.0625
 43
0.38
 44
0.18
 45
0.0
 46
0.0
 47
0.0
 48
0.0
140
0.18
141
0.09
142
0.0
143
25.399999999999999
144
1.0
145
0.0
146
1.0
147
0.09
 71
     0
 72
     0
 73
     1
 74
     1
 75
     0
 76
     0
 77
     0
 78
     0
170
     0
171
     2
172
     0
173
     0
174
     0
175
     0
176
     0
177
     0
178
     0
  0
ENDTAB
  0
ENDSEC
  0
SECTION
  2
BLOCKS
  0
BLOCK
  8
0
  2
$MODEL_SPACE
 70
     0
 10
0.0
 20
0.0
 30
0.0
  3
$MODEL_SPACE
  1

  0
ENDBLK
  5
20
  8
0
  0
BLOCK
 67
     1
  8
0
  2
$PAPER_SPACE
 70
     0
 10
0.0
 20
0.0
 30
0.0
  3
$PAPER_SPACE
  1

  0
ENDBLK
  5
1C
 67
     1
  8
0
  0
ENDSEC
  0
SECTION
  2
ENTITIES
  0
LINE
  5
33
  8
1
 62
     7
 10
16.92499999999999
 20
42.0
 30
0.0
 11
16.924999999999979
 21
-30.0
 31
0.0
  0
LINE
  5
34
  8
1
 62
     7
 10
17.424999999999969
 20
42.0
 30
0.0
 11
16.92499999999999
 21
42.0
 31
0.0
  0
LINE
  5
35
  8
1
 62
     7
 10
17.424999999999969
 20
-33.0
 30
0.0
 11
17.424999999999969
 21
42.0
 31
0.0
  0
LINE
  5
36
  8
1
 62
     7
 10
16.42499999999999
 20
-43.0
 30
0.0
 11
16.42499999999999
 21
43.0
 31
0.0
  0
LINE
  5
37
  8
1
 62
     7
 10
16.42499999999999
 20
30.0
 30
0.0
 11
16.924999999999979
 21
30.0
 31
0.0
  0
LINE
  5
38
  8
1
 62
     7
 10
18.824999999999982
 20
-34.400000000000013
 30
0.0
 11
18.324999999999982
 21
-33.900000000000013
 31
0.0
  0
LINE
  5
39
  8
1
 62
     7
 10
18.324999999999982
 20
-41.09999999999998
 30
0.0
 11
18.824999999999982
 21
-40.59999999999998
 31
0.0
  0
LINE
  5
3A
  8
1
 62
     7
 10
17.424999999999969
 20
-33.900000000000013
 30
0.0
 11
17.424999999999969
 21
-41.09999999999998
 31
0.0
  0
LINE
  5
3B
  8
1
 62
     7
 10
18.324999999999982
 20
-33.900000000000013
 30
0.0
 11
16.924999999999979
 21
-33.900000000000013
 31
0.0
  0
LINE
  5
3C
  8
1
 62
     7
 10
18.824999999999982
 20
-34.400000000000013
 30
0.0
 11
18.824999999999982
 21
-40.59999999999998
 31
0.0
  0
LINE
  5
3D
  8
1
 62
     7
 10
18.324999999999982
 20
-41.09999999999998
 30
0.0
 11
16.924999999999979
 21
-41.09999999999998
 31
0.0
  0
LINE
  5
3E
  8
1
 62
     7
 10
16.42499999999999
 20
-43.0
 30
0.0
 11
12.32499999999999
 21
-43.0
 31
0.0
  0
LINE
  5
3F
  8
1
 62
     7
 10
16.924999999999979
 20
-30.0
 30
0.0
 11
16.42499999999999
 21
-30.0
 31
0.0
  0
LINE
  5
40
  8
1
 62
     7
 10
72.518698917672992
 20
-7.5000000000000071
 30
0.0
 11
115.51869891767291
 21
-7.5000000000000071
 31
0.0
  0
LINE
  5
41
  8
1
 62
     7
 10
104.718698917673
 20
-32.999999999999993
 30
0.0
 11
104.718698917673
 21
-11.0
 31
0.0
  0
LINE
  5
42
  8
1
 62
     7
 10
104.718698917673
 20
22.5
 30
0.0
 11
106.318698917673
 21
22.499999999999989
 31
0.0
  0
LINE
  5
43
  8
1
 62
     7
 10
-10.025
 20
71.076344712652286
 30
0.0
 11
-12.525
 21
71.076344712652286
 31
0.0
  0
LINE
  5
44
  8
1
 62
     7
 10
-12.525
 20
71.076344712652286
 30
0.0
 11
-12.525
 21
42.350000000000023
 31
0.0
  0
LINE
  5
45
  8
1
 62
     7
 10
-10.025
 20
71.076344712652286
 30
0.0
 11
-10.025
 21
42.350000000000023
 31
0.0
  0
LINE
  5
46
  8
1
 62
     7
 10
-10.51752155848015
 20
74.379591790226996
 30
0.0
 11
-10.51752155848015
 21
71.076344712652286
 31
0.0
  0
LINE
  5
47
  8
1
 62
     7
 10
-11.005961378746109
 20
74.379591790226996
 30
0.0
 11
-11.005961378746109
 21
71.076344712652286
 31
0.0
  0
LINE
  5
48
  8
1
 62
     7
 10
-11.59800964573517
 20
74.379591790226996
 30
0.0
 11
-11.59800964573517
 21
71.076344712652286
 31
0.0
  0
LINE
  5
49
  8
1
 62
     7
 10
-12.027244639302211
 20
74.379591790226996
 30
0.0
 11
-12.027244639302211
 21
71.076344712652286
 31
0.0
  0
LINE
  5
4A
  8
1
 62
     7
 10
71.501233030413289
 20
-23.100000000000001
 30
0.0
 11
72.518698917672992
 21
-23.100000000000001
 31
0.0
  0
LINE
  5
4B
  8
1
 62
     7
 10
70.518698917672992
 20
26.100000000000001
 30
0.0
 11
66.933102571829252
 21
26.100000000000001
 31
0.0
  0
LINE
  5
4C
  8
1
 62
     7
 10
70.518698917672992
 20
21.499999999999989
 30
0.0
 11
70.518698917672992
 21
26.100000000000001
 31
0.0
  0
LINE
  5
4D
  8
1
 62
     7
 10
72.518698917672992
 20
21.499999999999989
 30
0.0
 11
70.518698917672992
 21
21.499999999999989
 31
0.0
  0
LINE
  5
4E
  8
1
 62
     7
 10
72.518698917672992
 20
23.5
 30
0.0
 11
72.518698917672992
 21
-23.500000000000011
 31
0.0
  0
LINE
  5
4F
  8
1
 62
     7
 10
73.868698917672987
 20
-21.478750000000002
 30
0.0
 11
73.868698917672987
 21
-14.52125
 31
0.0
  0
LINE
  5
50
  8
1
 62
     7
 10
83.168698917672998
 20
-21.478750000000002
 30
0.0
 11
83.168698917672998
 21
-14.52125
 31
0.0
  0
LINE
  5
51
  8
1
 62
     7
 10
80.257081786893679
 20
-20.805
 30
0.0
 11
84.518698917673007
 21
-20.805
 31
0.0
  0
LINE
  5
52
  8
1
 62
     7
 10
76.780316048452306
 20
-20.805
 30
0.0
 11
72.518698917672992
 21
-20.805
 31
0.0
  0
LINE
  5
53
  8
1
 62
     7
 10
80.257081786893679
 20
-15.195
 30
0.0
 11
84.518698917673007
 21
-15.195
 31
0.0
  0
LINE
  5
54
  8
1
 62
     7
 10
76.780316048452306
 20
-15.195
 30
0.0
 11
72.518698917672992
 21
-15.195
 31
0.0
  0
LINE
  5
55
  8
1
 62
     7
 10
73.868698917672987
 20
21.478750000000002
 30
0.0
 11
73.868698917672987
 21
14.52125
 31
0.0
  0
LINE
  5
56
  8
1
 62
     7
 10
83.168698917672998
 20
21.478750000000002
 30
0.0
 11
83.168698917672998
 21
14.52125
 31
0.0
  0
LINE
  5
57
  8
1
 62
     7
 10
80.257081786893679
 20
20.805
 30
0.0
 11
84.518698917673007
 21
20.805
 31
0.0
  0
LINE
  5
58
  8
1
 62
     7
 10
76.780316048452306
 20
20.805
 30
0.0
 11
72.518698917672992
 21
20.805
 31
0.0
  0
LINE
  5
59
  8
1
 62
     7
 10
80.257081786893679
 20
15.195
 30
0.0
 11
84.518698917673007
 21
15.195
 31
0.0
  0
LINE
  5
5A
  8
1
 62
     7
 10
76.780316048452306
 20
15.195
 30
0.0
 11
72.518698917672992
 21
15.195
 31
0.0
  0
LINE
  5
5B
  8
1
 62
     7
 10
64.518698917673021
 20
62.0
 30
0.0
 11
64.518698917673021
 21
-35.0
 31
0.0
  0
LINE
  5
5C
  8
1
 62
     7
 10
-110.32692806056519
 20
70.87417752747902
 30
0.0
 11
-102.4514969883959
 21
41.482668634636973
 31
0.0
  0
LINE
  5
5D
  8
1
 62
     7
 10
-115.1565571920105
 20
69.580082301966428
 30
0.0
 11
-107.2811261198412
 21
40.188573409124423
 31
0.0
  0
LINE
  5
5E
  8
1
 62
     7
 10
-115.1565571920105
 20
69.580082301966428
 30
0.0
 11
-110.32692806056519
 21
70.87417752747902
 31
0.0
  0
LINE
  5
5F
  8
1
 62
     7
 10
-113.2614391773723
 20
70.087877643550428
 30
0.0
 11
-114.54538073338
 21
74.920227442539812
 31
0.0
  0
LINE
  5
60
  8
1
 62
     7
 10
-113.8623962928565
 20
69.926851669770713
 30
0.0
 11
-115.12804743977139
 21
74.764102369105728
 31
0.0
  0
LINE
  5
61
  8
1
 62
     7
 10
-114.3585118541292
 20
69.793917905775118
 30
0.0
 11
-115.64245341013709
 21
74.626267704764501
 31
0.0
  0
LINE
  5
62
  8
1
 62
     7
 10
-113.5262949702209
 20
75.19329064979631
 30
0.0
 11
-112.22204607520339
 21
70.36638218589502
 31
0.0
  0
LINE
  5
63
  8
1
 62
     7
 10
-112.9436282638295
 20
75.349415723230408
 30
0.0
 11
-111.6210889597192
 21
70.52740815967482
 31
0.0
  0
LINE
  5
64
  8
1
 62
     7
 10
-112.42922229346389
 20
75.487250387571606
 30
0.0
 11
-111.1249733984464
 21
70.660341923670302
 31
0.0
  0
LINE
  5
65
  8
1
 62
     7
 10
-104.88542643897421
 20
40.906958743342038
 30
0.0
 11
-112.7417426262879
 21
70.227129914722724
 31
0.0
  0
LINE
  5
66
  8
1
 62
     7
 10
10.925000000000001
 20
-42.5
 30
0.0
 11
9.4816243270258962
 21
-45.0
 31
0.0
  0
LINE
  5
67
  8
1
 62
     7
 10
-20.774999999999999
 20
62.0
 30
0.0
 11
-20.774999999999999
 21
-36.34999999999998
 31
0.0
  0
LINE
  5
68
  8
1
 62
     7
 10
-22.774999999999991
 20
62.0
 30
0.0
 11
-22.774999999999991
 21
-35.0
 31
0.0
  0
LINE
  5
69
  8
1
 62
     7
 10
84.518698917673007
 20
24.75
 30
0.0
 11
86.318698917672961
 21
24.75
 31
0.0
  0
LINE
  5
6A
  8
1
 62
     7
 10
86.818698917672975
 20
16.0
 30
0.0
 11
86.818698917672975
 21
23.0
 31
0.0
  0
LINE
  5
6B
  8
1
 62
     7
 10
77.268698917673021
 20
71.076344712652286
 30
0.0
 11
74.768698917673021
 21
71.076344712652286
 31
0.0
  0
LINE
  5
6C
  8
1
 62
     7
 10
64.518698917673021
 20
20.75
 30
0.0
 11
66.518698917673021
 21
20.75
 31
0.0
  0
LINE
  5
6D
  8
1
 62
     7
 10
72.518698917672992
 20
23.5
 30
0.0
 11
84.518698917673007
 21
23.5
 31
0.0
  0
LINE
  5
6E
  8
1
 62
     7
 10
84.518698917673007
 20
12.5
 30
0.0
 11
72.518698917672992
 21
12.5
 31
0.0
  0
LINE
  5
6F
  8
1
 62
     7
 10
84.518698917673007
 20
24.75
 30
0.0
 11
84.518698917673007
 21
12.5
 31
0.0
  0
LINE
  5
70
  8
1
 62
     7
 10
86.318698917672961
 20
-24.749999999999989
 30
0.0
 11
86.318698917672961
 21
-19.710000000000012
 31
0.0
  0
LINE
  5
71
  8
1
 62
     7
 10
84.518698917673007
 20
-12.5
 30
0.0
 11
72.518698917672992
 21
-12.5
 31
0.0
  0
LINE
  5
72
  8
1
 62
     7
 10
84.518698917673007
 20
-15.5
 30
0.0
 11
85.018698917672992
 21
-16.0
 31
0.0
  0
LINE
  5
73
  8
1
 62
     7
 10
84.518698917673007
 20
-12.5
 30
0.0
 11
84.518698917673007
 21
-24.750000000000011
 31
0.0
  0
LINE
  5
74
  8
1
 62
     7
 10
84.518698917673007
 20
-23.500000000000011
 30
0.0
 11
72.518698917672992
 21
-23.500000000000011
 31
0.0
  0
LINE
  5
75
  8
1
 62
     7
 10
66.518698917673021
 20
62.0
 30
0.0
 11
66.518698917673021
 21
-36.34999999999998
 31
0.0
  0
LINE
  5
76
  8
1
 62
     7
 10
99.018698917672992
 20
20.0
 30
0.0
 11
99.018698917672992
 21
-20.0
 31
0.0
  0
LINE
  5
77
  8
1
  6
DASHDOT
 62
     3
 10
-23.80056989175209
 20
56.000000000000028
 30
0.0
 11
-19.60206324376928
 21
56.000000000000028
 31
0.0
  0
LINE
  5
78
  8
1
 62
     7
 10
74.768698917673021
 20
71.076344712652286
 30
0.0
 11
74.768698917673021
 21
42.350000000000023
 31
0.0
  0
LINE
  5
79
  8
1
 62
     7
 10
77.268698917673021
 20
71.076344712652286
 30
0.0
 11
77.268698917673021
 21
42.350000000000023
 31
0.0
  0
LINE
  5
7A
  8
1
 62
     7
 10
76.776177359192872
 20
74.379591790226996
 30
0.0
 11
76.776177359192872
 21
71.076344712652286
 31
0.0
  0
LINE
  5
7B
  8
1
 62
     7
 10
76.287737538926905
 20
74.379591790226996
 30
0.0
 11
76.287737538926905
 21
71.076344712652286
 31
0.0
  0
LINE
  5
7C
  8
1
 62
     7
 10
75.695689271937852
 20
74.379591790226996
 30
0.0
 11
75.695689271937852
 21
71.076344712652286
 31
0.0
  0
LINE
  5
7D
  8
1
 62
     7
 10
75.266454278370816
 20
74.379591790226996
 30
0.0
 11
75.266454278370816
 21
71.076344712652286
 31
0.0
  0
LINE
  5
7E
  8
1
 62
     7
 10
72.518698917672992
 20
9.7999999999999936
 30
0.0
 11
99.018698917672992
 21
9.7999999999999936
 31
0.0
  0
LINE
  5
7F
  8
1
 62
     7
 10
72.518698917672992
 20
7.5
 30
0.0
 11
115.51869891767291
 21
7.5
 31
0.0
  0
LINE
  5
80
  8
1
 62
     7
 10
86.818698917672975
 20
16.0
 30
0.0
 11
85.018698917672992
 21
16.0
 31
0.0
  0
LINE
  5
81
  8
1
 62
     7
 10
86.818698917672975
 20
45.000000000000021
 30
0.0
 11
86.818698917672975
 21
42.850000000000009
 31
0.0
  0
LINE
  5
82
  8
1
 62
     7
 10
99.218698917672995
 20
42.5
 30
0.0
 11
98.218698917672995
 21
42.5
 31
0.0
  0
LINE
  5
83
  8
1
 62
     7
 10
98.218698917672995
 20
42.5
 30
0.0
 11
96.775323244698924
 21
45.000000000000021
 31
0.0
  0
LINE
  5
84
  8
1
 62
     7
 10
96.775323244698924
 20
45.000000000000021
 30
0.0
 11
86.818698917672975
 21
45.000000000000021
 31
0.0
  0
LINE
  5
85
  8
1
 62
     7
 10
85.018698917672992
 20
16.0
 30
0.0
 11
84.518698917673007
 21
15.5
 31
0.0
  0
LINE
  5
86
  8
1
 62
     7
 10
99.218698917672995
 20
42.5
 30
0.0
 11
99.218698917672995
 21
21.667999999999999
 31
0.0
  0
LINE
  5
87
  8
1
 62
     7
 10
99.218698917672995
 20
23.0
 30
0.0
 11
98.618698917673001
 21
23.0
 31
0.0
  0
LINE
  5
88
  8
1
 62
     7
 10
98.618698917673001
 20
23.0
 30
0.0
 11
98.618698917673001
 21
20.0
 31
0.0
  0
LINE
  5
89
  8
1
 62
     7
 10
98.618698917673001
 20
-23.000000000000011
 30
0.0
 11
99.218698917672995
 21
-23.000000000000011
 31
0.0
  0
LINE
  5
8A
  8
1
 62
     7
 10
99.218698917672995
 20
-21.667999999999999
 30
0.0
 11
99.218698917672995
 21
-42.5
 31
0.0
  0
LINE
  5
8B
  8
1
 62
     7
 10
86.818698917672975
 20
-45.0
 30
0.0
 11
96.775323244698924
 21
-45.0
 31
0.0
  0
LINE
  5
8C
  8
1
 62
     7
 10
96.775323244698924
 20
-45.0
 30
0.0
 11
98.218698917672995
 21
-42.5
 31
0.0
  0
LINE
  5
8D
  8
1
 62
     7
 10
98.218698917672995
 20
-42.5
 30
0.0
 11
99.218698917672995
 21
-42.5
 31
0.0
  0
LINE
  5
8E
  8
1
 62
     7
 10
85.018698917672992
 20
-16.0
 30
0.0
 11
87.218698917672995
 21
-16.0
 31
0.0
  0
LINE
  5
8F
  8
1
 62
     7
 10
64.518698917673021
 20
53.25
 30
0.0
 11
66.518698917673021
 21
53.25
 31
0.0
  0
LINE
  5
90
  8
1
 62
     7
 10
64.518698917673021
 20
58.75
 30
0.0
 11
66.518698917673021
 21
58.75
 31
0.0
  0
LINE
  5
91
  8
1
  6
DASHDOT
 62
     3
 10
62.832911042028059
 20
56.000000000000028
 30
0.0
 11
67.78211453704229
 21
56.000000000000028
 31
0.0
  0
LINE
  5
92
  8
1
 62
     7
 10
64.518698917673021
 20
-20.75
 30
0.0
 11
66.518698917673021
 21
-20.75
 31
0.0
  0
LINE
  5
93
  8
1
 62
     7
 10
64.518698917673021
 20
62.0
 30
0.0
 11
66.518698917673021
 21
62.0
 31
0.0
  0
LINE
  5
94
  8
1
 62
     7
 10
66.501233030413289
 20
-35.0
 30
0.0
 11
64.518698917673021
 21
-35.0
 31
0.0
  0
LINE
  5
95
  8
1
 62
     7
 10
86.318698917672961
 20
-23.499999999999989
 30
0.0
 11
92.418698917672984
 21
-23.499999999999989
 31
0.0
  0
LINE
  5
96
  8
1
 62
     7
 10
92.418698917672984
 20
-42.34999999999998
 30
0.0
 11
92.418698917672984
 21
-23.499999999999989
 31
0.0
  0
LINE
  5
97
  8
1
 62
     7
 10
92.418698917672984
 20
-42.34999999999998
 30
0.0
 11
72.518698917673021
 21
-42.34999999999998
 31
0.0
  0
LINE
  5
98
  8
1
 62
     7
 10
92.418698917672984
 20
23.5
 30
0.0
 11
86.318698917672961
 21
23.5
 31
0.0
  0
LINE
  5
99
  8
1
 62
     7
 10
72.518698917673021
 20
42.350000000000009
 30
0.0
 11
92.418698917672984
 21
42.350000000000009
 31
0.0
  0
LINE
  5
9A
  8
1
 62
     7
 10
86.318698917672961
 20
24.75
 30
0.0
 11
86.318698917672961
 21
19.710000000000012
 31
0.0
  0
LINE
  5
9B
  8
1
 62
     7
 10
86.318698917672961
 20
20.75
 30
0.0
 11
84.518698917673007
 21
20.75
 31
0.0
  0
LINE
  5
9C
  8
1
 62
     7
 10
92.418698917672984
 20
23.5
 30
0.0
 11
92.418698917672984
 21
42.350000000000009
 31
0.0
  0
LINE
  5
9D
  8
1
 62
     7
 10
84.518698917673007
 20
-20.750000000000011
 30
0.0
 11
86.318698917672961
 21
-20.750000000000011
 31
0.0
  0
LINE
  5
9E
  8
1
 62
     7
 10
86.318698917672961
 20
-24.749999999999989
 30
0.0
 11
84.518698917673007
 21
-24.750000000000011
 31
0.0
  0
LINE
  5
9F
  8
1
 62
     7
 10
85.018698917672992
 20
-16.0
 30
0.0
 11
87.218698917672995
 21
-16.0
 31
0.0
  0
LINE
  5
A0
  8
1
 62
     7
 10
99.018698917672992
 20
20.0
 30
0.0
 11
98.618698917673001
 21
20.0
 31
0.0
  0
LINE
  5
A1
  8
1
 62
     7
 10
86.818698917672975
 20
23.0
 30
0.0
 11
94.718698917672995
 21
23.0
 31
0.0
  0
LINE
  5
A2
  8
1
 62
     7
 10
86.818698917672975
 20
42.850000000000009
 30
0.0
 11
94.718698917672995
 21
42.850000000000009
 31
0.0
  0
LINE
  5
A3
  8
1
 62
     7
 10
94.718698917672995
 20
42.850000000000009
 30
0.0
 11
94.718698917672995
 21
23.0
 31
0.0
  0
LINE
  5
A4
  8
1
 62
     7
 10
94.718698917672995
 20
-22.999999999999979
 30
0.0
 11
87.218698917672981
 21
-22.999999999999979
 31
0.0
  0
LINE
  5
A5
  8
1
 62
     7
 10
94.718698917672995
 20
-42.849999999999987
 30
0.0
 11
86.818698917672975
 21
-42.849999999999987
 31
0.0
  0
LINE
  5
A6
  8
1
 62
     7
 10
98.618698917673001
 20
-20.0
 30
0.0
 11
99.018698917672992
 21
-20.0
 31
0.0
  0
LINE
  5
A7
  8
1
 62
     7
 10
98.618698917673001
 20
-20.0
 30
0.0
 11
98.618698917673001
 21
-23.000000000000011
 31
0.0
  0
LINE
  5
A8
  8
1
 62
     7
 10
86.818698917672975
 20
-42.849999999999987
 30
0.0
 11
86.818698917672975
 21
-45.0
 31
0.0
  0
LINE
  5
A9
  8
1
 62
     7
 10
94.718698917672995
 20
-42.849999999999987
 30
0.0
 11
94.718698917672995
 21
-22.999999999999979
 31
0.0
  0
LINE
  5
AA
  8
1
 62
     7
 10
87.218698917672995
 20
-16.0
 30
0.0
 11
87.218698917672981
 21
-22.999999999999979
 31
0.0
  0
LINE
  5
AB
  8
1
  6
DASHDOT
 62
     3
 10
64.518698917673021
 20
0.0
 30
0.0
 11
61.212752342067908
 21
0.0
 31
0.0
  0
LINE
  5
AC
  8
1
 62
     7
 10
-0.4750000000000015
 20
45.000000000000021
 30
0.0
 11
-0.4750000000000015
 21
42.649999999999991
 31
0.0
  0
LINE
  5
AD
  8
1
 62
     7
 10
11.925000000000001
 20
42.5
 30
0.0
 11
10.925000000000001
 21
42.5
 31
0.0
  0
LINE
  5
AE
  8
1
 62
     7
 10
10.925000000000001
 20
42.5
 30
0.0
 11
9.4816243270258962
 21
45.000000000000021
 31
0.0
  0
LINE
  5
AF
  8
1
 62
     7
 10
9.4816243270258962
 20
45.000000000000021
 30
0.0
 11
-0.4750000000000015
 21
45.000000000000021
 31
0.0
  0
LINE
  5
B0
  8
1
 62
     7
 10
11.925000000000001
 20
42.5
 30
0.0
 11
11.925000000000001
 21
-42.5
 31
0.0
  0
LINE
  5
B1
  8
1
 62
     7
 10
-0.4750000000000015
 20
-45.0
 30
0.0
 11
9.4816243270258962
 21
-45.0
 31
0.0
  0
LINE
  5
B2
  8
1
 62
     7
 10
10.925000000000001
 20
-42.5
 30
0.0
 11
11.925000000000001
 21
-42.5
 31
0.0
  0
LINE
  5
B3
  8
1
 62
     7
 10
-22.774999999999991
 20
62.0
 30
0.0
 11
-20.774999999999999
 21
62.0
 31
0.0
  0
LINE
  5
B4
  8
1
 62
     7
 10
-20.774999999999999
 20
-35.0
 30
0.0
 11
-22.774999999999991
 21
-35.0
 31
0.0
  0
LINE
  5
B5
  8
1
 62
     7
 10
-14.775
 20
42.350000000000009
 30
0.0
 11
-0.4750000000000015
 21
42.350000000000009
 31
0.0
  0
LINE
  5
B6
  8
1
  6
DASHDOT
 62
     3
 10
-22.774999999999991
 20
0.0
 30
0.0
 11
-26.0809465756051
 21
0.0
 31
0.0
  0
LINE
  5
B7
  8
1
 62
     7
 10
-0.4750000000000015
 20
43.562565441379817
 30
0.0
 11
-0.4750000000000015
 21
-45.0
 31
0.0
  0
LINE
  5
B8
  8
1
 62
     7
 10
-0.4750000000000015
 20
-42.34999999999998
 30
0.0
 11
-14.77499999999999
 21
-42.34999999999998
 31
0.0
  0
LINE
  5
B9
  8
1
 62
     7
 10
9.4816243270258962
 20
45.000000000000021
 30
0.0
 11
9.4816243270258962
 21
-45.0
 31
0.0
  0
LINE
  5
BA
  8
1
 62
     7
 10
10.925000000000001
 20
42.5
 30
0.0
 11
10.925000000000001
 21
-42.5
 31
0.0
  0
LINE
  5
BB
  8
1
 62
     7
 10
-91.424439878882396
 20
7.0710678118654897
 30
0.0
 11
-91.424439878882396
 21
9.7999999999999936
 31
0.0
  0
LINE
  5
BC
  8
1
 62
     7
 10
-96.424439878882424
 20
7.0710678118654897
 30
0.0
 11
-96.424439878882424
 21
9.7999999999999936
 31
0.0
  0
LINE
  5
BD
  8
1
 62
     7
 10
-96.424439878882424
 20
9.7999999999999936
 30
0.0
 11
-91.424439878882396
 21
9.7999999999999936
 31
0.0
  0
LINE
  5
BE
  8
1
 62
     7
 10
-101.9244398788824
 20
60.0
 30
0.0
 11
-101.9244398788824
 21
39.912404086950218
 31
0.0
  0
LINE
  5
BF
  8
1
 62
     7
 10
-85.92443987888241
 20
60.0
 30
0.0
 11
-85.92443987888241
 21
39.912404086950218
 31
0.0
  0
LINE
  5
C0
  8
1
 62
     7
 10
-99.924439878882424
 20
62.0
 30
0.0
 11
-87.924439878882396
 21
62.0
 31
0.0
  0
LINE
  5
C1
  8
1
  6
DASHDOT
 62
     3
 10
-90.021819889867388
 20
0.0000000000000213
 30
0.0
 11
-97.827059867897432
 21
0.0000000000000213
 31
0.0
  0
LINE
  5
C2
  8
1
  6
DASHDOT
 62
     3
 10
-93.924439878882396
 20
-3.9026199890149802
 30
0.0
 11
-93.924439878882396
 21
3.9026199890150219
 31
0.0
  0
LINE
  5
C3
  8
1
  6
DASHDOT
 62
     3
 10
-90.36738067098841
 20
56.000000000000028
 30
0.0
 11
-97.48149908677641
 21
56.000000000000028
 31
0.0
  0
LINE
  5
C4
  8
1
  6
DASHDOT
 62
     3
 10
-93.924439878882396
 20
52.442940792106029
 30
0.0
 11
-93.924439878882396
 21
59.557059207894021
 31
0.0
  0
LINE
  5
C5
  8
1
 62
     7
 10
104.718698917673
 20
23.75
 30
0.0
 11
104.2186989176729
 21
23.75
 31
0.0
  0
LINE
  5
C6
  8
1
 62
     7
 10
104.718698917673
 20
42.0
 30
0.0
 11
104.718698917673
 21
11.0
 31
0.0
  0
LINE
  5
C7
  8
1
 62
     7
 10
104.718698917673
 20
37.0
 30
0.0
 11
104.2186989176729
 21
37.0
 31
0.0
  0
LINE
  5
C8
  8
1
 62
     7
 10
104.2186989176729
 20
-30.0
 30
0.0
 11
104.2186989176729
 21
-11.0
 31
0.0
  0
LINE
  5
C9
  8
1
 62
     7
 10
103.718698917673
 20
43.0
 30
0.0
 11
103.718698917673
 21
34.25
 31
0.0
  0
LINE
  5
CA
  8
1
 62
     7
 10
104.718698917673
 20
42.0
 30
0.0
 11
104.2186989176729
 21
42.0
 31
0.0
  0
LINE
  5
CB
  8
1
 62
     7
 10
106.118698917673
 20
-34.400000000000013
 30
0.0
 11
105.6186989176729
 21
-33.900000000000013
 31
0.0
  0
LINE
  5
CC
  8
1
 62
     7
 10
105.6186989176729
 20
-41.09999999999998
 30
0.0
 11
106.118698917673
 21
-40.59999999999998
 31
0.0
  0
LINE
  5
CD
  8
1
 62
     7
 10
104.718698917673
 20
-33.900000000000013
 30
0.0
 11
104.718698917673
 21
-41.09999999999998
 31
0.0
  0
LINE
  5
CE
  8
1
 62
     7
 10
105.6186989176729
 20
-33.900000000000013
 30
0.0
 11
104.2186989176729
 21
-33.900000000000013
 31
0.0
  0
LINE
  5
CF
  8
1
 62
     7
 10
106.118698917673
 20
-34.400000000000013
 30
0.0
 11
106.118698917673
 21
-40.59999999999998
 31
0.0
  0
LINE
  5
D0
  8
1
 62
     7
 10
105.6186989176729
 20
-41.09999999999998
 30
0.0
 11
104.2186989176729
 21
-41.09999999999998
 31
0.0
  0
LINE
  5
D1
  8
1
 62
     7
 10
104.2186989176729
 20
-30.0
 30
0.0
 11
103.718698917673
 21
-31.86602540378442
 31
0.0
  0
LINE
  5
D2
  8
1
 62
     7
 10
104.718698917673
 20
-30.06582624879367
 30
0.0
 11
104.2186989176729
 21
-31.931851652578121
 31
0.0
  0
LINE
  5
D3
  8
1
 62
     7
 10
104.2186989176729
 20
-31.931851652578121
 30
0.0
 11
104.2186989176729
 21
-42.0
 31
0.0
  0
LINE
  5
D4
  8
1
 62
     7
 10
104.2186989176729
 20
-42.0
 30
0.0
 11
103.718698917673
 21
-42.0
 31
0.0
  0
LINE
  5
D5
  8
1
 62
     7
 10
99.618698917673001
 20
43.0
 30
0.0
 11
103.718698917673
 21
43.0
 31
0.0
  0
LINE
  5
D6
  8
1
 62
     7
 10
99.618698917673001
 20
22.5
 30
0.0
 11
104.2186989176729
 21
22.5
 31
0.0
  0
LINE
  5
D7
  8
1
 62
     7
 10
104.2186989176729
 20
-22.5
 30
0.0
 11
99.618698917673001
 21
-22.5
 31
0.0
  0
LINE
  5
D8
  8
1
 62
     7
 10
104.2186989176729
 20
-30.0
 30
0.0
 11
103.718698917673
 21
-30.0
 31
0.0
  0
LINE
  5
D9
  8
1
 62
     7
 10
103.718698917673
 20
-43.0
 30
0.0
 11
99.618698917673001
 21
-43.0
 31
0.0
  0
LINE
  5
DA
  8
1
 62
     7
 10
99.618698917673001
 20
43.0
 30
0.0
 11
99.618698917673001
 21
11.0
 31
0.0
  0
LINE
  5
DB
  8
1
 62
     7
 10
103.718698917673
 20
-43.0
 30
0.0
 11
103.718698917673
 21
-30.0
 31
0.0
  0
LINE
  5
DC
  8
1
 62
     7
 10
108.01869891767291
 20
-11.0
 30
0.0
 11
108.01869891767291
 21
-26.000000000000011
 31
0.0
  0
LINE
  5
DD
  8
1
 62
     7
 10
106.318698917673
 20
-11.0
 30
0.0
 11
106.318698917673
 21
-33.0
 31
0.0
  0
LINE
  5
DE
  8
1
 62
     7
 10
99.018698917672992
 20
-10.0
 30
0.0
 11
115.51869891767291
 21
-10.0
 31
0.0
  0
LINE
  5
DF
  8
1
 62
     7
 10
99.018698917672992
 20
10.0
 30
0.0
 11
115.51869891767291
 21
10.0
 31
0.0
  0
LINE
  5
E0
  8
1
 62
     7
 10
108.01869891767291
 20
-22.25
 30
0.0
 11
121.51869891767291
 21
-22.25
 31
0.0
  0
LINE
  5
E1
  8
1
 62
     7
 10
108.01869891767291
 20
-17.750000000000011
 30
0.0
 11
121.51869891767291
 21
-17.750000000000011
 31
0.0
  0
LINE
  5
E2
  8
1
  6
DASHDOT
 62
     3
 10
106.80739547911119
 20
-20.000000000000011
 30
0.0
 11
122.3271825746634
 21
-20.000000000000011
 31
0.0
  0
LINE
  5
E3
  8
1
  6
DASHDOT
 62
     3
 10
126.51869891767301
 20
0.0
 30
0.0
 11
121.51869891767291
 21
0.0
 31
0.0
  0
LINE
  5
E4
  8
1
 62
     7
 10
106.318698917673
 20
34.999999999999993
 30
0.0
 11
106.5686989176729
 21
34.999999999999993
 31
0.0
  0
LINE
  5
E5
  8
1
 62
     7
 10
106.318698917673
 20
24.999999999999989
 30
0.0
 11
106.5686989176729
 21
24.999999999999989
 31
0.0
  0
LINE
  5
E6
  8
1
 62
     7
 10
106.5686989176729
 20
36.399999999999991
 30
0.0
 11
106.5686989176729
 21
23.600000000000001
 31
0.0
  0
LINE
  5
E7
  8
1
 62
     7
 10
106.5686989176729
 20
23.600000000000001
 30
0.0
 11
108.01869891767291
 21
23.600000000000001
 31
0.0
  0
LINE
  5
E8
  8
1
 62
     7
 10
106.5686989176729
 20
36.399999999999991
 30
0.0
 11
108.01869891767291
 21
36.399999999999991
 31
0.0
  0
LINE
  5
E9
  8
1
 62
     7
 10
108.118698917673
 20
42.999999999999993
 30
0.0
 11
121.51869891767291
 21
42.999999999999993
 31
0.0
  0
LINE
  5
EA
  8
1
 62
     7
 10
108.01869891767291
 20
42.899999999999991
 30
0.0
 11
108.01869891767291
 21
11.0
 31
0.0
  0
LINE
  5
EB
  8
1
 62
     7
 10
121.51869891767291
 20
42.999999999999993
 30
0.0
 11
121.51869891767291
 21
-26.000000000000011
 31
0.0
  0
LINE
  5
EC
  8
1
 62
     7
 10
115.51869891767291
 20
16.0
 30
0.0
 11
121.51869891767291
 21
16.0
 31
0.0
  0
LINE
  5
ED
  8
1
 62
     7
 10
115.51869891767291
 20
16.0
 30
0.0
 11
115.51869891767291
 21
-16.000000000000011
 31
0.0
  0
LINE
  5
EE
  8
1
 62
     7
 10
108.01869891767291
 20
13.0
 30
0.0
 11
115.51869891767291
 21
13.0
 31
0.0
  0
LINE
  5
EF
  8
1
 62
     7
 10
106.318698917673
 20
-22.500000000000011
 30
0.0
 11
104.718698917673
 21
-22.499999999999989
 31
0.0
  0
LINE
  5
F0
  8
1
 62
     7
 10
104.718698917673
 20
-32.999999999999993
 30
0.0
 11
106.318698917673
 21
-33.0
 31
0.0
  0
LINE
  5
F1
  8
1
 62
     7
 10
108.01869891767291
 20
-13.0
 30
0.0
 11
115.51869891767291
 21
-13.0
 31
0.0
  0
LINE
  5
F2
  8
1
 62
     7
 10
115.51869891767291
 20
-16.000000000000011
 30
0.0
 11
121.51869891767291
 21
-16.000000000000011
 31
0.0
  0
LINE
  5
F3
  8
1
 62
     7
 10
108.01869891767291
 20
-26.000000000000011
 30
0.0
 11
110.01869891767291
 21
-26.000000000000011
 31
0.0
  0
LINE
  5
F4
  8
1
 62
     7
 10
111.51869891767291
 20
-27.500000000000011
 30
0.0
 11
111.51869891767291
 21
-28.070777704170791
 31
0.0
  0
LINE
  5
F5
  8
1
 62
     7
 10
121.51869891767291
 20
-26.000000000000011
 30
0.0
 11
119.51869891767291
 21
-26.000000000000011
 31
0.0
  0
LINE
  5
F6
  8
1
 62
     7
 10
118.01869891767301
 20
-28.070777704170791
 30
0.0
 11
118.01869891767301
 21
-27.500000000000011
 31
0.0
  0
LINE
  5
F7
  8
1
 62
     7
 10
113.01869891767291
 20
-29.570777704170791
 30
0.0
 11
116.51869891767291
 21
-29.570777704170791
 31
0.0
  0
LINE
  5
F8
  8
1
 62
     7
 10
104.718698917673
 20
37.999999999999993
 30
0.0
 11
106.318698917673
 21
37.999999999999993
 31
0.0
  0
LINE
  5
F9
  8
1
 62
     7
 10
106.318698917673
 20
37.999999999999993
 30
0.0
 11
106.318698917673
 21
11.0
 31
0.0
  0
LINE
  5
FA
  8
1
 62
     7
 10
108.01869891767291
 20
42.899999999999991
 30
0.0
 11
108.118698917673
 21
42.999999999999993
 31
0.0
  0
LINE
  5
FB
  8
1
  6
DASHDOT
 62
     3
 10
175.66445886370491
 20
0.0000000000000284
 30
0.0
 11
168.60880759255269
 21
0.0000000000000284
 31
0.0
  0
LINE
  5
FC
  8
1
  6
DASHDOT
 62
     3
 10
216.30204583000261
 20
0.0000000000000284
 30
0.0
 11
208.41445886370491
 21
0.0000000000000284
 31
0.0
  0
LINE
  5
FD
  8
1
  6
DASHDOT
 62
     3
 10
192.41445886370499
 20
57.554777290819828
 30
0.0
 11
192.41445886370499
 21
54.728965231044839
 31
0.0
  0
LINE
  5
FE
  8
1
  6
DASHDOT
 62
     3
 10
190.8426143181147
 20
56.000000000000028
 30
0.0
 11
194.13453970733659
 21
56.000000000000028
 31
0.0
  0
LINE
  5
FF
  8
1
  6
DASHDOT
 62
     3
 10
192.41445886370499
 20
3.9828855966308359
 30
0.0
 11
192.41445886370499
 21
-3.3277604271921741
 31
0.0
  0
LINE
  5
100
  8
1
  6
DASHDOT
 62
     3
 10
196.18885384250959
 20
0.0000000000000284
 30
0.0
 11
188.5929143153177
 21
0.0000000000000284
 31
0.0
  0
LINE
  5
101
  8
1
 62
     7
 10
173.25634237952681
 20
32.817168872080728
 30
0.0
 11
154.41489869811019
 21
0.1828311279193429
 31
0.0
  0
LINE
  5
102
  8
1
 62
     7
 10
230.41401902929979
 20
0.1828311279193429
 30
0.0
 11
211.57257534788309
 21
32.817168872080728
 31
0.0
  0
LINE
  5
103
  8
1
 62
     7
 10
173.57301518228809
 20
-32.999999999999957
 30
0.0
 11
211.25590254512181
 21
-32.999999999999957
 31
0.0
  0
LINE
  5
104
  8
1
 62
     7
 10
212.8310946066147
 20
70.013996623915858
 30
0.0
 11
214.12518983212721
 21
74.843625755361259
 31
0.0
  0
LINE
  5
105
  8
1
 62
     7
 10
212.5413168587279
 20
70.091642337446643
 30
0.0
 11
213.83541208424049
 21
74.921271468892058
 31
0.0
  0
LINE
  5
106
  8
1
 62
     7
 10
209.74013196248961
 20
70.842217568243967
 30
0.0
 11
211.03422718800229
 21
75.671846699689326
 31
0.0
  0
LINE
  5
107
  8
1
 62
     7
 10
210.0299097103763
 20
70.764571854713225
 30
0.0
 11
211.32400493588901
 21
75.59420098615854
 31
0.0
  0
LINE
  5
108
  8
1
 62
     7
 10
212.25153911084129
 20
70.169288050977428
 30
0.0
 11
213.54563433635391
 21
74.998917182422844
 31
0.0
  0
LINE
  5
109
  8
1
 62
     7
 10
210.31968745826319
 20
70.686926141182454
 30
0.0
 11
211.61378268377581
 21
75.51655527262777
 31
0.0
  0
LINE
  5
10A
  8
1
 62
     7
 10
204.06131589331829
 20
43.466662183008133
 30
0.0
 11
211.28561328455211
 21
70.42810709607997
 31
0.0
  0
LINE
  5
10B
  8
1
 62
     7
 10
184.41445886370499
 20
60.000000000000028
 30
0.0
 11
184.41445886370499
 21
44.283179650969082
 31
0.0
  0
LINE
  5
10C
  8
1
 62
     7
 10
200.41445886370491
 20
60.000000000000028
 30
0.0
 11
200.41445886370491
 21
44.283179650969153
 31
0.0
  0
LINE
  5
10D
  8
1
 62
     7
 10
186.41445886370491
 20
62.0
 30
0.0
 11
198.41445886370491
 21
62.000000000000021
 31
0.0
  0
LINE
  5
10E
  8
1
  6
DASHDOT
 62
     3
 10
200.7439452523449
 20
14.427093626077641
 30
0.0
 11
204.33360753224511
 21
20.644571076878549
 31
0.0
  0
LINE
  5
10F
  8
1
  6
DASHDOT
 62
     3
 10
180.86492630706809
 20
-20.004377191765769
 30
0.0
 11
183.9747969167893
 21
-14.617923290763761
 31
0.0
  0
LINE
  5
110
  8
1
  6
DASHDOT
 62
     3
 10
180.89129814159801
 20
19.958699834471439
 30
0.0
 11
184.01027074462181
 21
14.55648081861875
 31
0.0
  0
LINE
  5
111
  8
1
  6
DASHDOT
 62
     3
 10
200.75455197202399
 20
-14.445465003463649
 30
0.0
 11
204.1246345283368
 21
-20.282619216698741
 31
0.0
  0
LINE
  5
112
  8
1
 62
     7
 10
181.29917905452319
 20
39.889326038494353
 30
0.0
 11
152.3116492699379
 21
-10.31854833432357
 31
0.0
  0
LINE
  5
113
  8
1
 62
     7
 10
163.42692907911959
 20
-29.570777704170869
 30
0.0
 11
221.40198864829031
 21
-29.570777704170752
 31
0.0
  0
LINE
  5
114
  8
1
 62
     7
 10
232.5172684574722
 20
-10.31854833432344
 30
0.0
 11
203.52973867288679
 21
39.889326038494431
 31
0.0
  0
LINE
  5
115
  8
1
 62
     7
 10
208.87079871882949
 20
71.075154708836266
 30
0.0
 11
213.70042785027491
 21
69.781059483323546
 31
0.0
  0
LINE
  5
116
  8
1
 62
     7
 10
213.70042785027491
 20
69.781059483323546
 30
0.0
 11
206.45814302432299
 21
42.752484549986242
 31
0.0
  0
LINE
  5
117
  8
1
 62
     7
 10
201.62851389287761
 20
44.046579775498827
 30
0.0
 11
208.87079871882949
 21
71.075154708836266
 31
0.0
  0
LINE
  5
118
  8
1
  6
DASHDOT
 62
     3
 10
39.225000000000023
 20
0.0
 30
0.0
 11
34.225000000000009
 21
0.0
 31
0.0
  0
LINE
  5
119
  8
1
 62
     7
 10
12.32499999999999
 20
43.0
 30
0.0
 11
12.32499999999999
 21
-43.0
 31
0.0
  0
LINE
  5
11A
  8
1
 62
     7
 10
12.32499999999999
 20
43.0
 30
0.0
 11
16.42499999999999
 21
43.0
 31
0.0
  0
LINE
  5
11B
  8
1
 62
     7
 10
19.025000000000009
 20
35.0
 30
0.0
 11
19.275000000000009
 21
35.0
 31
0.0
  0
LINE
  5
11C
  8
1
 62
     7
 10
19.025000000000009
 20
25.0
 30
0.0
 11
19.275000000000009
 21
25.0
 31
0.0
  0
LINE
  5
11D
  8
1
 62
     7
 10
19.275000000000009
 20
36.400000000000013
 30
0.0
 11
19.275000000000009
 21
23.600000000000019
 31
0.0
  0
LINE
  5
11E
  8
1
 62
     7
 10
19.275000000000009
 20
23.600000000000019
 30
0.0
 11
19.275000000000009
 21
25.0
 31
0.0
  0
LINE
  5
11F
  8
1
 62
     7
 10
19.275000000000009
 20
23.600000000000019
 30
0.0
 11
20.725000000000001
 21
23.600000000000019
 31
0.0
  0
LINE
  5
120
  8
1
 62
     7
 10
19.275000000000009
 20
36.400000000000013
 30
0.0
 11
20.725000000000001
 21
36.400000000000013
 31
0.0
  0
LINE
  5
121
  8
1
 62
     7
 10
20.824999999999982
 20
43.0
 30
0.0
 11
34.225000000000009
 21
43.0
 31
0.0
  0
LINE
  5
122
  8
1
 62
     7
 10
20.725000000000001
 20
42.900000000000013
 30
0.0
 11
20.725000000000001
 21
-26.0
 31
0.0
  0
LINE
  5
123
  8
1
 62
     7
 10
34.225000000000009
 20
43.0
 30
0.0
 11
34.225000000000009
 21
-26.0
 31
0.0
  0
LINE
  5
124
  8
1
 62
     7
 10
17.424999999999969
 20
-30.06582624879367
 30
0.0
 11
16.92499999999999
 21
-31.745249112199701
 31
0.0
  0
LINE
  5
125
  8
1
 62
     7
 10
16.924999999999979
 20
-30.0
 30
0.0
 11
16.42499999999999
 21
-31.679422863405989
 31
0.0
  0
LINE
  5
126
  8
1
 62
     7
 10
16.92499999999999
 20
-31.745249112199701
 30
0.0
 11
16.92499999999999
 21
-42.0
 31
0.0
  0
LINE
  5
127
  8
1
 62
     7
 10
16.92499999999999
 20
-42.0
 30
0.0
 11
16.42499999999999
 21
-42.0
 31
0.0
  0
LINE
  5
128
  8
1
 62
     7
 10
17.424999999999969
 20
-33.0
 30
0.0
 11
19.025000000000009
 21
-33.0
 31
0.0
  0
LINE
  5
129
  8
1
 62
     7
 10
20.725000000000001
 20
-26.0
 30
0.0
 11
22.725000000000001
 21
-26.0
 31
0.0
  0
LINE
  5
12A
  8
1
 62
     7
 10
24.225000000000001
 20
-27.5
 30
0.0
 11
24.225000000000001
 21
-28.07077770417078
 31
0.0
  0
LINE
  5
12B
  8
1
 62
     7
 10
34.225000000000009
 20
-26.0
 30
0.0
 11
32.225000000000009
 21
-26.0
 31
0.0
  0
LINE
  5
12C
  8
1
 62
     7
 10
30.725000000000009
 20
-28.07077770417078
 30
0.0
 11
30.725000000000009
 21
-27.5
 31
0.0
  0
LINE
  5
12D
  8
1
 62
     7
 10
25.725000000000001
 20
-29.570777704170769
 30
0.0
 11
29.225000000000009
 21
-29.570777704170769
 31
0.0
  0
LINE
  5
12E
  8
1
 62
     7
 10
17.424999999999969
 20
38.0
 30
0.0
 11
19.025000000000009
 21
38.0
 31
0.0
  0
LINE
  5
12F
  8
1
 62
     7
 10
19.025000000000009
 20
38.0
 30
0.0
 11
19.025000000000009
 21
-33.0
 31
0.0
  0
LINE
  5
130
  8
1
 62
     7
 10
20.725000000000001
 20
42.900000000000013
 30
0.0
 11
20.824999999999982
 21
43.0
 31
0.0
  0
LINE
  5
131
  8
1
 62
     7
 10
103.718698917673
 20
34.25
 30
0.0
 11
103.718698917673
 21
30.0
 31
0.0
  0
LINE
  5
132
  8
1
 62
     7
 10
104.2186989176729
 20
30.0
 30
0.0
 11
103.718698917673
 21
30.0
 31
0.0
  0
LINE
  5
133
  8
1
 62
     7
 10
104.2186989176729
 20
11.0
 30
0.0
 11
104.2186989176729
 21
42.0
 31
0.0
  0
LINE
  5
134
  8
1
 62
     7
 10
99.618698917673001
 20
-11.0
 30
0.0
 11
99.618698917673001
 21
-43.0
 31
0.0
  0
ARC
  5
135
  8
1
 62
     7
 10
71.509965974043169
 20
28.091267056370121
 30
0.0
 40
4.991274696138289
 50
179.8997528490282
 51
258.54489837466491
  0
ARC
  5
136
  8
1
 62
     7
 10
-93.924439878882396
 20
0.0000000000000213
 30
0.0
 40
42.34999999999998
 50
100.88871352660099
 51
79.111286473398863
  0
ARC
  5
137
  8
1
 62
     7
 10
-14.775
 20
36.350000000000023
 30
0.0
 40
5.9999999999999858
 50
90.0
 51
180.0
  0
ARC
  5
138
  8
1
 62
     7
 10
71.509965974043155
 20
-28.091267056370121
 30
0.0
 40
4.9912746961382606
 50
90.100247150971796
 51
180.1002471509718
  0
ARC
  5
139
  8
1
 62
     7
 10
72.518698917672992
 20
36.350000000000023
 30
0.0
 40
5.9999999999999858
 50
90.0
 51
180.0
  0
ARC
  5
13A
  8
1
 62
     7
 10
-109.9244398788824
 20
39.912404086950218
 30
0.0
 40
7.999999999999992
 50
291.84475748576313
 51
0.0
  0
ARC
  5
13B
  8
1
 62
     7
 10
-77.924439878882396
 20
39.912404086950218
 30
0.0
 40
8.0
 50
180.0
 51
248.1552425142369
  0
ARC
  5
13C
  8
1
 62
     7
 10
-93.924439878882396
 20
0.0000000000000213
 30
0.0
 40
7.4999999999999929
 50
109.47122063449071
 51
70.528779365509266
  0
ARC
  5
13D
  8
1
 62
     7
 10
-99.924439878882424
 20
60.0
 30
0.0
 40
2.0
 50
90.0
 51
180.0
  0
ARC
  5
13E
  8
1
 62
     7
 10
-87.924439878882396
 20
60.0
 30
0.0
 40
2.0
 50
0.0
 51
90.0
  0
ARC
  5
13F
  8
1
 62
     7
 10
-93.924439878882396
 20
0.0000000000000213
 30
0.0
 40
35.0
 50
111.8447574857632
 51
68.15524251423669
  0
ARC
  5
140
  8
1
 62
     7
 10
-93.924439878882396
 20
0.0000000000000213
 30
0.0
 40
44.999999999999993
 50
108.1847385367202
 51
79.759651678813782
  0
ARC
  5
141
  8
1
 62
     7
 10
-93.924439878882396
 20
0.0000000000000213
 30
0.0
 40
45.0
 50
100.2403483211862
 51
101.8152614632795
  0
ARC
  5
142
  8
1
  6
DASHDOT
 62
     3
 10
192.41445886370499
 20
0.0000000000000213
 30
0.0
 40
19.999999999999989
 50
168.24981628549449
 51
192.55845381636379
  0
ARC
  5
143
  8
1
  6
DASHDOT
 62
     3
 10
192.41445886370499
 20
0.0000000000000213
 30
0.0
 40
19.999999999999989
 50
229.51738139870699
 51
251.65224994296969
  0
ARC
  5
144
  8
1
  6
DASHDOT
 62
     3
 10
192.41445886370499
 20
0.0000000000000213
 30
0.0
 40
20.000000000000039
 50
287.13457751462113
 51
311.76691566729181
  0
ARC
  5
145
  8
1
  6
DASHDOT
 62
     3
 10
192.41445886370499
 20
0.0000000000000213
 30
0.0
 40
20.000000000000039
 50
47.138835515121599
 51
71.586774068913741
  0
ARC
  5
146
  8
1
  6
DASHDOT
 62
     3
 10
192.41445886370499
 20
0.0000000000000213
 30
0.0
 40
20.000000000000011
 50
348.31209285254442
 51
11.90003752292149
  0
ARC
  5
147
  8
1
  6
DASHDOT
 62
     3
 10
192.41445886370499
 20
0.0000000000000213
 30
0.0
 40
20.000000000000028
 50
108.9689221133923
 51
131.0793716407164
  0
ARC
  5
148
  8
1
 62
     7
 10
192.41445886370499
 20
0.0000000000000213
 30
0.0
 40
37.999999999999929
 50
111.09408908639929
 51
120.2756708528929
  0
ARC
  5
149
  8
1
 62
     7
 10
192.41445886370499
 20
0.0000000000000213
 30
0.0
 40
38.000000000000071
 50
351.09408908639949
 51
0.2756708528929818
  0
ARC
  5
14A
  8
1
 62
     7
 10
192.41445886370499
 20
0.0000000000000213
 30
0.0
 40
37.999999999999929
 50
179.724329147107
 51
188.90591091360079
  0
ARC
  5
14B
  8
1
 62
     7
 10
192.41445886370499
 20
0.0000000000000213
 30
0.0
 40
38.0
 50
59.724329147107071
 51
68.905910913600721
  0
ARC
  5
14C
  8
1
 62
     7
 10
192.41445886370499
 20
0.0000000000000213
 30
0.0
 40
38.0
 50
299.72432914710708
 51
308.90591091360062
  0
ARC
  5
14D
  8
1
 62
     7
 10
192.41445886370499
 20
0.0000000000000213
 30
0.0
 40
37.999999999999929
 50
231.09408908639929
 51
240.27567085289289
  0
ARC
  5
14E
  8
1
 62
     7
 10
192.41445886370499
 20
30.000000000000028
 30
0.0
 40
13.00000000000006
 50
356.90452225930801
 51
183.09547774069179
  0
ARC
  5
14F
  8
1
 62
     7
 10
167.45093547456781
 20
28.650000000000031
 30
0.0
 40
12.00000000000011
 50
311.0665220393239
 51
3.095477740691901
  0
ARC
  5
150
  8
1
 62
     7
 10
217.37798225284209
 20
28.650000000000031
 30
0.0
 40
11.999999999999959
 50
176.9045222593081
 51
228.93347796067641
  0
ARC
  5
151
  8
1
 62
     7
 10
192.41445886370499
 20
0.0000000000000213
 30
0.0
 40
26.000000000000071
 50
11.06652203932385
 51
48.933477960675972
  0
ARC
  5
152
  8
1
 62
     7
 10
166.43369675017189
 20
-14.99999999999997
 30
0.0
 40
12.999999999999989
 50
116.9045222593081
 51
303.09547774069182
  0
ARC
  5
153
  8
1
 62
     7
 10
218.39522097723821
 20
-14.99999999999997
 30
0.0
 40
13.0
 50
236.90452225930781
 51
63.095477740691962
  0
ARC
  5
154
  8
1
 62
     7
 10
180.08459273984951
 20
-35.944045422959753
 30
0.0
 40
11.999999999999959
 50
71.066522039323999
 51
123.0954777406922
  0
ARC
  5
155
  8
1
 62
     7
 10
229.70784837669771
 20
7.2940454229598402
 30
0.0
 40
11.999999999999959
 50
191.06652203932401
 51
243.09547774069199
  0
ARC
  5
156
  8
1
 62
     7
 10
155.1210693507123
 20
7.2940454229598402
 30
0.0
 40
11.999999999999989
 50
296.90452225930812
 51
348.93347796067599
  0
ARC
  5
157
  8
1
 62
     7
 10
204.7443249875605
 20
-35.944045422959753
 30
0.0
 40
11.99999999999998
 50
56.904522259308223
 51
108.9334779606764
  0
ARC
  5
158
  8
1
 62
     7
 10
192.41445886370499
 20
0.0000000000000213
 30
0.0
 40
25.999999999999879
 50
131.0665220393237
 51
168.9334779606761
  0
ARC
  5
159
  8
1
 62
     7
 10
192.41445886370499
 20
0.0000000000000213
 30
0.0
 40
25.999999999999961
 50
251.0665220393239
 51
288.93347796067587
  0
ARC
  5
15A
  8
1
 62
     7
 10
185.62930607344541
 20
37.389326038494353
 30
0.0
 40
4.9999999999999973
 50
100.2857001690172
 51
150.0
  0
ARC
  5
15B
  8
1
 62
     7
 10
156.6417762888602
 20
-12.81854833432357
 30
0.0
 40
5.000000000000016
 50
150.0
 51
199.71429983098281
  0
ARC
  5
15C
  8
1
 62
     7
 10
163.42692907911959
 20
-24.570777704170869
 30
0.0
 40
4.9999999999998792
 50
220.28570016901659
 51
270.0
  0
ARC
  5
15D
  8
1
 62
     7
 10
228.1871414385499
 20
-12.81854833432344
 30
0.0
 40
5.0000000000000417
 50
340.28570016901682
 51
29.99999999999941
  0
ARC
  5
15E
  8
1
 62
     7
 10
221.40198864829031
 20
-24.570777704170752
 30
0.0
 40
5.0
 50
270.0
 51
319.71429983098318
  0
ARC
  5
15F
  8
1
 62
     7
 10
199.1996116539645
 20
37.389326038494431
 30
0.0
 40
4.999999999999992
 50
30.00000000000005
 51
79.714299830984203
  0
ARC
  5
160
  8
1
 62
     7
 10
192.41445886370499
 20
0.0000000000000213
 30
0.0
 40
42.0
 50
359.99999999999977
 51
60.00000000000005
  0
ARC
  5
161
  8
1
 62
     7
 10
214.41445886370499
 20
0.0000000000000284
 30
0.0
 40
19.999999999999979
 50
331.72958762134431
 51
359.99999999999972
  0
ARC
  5
162
  8
1
 62
     7
 10
203.41445886370499
 20
19.05255888325771
 30
0.0
 40
20.000000000000011
 50
60.000000000000021
 51
88.270412378656602
  0
ARC
  5
163
  8
1
 62
     7
 10
192.41445886370499
 20
0.0000000000000213
 30
0.0
 40
41.999999999999957
 50
119.9999999999997
 51
180.0
  0
ARC
  5
164
  8
1
 62
     7
 10
192.41445886370499
 20
0.0000000000000213
 30
0.0
 40
41.999999999999929
 50
239.9999999999998
 51
300.00000000000011
  0
ARC
  5
165
  8
1
 62
     7
 10
170.41445886370511
 20
0.0000000000000284
 30
0.0
 40
20.00000000000011
 50
180.0
 51
208.27041237865649
  0
ARC
  5
166
  8
1
 62
     7
 10
203.41445886370499
 20
-19.05255888325755
 30
0.0
 40
19.999999999999961
 50
300.00000000000011
 51
328.27041237865672
  0
ARC
  5
167
  8
1
 62
     7
 10
181.41445886370491
 20
19.052558883257621
 30
0.0
 40
20.000000000000039
 50
91.729587621343953
 51
119.9999999999993
  0
ARC
  5
168
  8
1
 62
     7
 10
181.41445886370491
 20
-19.052558883257579
 30
0.0
 40
20.000000000000028
 50
211.72958762134391
 51
239.9999999999996
  0
CIRCLE
  5
169
  8
1
 62
     7
 10
78.518698917672992
 20
-18.0
 30
0.0
 40
3.2999999999999972
  0
CIRCLE
  5
16A
  8
1
 62
     7
 10
78.518698917672992
 20
18.0
 30
0.0
 40
3.2999999999999972
  0
CIRCLE
  5
16B
  8
1
 62
     7
 10
-93.924439878882396
 20
56.000000000000028
 30
0.0
 40
2.75
  0
CIRCLE
  5
16C
  8
1
 62
     7
 10
-93.924439878882396
 20
0.0000000000000213
 30
0.0
 40
15.0
  0
CIRCLE
  5
16D
  8
1
 62
     7
 10
-93.924439878882396
 20
0.0000000000000213
 30
0.0
 40
20.75
  0
CIRCLE
  5
16E
  8
1
 62
     7
 10
192.41445886370499
 20
56.000000000000028
 30
0.0
 40
2.75
  0
CIRCLE
  5
16F
  8
1
 62
     7
 10
192.41445886370499
 20
0.0000000000000213
 30
0.0
 40
45.0
  0
CIRCLE
  5
170
  8
1
 62
     7
 10
192.41445886370499
 20
0.0000000000000213
 30
0.0
 40
43.0
  0
CIRCLE
  5
171
  8
1
 62
     7
 10
192.41445886370499
 20
0.0000000000000213
 30
0.0
 40
16.0
  0
CIRCLE
  5
172
  8
1
 62
     7
 10
192.41445886370499
 20
0.0000000000000213
 30
0.0
 40
13.0
  0
CIRCLE
  5
173
  8
1
 62
     7
 10
192.41445886370499
 20
-37.499999999999957
 30
0.0
 40
4.0
  0
CIRCLE
  5
174
  8
1
 62
     3
 10
212.41445886370499
 20
0.0000000000000284
 30
0.0
 40
2.0
  0
CIRCLE
  5
175
  8
1
 62
     7
 10
212.41445886370499
 20
0.0000000000000284
 30
0.0
 40
1.5999999999999941
  0
CIRCLE
  5
176
  8
1
 62
     7
 10
172.41445886370491
 20
0.0000000000000284
 30
0.0
 40
2.25
  0
CIRCLE
  5
177
  8
1
 62
     7
 10
192.41445886370499
 20
30.000000000000028
 30
0.0
 40
8.0
  0
CIRCLE
  5
178
  8
1
 62
     7
 10
192.41445886370499
 20
30.000000000000028
 30
0.0
 40
5.0
  0
CIRCLE
  5
179
  8
1
 62
     7
 10
192.41445886370499
 20
30.000000000000028
 30
0.0
 40
2.0
  0
CIRCLE
  5
17A
  8
1
 62
     7
 10
192.41445886370499
 20
30.000000000000028
 30
0.0
 40
1.5999999999999941
  0
CIRCLE
  5
17B
  8
1
 62
     7
 10
166.43369675017189
 20
-14.99999999999997
 30
0.0
 40
7.9999999999999902
  0
CIRCLE
  5
17C
  8
1
 62
     7
 10
218.39522097723821
 20
-14.99999999999997
 30
0.0
 40
7.999999999999992
  0
CIRCLE
  5
17D
  8
1
 62
     7
 10
166.43369675017189
 20
-14.99999999999997
 30
0.0
 40
5.0000000000000151
  0
CIRCLE
  5
17E
  8
1
 62
     7
 10
218.39522097723821
 20
-14.99999999999997
 30
0.0
 40
4.9999999999999947
  0
CIRCLE
  5
17F
  8
1
 62
     7
 10
166.43369675017189
 20
-14.99999999999997
 30
0.0
 40
2.0000000000000102
  0
CIRCLE
  5
180
  8
1
 62
     7
 10
218.39522097723821
 20
-14.99999999999997
 30
0.0
 40
2.00000000000002
  0
CIRCLE
  5
181
  8
1
 62
     7
 10
166.43369675017189
 20
-14.99999999999997
 30
0.0
 40
1.6000000000000061
  0
CIRCLE
  5
182
  8
1
 62
     7
 10
218.39522097723821
 20
-14.99999999999997
 30
0.0
 40
1.600000000000074
  0
CIRCLE
  5
183
  8
1
 62
     7
 10
224.8904115056215
 20
18.750000000000028
 30
0.0
 40
4.0000000000000329
  0
CIRCLE
  5
184
  8
1
 62
     7
 10
159.93850622178849
 20
18.750000000000028
 30
0.0
 40
3.9999999999999578
  0
CIRCLE
  5
185
  8
1
 62
     3
 10
182.41445886370491
 20
17.320508075688739
 30
0.0
 40
2.0000000000000102
  0
CIRCLE
  5
186
  8
1
 62
     7
 10
182.41445886370491
 20
17.320508075688739
 30
0.0
 40
1.6000000000000341
  0
CIRCLE
  5
187
  8
1
 62
     3
 10
182.41445886370491
 20
-17.32050807568876
 30
0.0
 40
1.999999999999948
  0
CIRCLE
  5
188
  8
1
 62
     7
 10
182.41445886370491
 20
-17.32050807568876
 30
0.0
 40
1.5999999999999881
  0
CIRCLE
  5
189
  8
1
 62
     7
 10
202.41445886370491
 20
-17.32050807568876
 30
0.0
 40
2.2500000000000111
  0
CIRCLE
  5
18A
  8
1
 62
     7
 10
202.41445886370491
 20
17.320508075688739
 30
0.0
 40
2.2499999999999161
  0
CIRCLE
  5
18B
  8
1
 62
     7
 10
192.41445886370499
 20
30.000000000000028
 30
0.0
 40
9.5
  0
CIRCLE
  5
18C
  8
1
 62
     7
 10
166.43369675017189
 20
-14.99999999999997
 30
0.0
 40
9.5
  0
CIRCLE
  5
18D
  8
1
 62
     7
 10
218.39522097723821
 20
-14.99999999999997
 30
0.0
 40
9.5
  0
CIRCLE
  5
18E
  8
1
 62
     7
 10
192.41445886370499
 20
0.0000000000000213
 30
0.0
 40
7.5
  0
CIRCLE
  5
18F
  8
1
 62
     7
 10
192.41445886370499
 20
0.0000000000000213
 30
0.0
 40
10.0
  0
ARC
  5
190
  8
1
 62
     7
 10
-14.775
 20
-36.34999999999998
 30
0.0
 40
5.9999999999999973
 50
180.0
 51
270.0
  0
ARC
  5
191
  8
1
 62
     7
 10
72.518698917672992
 20
-36.34999999999998
 30
0.0
 40
5.9999999999999716
 50
180.0
 51
270.0
  0
ARC
  5
192
  8
1
 62
     7
 10
110.01869891767291
 20
-27.500000000000011
 30
0.0
 40
1.5
 50
0.0
 51
90.0
  0
ARC
  5
193
  8
1
 62
     7
 10
119.51869891767291
 20
-27.500000000000011
 30
0.0
 40
1.5
 50
90.0
 51
180.0
  0
ARC
  5
194
  8
1
 62
     7
 10
116.51869891767291
 20
-28.070777704170791
 30
0.0
 40
1.5
 50
270.0
 51
0.0
  0
ARC
  5
195
  8
1
 62
     7
 10
113.01869891767291
 20
-28.070777704170791
 30
0.0
 40
1.5
 50
180.0
 51
270.0
  0
ARC
  5
196
  8
1
 62
     7
 10
198.41445886370491
 20
60.000000000000028
 30
0.0
 40
2.0
 50
0.0
 51
90.0
  0
ARC
  5
197
  8
1
 62
     7
 10
186.41445886370491
 20
60.0
 30
0.0
 40
2.0
 50
90.0
 51
180.0
  0
ARC
  5
198
  8
1
 62
     7
 10
22.725000000000001
 20
-27.5
 30
0.0
 40
1.5
 50
0.0
 51
90.0
  0
ARC
  5
199
  8
1
 62
     7
 10
32.225000000000009
 20
-27.5
 30
0.0
 40
1.5
 50
90.0
 51
180.0
  0
ARC
  5
19A
  8
1
 62
     7
 10
29.225000000000009
 20
-28.07077770417078
 30
0.0
 40
1.5
 50
270.0
 51
0.0
  0
ARC
  5
19B
  8
1
 62
     7
 10
25.725000000000001
 20
-28.07077770417078
 30
0.0
 40
1.5
 50
180.0
 51
270.0
  0
TEXT
  5
19D
  8
1
 62
     7
 10
-127.0389716488129
 20
111.1102707022788
 30
0.0
 40
5.0
  1
VCEHA 1.2
 41
0.9
  7
SIMPLEX
  0
ENDSEC
  0
EOF
