  0
SECTION
  2
HEADER
  9
$ACADVER
  1
AC1009
  9
$INSBASE
 10
0.0
 20
0.0
 30
0.0
  9
$EXTMIN
 10
136.72438613943029
 20
-424.58494488539282
 30
0.0
  9
$EXTMAX
 10
622.13081377970423
 20
-223.62504356024829
 30
0.0
  9
$LIMMIN
 10
136.72438613943021
 20
-424.58494488539287
  9
$LIMMAX
 10
619.48146737912907
 20
-223.62504356024829
  9
$ORTHOMODE
 70
     0
  9
$REGENMODE
 70
     1
  9
$FILLMODE
 70
     1
  9
$QTEXTMODE
 70
     0
  9
$MIRRTEXT
 70
     1
  9
$DRAGMODE
 70
     2
  9
$LTSCALE
 40
1.0
  9
$OSMODE
 70
    37
  9
$ATTMODE
 70
     1
  9
$TEXTSIZE
 40
3.5
  9
$TRACEWID
 40
0.5
  9
$TEXTSTYLE
  7
STANDARD
  9
$CLAYER
  8
0
  9
$CELTYPE
  6
BYLAYER
  9
$CECOLOR
 62
   256
  9
$DIMSCALE
 40
1.0
  9
$DIMASZ
 40
0.18
  9
$DIMEXO
 40
0.0625
  9
$DIMDLI
 40
0.38
  9
$DIMRND
 40
0.0
  9
$DIMDLE
 40
0.0
  9
$DIMEXE
 40
0.18
  9
$DIMTP
 40
0.0
  9
$DIMTM
 40
0.0
  9
$DIMTXT
 40
0.18
  9
$DIMCEN
 40
0.09
  9
$DIMTSZ
 40
0.0
  9
$DIMTOL
 70
     0
  9
$DIMLIM
 70
     0
  9
$DIMTIH
 70
     1
  9
$DIMTOH
 70
     1
  9
$DIMSE1
 70
     0
  9
$DIMSE2
 70
     0
  9
$DIMTAD
 70
     0
  9
$DIMZIN
 70
     0
  9
$DIMBLK
  1

  9
$DIMASO
 70
     1
  9
$DIMSHO
 70
     1
  9
$DIMPOST
  1

  9
$DIMAPOST
  1

  9
$DIMALT
 70
     0
  9
$DIMALTD
 70
     2
  9
$DIMALTF
 40
25.399999999999999
  9
$DIMLFAC
 40
1.0
  9
$DIMTOFL
 70
     0
  9
$DIMTVP
 40
0.0
  9
$DIMTIX
 70
     0
  9
$DIMSOXD
 70
     0
  9
$DIMSAH
 70
     0
  9
$DIMBLK1
  1

  9
$DIMBLK2
  1

  9
$DIMSTYLE
  2
STANDARD
  9
$DIMCLRD
 70
     0
  9
$DIMCLRE
 70
     0
  9
$DIMCLRT
 70
     0
  9
$DIMTFAC
 40
1.0
  9
$DIMGAP
 40
0.09
  9
$LUNITS
 70
     2
  9
$LUPREC
 70
     4
  9
$SKETCHINC
 40
0.1
  9
$FILLETRAD
 40
2.0
  9
$AUNITS
 70
     0
  9
$AUPREC
 70
     0
  9
$MENU
  1
ACAD
  9
$ELEVATION
 40
0.0
  9
$PELEVATION
 40
0.0
  9
$THICKNESS
 40
0.0
  9
$LIMCHECK
 70
     0
  9
$BLIPMODE
 70
     0
  9
$CHAMFERA
 40
0.0
  9
$CHAMFERB
 40
0.0
  9
$SKPOLY
 70
     0
  9
$TDCREATE
 40
2452095.3801396992
  9
$TDUPDATE
 40
2452095.3808497679
  9
$TDINDWG
 40
0.0007260417
  9
$TDUSRTIMER
 40
0.0007260417
  9
$USRTIMER
 70
     1
  9
$ANGBASE
 50
0.0
  9
$ANGDIR
 70
     0
  9
$PDMODE
 70
     0
  9
$PDSIZE
 40
0.0
  9
$PLINEWID
 40
0.0
  9
$COORDS
 70
     1
  9
$SPLFRAME
 70
     0
  9
$SPLINETYPE
 70
     6
  9
$SPLINESEGS
 70
     8
  9
$ATTDIA
 70
     0
  9
$ATTREQ
 70
     1
  9
$HANDLING
 70
 10241
  9
$HANDSEED
  5
1B0
  9
$SURFTAB1
 70
     6
  9
$SURFTAB2
 70
     6
  9
$SURFTYPE
 70
     6
  9
$SURFU
 70
     6
  9
$SURFV
 70
     6
  9
$UCSNAME
  2

  9
$UCSORG
 10
0.0
 20
0.0
 30
0.0
  9
$UCSXDIR
 10
1.0
 20
0.0
 30
0.0
  9
$UCSYDIR
 10
0.0
 20
1.0
 30
0.0
  9
$PUCSNAME
  2

  9
$PUCSORG
 10
0.0
 20
0.0
 30
0.0
  9
$PUCSXDIR
 10
1.0
 20
0.0
 30
0.0
  9
$PUCSYDIR
 10
0.0
 20
1.0
 30
0.0
  9
$USERI1
 70
     0
  9
$USERI2
 70
     0
  9
$USERI3
 70
     0
  9
$USERI4
 70
     0
  9
$USERI5
 70
     0
  9
$USERR1
 40
0.0
  9
$USERR2
 40
0.0
  9
$USERR3
 40
0.0
  9
$USERR4
 40
0.0
  9
$USERR5
 40
0.0
  9
$WORLDVIEW
 70
     1
  9
$SHADEDGE
 70
     3
  9
$SHADEDIF
 70
    70
  9
$TILEMODE
 70
     1
  9
$MAXACTVP
 70
    64
  9
$PLIMCHECK
 70
     0
  9
$PEXTMIN
 10
1.0000000000000000E+020
 20
1.0000000000000000E+020
 30
1.0000000000000000E+020
  9
$PEXTMAX
 10
-1.0000000000000000E+020
 20
-1.0000000000000000E+020
 30
-1.0000000000000000E+020
  9
$PLIMMIN
 10
0.0
 20
0.0
  9
$PLIMMAX
 10
12.0
 20
9.0
  9
$UNITMODE
 70
     0
  9
$VISRETAIN
 70
     1
  9
$PLINEGEN
 70
     0
  9
$PSLTSCALE
 70
     1
  0
ENDSEC
  0
SECTION
  2
TABLES
  0
TABLE
  2
VPORT
 70
     2
  0
VPORT
  2
*ACTIVE
 70
     0
 10
0.0
 20
0.0
 11
1.0
 21
1.0
 12
208.99489503201011
 22
-241.0797695091475
 13
0.0
 23
0.0
 14
1.0
 24
1.0
 15
0.0
 25
0.0
 16
0.0
 26
0.0
 36
1.0
 17
0.0
 27
0.0
 37
0.0
 40
8.9999998201279379
 41
2.4144144144144142
 42
50.0
 43
0.0
 44
0.0
 50
0.0
 51
0.0
 71
     0
 72
   100
 73
     1
 74
     1
 75
     0
 76
     0
 77
     0
 78
     0
  0
ENDTAB
  0
TABLE
  2
LTYPE
 70
     9
  0
LTYPE
  2
CONTINUOUS
 70
     0
  3
Solid line
 72
    65
 73
     0
 40
0.0
  0
LTYPE
  2
BORDER
 70
     0
  3
__ __ . __ __ .
 72
    65
 73
     6
 40
22.232234004459819
 49
6.3520668584170901
 49
-3.1760334292085459
 49
6.3520668584170901
 49
-3.1760334292085459
 49
0.0
 49
-3.1760334292085459
  0
LTYPE
  2
CENTER
 70
     0
  3
____ _ ____ _
 72
    65
 73
     4
 40
25.40826743366836
 49
15.88016714604273
 49
-3.1760334292085459
 49
3.1760334292085459
 49
-3.1760334292085459
  0
LTYPE
  2
DASHDOT
 70
     0
  3
__ . __ . __ .
 72
    65
 73
     4
 40
12.70413371683418
 49
6.3520668584170901
 49
-3.1760334292085459
 49
0.0
 49
-3.1760334292085459
  0
LTYPE
  2
DASHED
 70
     0
  3
__ __ __ __ __
 72
    65
 73
     2
 40
9.5281002876256373
 49
6.3520668584170901
 49
-3.1760334292085459
  0
LTYPE
  2
DIVIDE
 70
     0
  3
__ . . __ . . 
 72
    65
 73
     6
 40
15.88016714604273
 49
6.3520668584170901
 49
-3.1760334292085459
 49
0.0
 49
-3.1760334292085459
 49
0.0
 49
-3.1760334292085459
  0
LTYPE
  2
DOT
 70
     0
  3
..............
 72
    65
 73
     4
 40
6.3520668584170901
 49
0.0
 49
-3.1760334292085459
 49
0.0
 49
-3.1760334292085459
  0
LTYPE
  2
HIDDEN
 70
     0
  3
_ _ _ _ _ _ _
 72
    65
 73
     2
 40
4.7640501438128178
 49
3.1760334292085459
 49
-1.588016714604273
  0
LTYPE
  2
PHANTOM
 70
     0
  3
_____ _ _ _____ _ _ 
 72
    65
 73
     6
 40
31.760334292085439
 49
15.88016714604273
 49
-3.1760334292085459
 49
3.1760334292085459
 49
-3.1760334292085459
 49
3.1760334292085459
 49
-3.1760334292085459
  0
ENDTAB
  0
TABLE
  2
LAYER
 70
     2
  0
LAYER
  2
0
 70
     0
 62
     7
  6
CONTINUOUS
  0
LAYER
  2
1
 70
     0
 62
     7
  6
CONTINUOUS
  0
ENDTAB
  0
TABLE
  2
STYLE
 70
     4
  0
STYLE
  2
STANDARD
 70
     0
 40
0.0
 41
1.0
 50
0.0
 71
     0
 42
3.5
  3
txt
  4

  0
STYLE
  2
SIMPLEX
 70
     0
 40
0.0
 41
1.0
 50
0.0
 71
     0
 42
3.5
  3
simplex
  4

  0
STYLE
  2
COMPLEX
 70
     0
 40
0.0
 41
1.0
 50
0.0
 71
     0
 42
3.5
  3
complex
  4

  0
STYLE
  2
ITALIC
 70
     0
 40
0.0
 41
1.0
 50
0.0
 71
     0
 42
3.5
  3
italic
  4

  0
ENDTAB
  0
TABLE
  2
VIEW
 70
     0
  0
ENDTAB
  0
TABLE
  2
UCS
 70
     0
  0
ENDTAB
  0
TABLE
  2
APPID
 70
     1
  0
APPID
  2
ACAD
 70
     0
  0
ENDTAB
  0
TABLE
  2
DIMSTYLE
 70
     1
  0
DIMSTYLE
  2
STANDARD
 70
     0
  3

  4

  5

  6

  7

 40
1.0
 41
0.18
 42
0.0625
 43
0.38
 44
0.18
 45
0.0
 46
0.0
 47
0.0
 48
0.0
140
0.18
141
0.09
142
0.0
143
25.399999999999999
144
1.0
145
0.0
146
1.0
147
0.09
 71
     0
 72
     0
 73
     1
 74
     1
 75
     0
 76
     0
 77
     0
 78
     0
170
     0
171
     2
172
     0
173
     0
174
     0
175
     0
176
     0
177
     0
178
     0
  0
ENDTAB
  0
ENDSEC
  0
SECTION
  2
BLOCKS
  0
BLOCK
  8
0
  2
$MODEL_SPACE
 70
     0
 10
0.0
 20
0.0
 30
0.0
  3
$MODEL_SPACE
  1

  0
ENDBLK
  5
20
  8
0
  0
BLOCK
 67
     1
  8
0
  2
$PAPER_SPACE
 70
     0
 10
0.0
 20
0.0
 30
0.0
  3
$PAPER_SPACE
  1

  0
ENDBLK
  5
1C
 67
     1
  8
0
  0
ENDSEC
  0
SECTION
  2
ENTITIES
  0
POINT
  5
33
  8
1
  6
CENTER
 62
     7
 10
544.34952526548375
 20
-381.63101207245171
 30
0.0
  0
POINT
  5
34
  8
1
  6
CENTER
 62
     7
 10
521.74299903018698
 20
-401.35269992042311
 30
0.0
  0
POINT
  5
35
  8
1
  6
CENTER
 62
     7
 10
519.78078491498445
 20
-398.78838173914181
 30
0.0
  0
LINE
  5
36
  8
1
 62
     7
 10
441.70418150727892
 20
-383.58494488539287
 30
0.0
 11
441.70418150727892
 21
-421.58494488539287
 31
0.0
  0
LINE
  5
37
  8
1
 62
     7
 10
451.30418150727883
 20
-314.08494488539287
 30
0.0
 11
451.30418150727883
 21
-352.58494488539299
 31
0.0
  0
LINE
  5
38
  8
1
 62
     7
 10
309.45418150727897
 20
-290.0890370092398
 30
0.0
 11
309.45418150727897
 21
-314.73494488539291
 31
0.0
  0
LINE
  5
39
  8
1
 62
     7
 10
311.95418150727897
 20
-290.0890370092398
 30
0.0
 11
311.95418150727897
 21
-314.73494488539291
 31
0.0
  0
LINE
  5
3A
  8
1
 62
     7
 10
309.45418150727897
 20
-290.0890370092398
 30
0.0
 11
311.95418150727897
 21
-290.0890370092398
 31
0.0
  0
LINE
  5
3B
  8
1
 62
     7
 10
310.39173022408431
 20
-287.89382004416308
 30
0.0
 11
310.39173022408431
 21
-290.0890370092398
 31
0.0
  0
LINE
  5
3C
  8
1
 62
     7
 10
310.01930031138852
 20
-287.89382004416308
 30
0.0
 11
310.01930031138852
 21
-290.0890370092398
 31
0.0
  0
LINE
  5
3D
  8
1
 62
     7
 10
311.01663279047352
 20
-290.0890370092398
 30
0.0
 11
311.01663279047352
 21
-287.89382004416308
 31
0.0
  0
LINE
  5
3E
  8
1
 62
     7
 10
311.38906270316932
 20
-290.0890370092398
 30
0.0
 11
311.38906270316932
 21
-287.89382004416308
 31
0.0
  0
LINE
  5
3F
  8
1
 62
     7
 10
408.4062657456227
 20
-341.08494488539287
 30
0.0
 11
409.30418150727888
 21
-341.08494488539287
 31
0.0
  0
LINE
  5
40
  8
1
 62
     7
 10
409.30418150727888
 20
-336.58494488539287
 30
0.0
 11
404.88810172417931
 21
-336.58494488539287
 31
0.0
  0
LINE
  5
41
  8
1
 62
     7
 10
409.30418150727888
 20
-343.08494488539287
 30
0.0
 11
409.30418150727888
 21
-336.58494488539287
 31
0.0
  0
LINE
  5
42
  8
1
 62
     7
 10
411.30418150727883
 20
-343.08494488539287
 30
0.0
 11
409.30418150727888
 21
-343.08494488539287
 31
0.0
  0
LINE
  5
43
  8
1
 62
     7
 10
408.40626574562259
 20
-395.08494488539287
 30
0.0
 11
411.30418150727883
 21
-395.08494488539287
 31
0.0
  0
LINE
  5
44
  8
1
 62
     7
 10
411.30418150727883
 20
-395.58494488539282
 30
0.0
 11
411.30418150727883
 21
-340.58494488539287
 31
0.0
  0
LINE
  5
45
  8
1
 62
     7
 10
402.80418150727883
 20
-306.33494488539299
 30
0.0
 11
404.80418150727888
 21
-306.33494488539299
 31
0.0
  0
LINE
  5
46
  8
1
 62
     7
 10
402.80418150727883
 20
-299.83494488539287
 30
0.0
 11
404.80418150727888
 21
-299.83494488539287
 31
0.0
  0
LINE
  5
47
  8
1
 62
     7
 10
404.80418150727888
 20
-297.08494488539287
 30
0.0
 11
404.80418150727888
 21
-415.43494488539289
 31
0.0
  0
LINE
  5
48
  8
1
 62
     7
 10
190.22438613943029
 20
-355.2849448853928
 30
0.0
 11
190.22438613943029
 21
-358.54555287122349
 31
0.0
  0
LINE
  5
49
  8
1
 62
     7
 10
196.22438613943029
 20
-355.2849448853928
 30
0.0
 11
196.22438613943029
 21
-358.54555287122349
 31
0.0
  0
LINE
  5
4A
  8
1
 62
     7
 10
190.22438613943029
 20
-355.2849448853928
 30
0.0
 11
196.22438613943029
 21
-355.2849448853928
 31
0.0
  0
LINE
  5
4B
  8
1
 62
     7
 10
299.90418150727902
 20
-415.43494488539289
 30
0.0
 11
299.90418150727902
 21
-297.08494488539287
 31
0.0
  0
LINE
  5
4C
  8
1
 62
     7
 10
297.90418150727902
 20
-410.58494488539282
 30
0.0
 11
297.90418150727902
 21
-297.08494488539287
 31
0.0
  0
LINE
  5
4D
  8
1
 62
     7
 10
424.30418150727883
 20
-340.58494488539287
 30
0.0
 11
411.30418150727883
 21
-340.58494488539287
 31
0.0
  0
LINE
  5
4E
  8
1
 62
     7
 10
424.30418150727883
 20
-339.08494488539287
 30
0.0
 11
424.30418150727883
 21
-353.08494488539287
 31
0.0
  0
LINE
  5
4F
  8
1
 62
     7
 10
424.30418150727883
 20
-353.08494488539287
 30
0.0
 11
411.30418150727883
 21
-353.08494488539287
 31
0.0
  0
LINE
  5
50
  8
1
 62
     7
 10
435.80418150727883
 20
-395.08494488539282
 30
0.0
 11
435.80418150727883
 21
-421.93494488539312
 31
0.0
  0
LINE
  5
51
  8
1
 62
     7
 10
426.30418150727888
 20
-395.08494488539282
 30
0.0
 11
426.30418150727888
 21
-388.58494488539287
 31
0.0
  0
LINE
  5
52
  8
1
 62
     7
 10
426.30418150727888
 20
-314.23494488539308
 30
0.0
 11
426.30418150727888
 21
-311.58494488539287
 31
0.0
  0
LINE
  5
53
  8
1
 62
     7
 10
435.80418150727883
 20
-341.08494488539287
 30
0.0
 11
435.80418150727883
 21
-314.23494488539308
 31
0.0
  0
LINE
  5
54
  8
1
  6
DASHDOT
 62
     3
 10
296.42286978133058
 20
-303.08494488539287
 30
0.0
 11
301.99749262089261
 21
-303.08494488539287
 31
0.0
  0
LINE
  5
55
  8
1
  6
DASHDOT
 62
     3
 10
193.22438613943029
 20
-298.965202765882
 30
0.0
 11
193.22438613943029
 21
-307.2046870049038
 31
0.0
  0
LINE
  5
56
  8
1
  6
DASHDOT
 62
     3
 10
197.3441282589412
 20
-303.08494488539287
 30
0.0
 11
189.10464401991911
 21
-303.08494488539287
 31
0.0
  0
LINE
  5
57
  8
1
 62
     7
 10
201.22438613943021
 20
-299.08494488539287
 30
0.0
 11
201.22438613943021
 21
-320.18661506064842
 31
0.0
  0
LINE
  5
58
  8
1
 62
     7
 10
187.22438613943029
 20
-297.08494488539287
 30
0.0
 11
199.22438613943021
 21
-297.08494488539287
 31
0.0
  0
LINE
  5
59
  8
1
 62
     7
 10
185.22438613943029
 20
-299.08494488539287
 30
0.0
 11
185.22438613943029
 21
-320.18661506064842
 31
0.0
  0
LINE
  5
5A
  8
1
 62
     7
 10
179.41639008321059
 20
-316.55280205287107
 30
0.0
 11
172.55782355593999
 21
-290.9562833060051
 31
0.0
  0
LINE
  5
5B
  8
1
  6
DASHDOT
 62
     3
 10
193.22438613943029
 20
-373.95730378531567
 30
0.0
 11
193.22438613943029
 21
-362.21258598547013
 31
0.0
  0
LINE
  5
5C
  8
1
  6
DASHDOT
 62
     3
 10
199.0967450393529
 20
-368.08494488539282
 30
0.0
 11
187.35202723950741
 21
-368.08494488539282
 31
0.0
  0
LINE
  5
5D
  8
1
 62
     7
 10
181.8463734215461
 20
-315.96236507019512
 30
0.0
 11
174.97263812166241
 21
-290.30923569324881
 31
0.0
  0
LINE
  5
5E
  8
1
 62
     7
 10
177.016744290101
 20
-317.25646029570771
 30
0.0
 11
170.143008990217
 21
-291.60333091876129
 31
0.0
  0
LINE
  5
5F
  8
1
 62
     7
 10
170.143008990217
 20
-291.60333091876129
 30
0.0
 11
174.97263812166241
 21
-290.30923569324881
 31
0.0
  0
LINE
  5
60
  8
1
 62
     7
 10
171.9475861893205
 20
-291.11979591558202
 30
0.0
 11
171.16675071128631
 21
-288.22319161011262
 31
0.0
  0
LINE
  5
61
  8
1
 62
     7
 10
171.4747071103364
 20
-291.24650348291328
 30
0.0
 11
170.68755891556879
 21
-288.35159066479463
 31
0.0
  0
LINE
  5
62
  8
1
 62
     7
 10
170.98288988115289
 20
-291.37828551229683
 30
0.0
 11
170.2083671198518
 21
-288.47998971947669
 31
0.0
  0
LINE
  5
63
  8
1
 62
     7
 10
172.39598212997839
 20
-287.89382004416308
 30
0.0
 11
173.16806092255899
 21
-290.79277069642819
 31
0.0
  0
LINE
  5
64
  8
1
 62
     7
 10
172.87517392569541
 20
-287.76542098948107
 30
0.0
 11
173.6409400015433
 21
-290.66606312909681
 31
0.0
  0
LINE
  5
65
  8
1
 62
     7
 10
173.35436572141279
 20
-287.63702193479901
 30
0.0
 11
174.13275723072681
 21
-290.53428109971333
 31
0.0
  0
LINE
  5
66
  8
1
 62
     7
 10
321.40418150727902
 20
-311.58494488539287
 30
0.0
 11
321.40418150727902
 21
-424.58494488539282
 31
0.0
  0
LINE
  5
67
  8
1
 62
     7
 10
333.57213069970999
 20
-311.58494488539287
 30
0.0
 11
333.57213069970999
 21
-424.58494488539282
 31
0.0
  0
LINE
  5
68
  8
1
 62
     7
 10
335.30418150727883
 20
-421.58494488539282
 30
0.0
 11
335.30418150727883
 21
-314.58494488539299
 31
0.0
  0
LINE
  5
69
  8
1
 62
     7
 10
321.40418150727902
 20
-421.43494488539301
 30
0.0
 11
305.90418150727902
 21
-421.43494488539301
 31
0.0
  0
LINE
  5
6A
  8
1
  6
DASHDOT
 62
     3
 10
297.90418150727902
 20
-368.08494488539287
 30
0.0
 11
292.90418150727902
 21
-368.08494488539287
 31
0.0
  0
LINE
  5
6B
  8
1
 62
     7
 10
305.90418150727902
 20
-314.73494488539291
 30
0.0
 11
321.40418150727902
 21
-314.73494488539291
 31
0.0
  0
LINE
  5
6C
  8
1
 62
     7
 10
299.91619439760069
 20
-297.08494488539287
 30
0.0
 11
297.90418150727902
 21
-297.08494488539287
 31
0.0
  0
LINE
  5
6D
  8
1
 62
     7
 10
297.90418150727902
 20
-410.58494488539282
 30
0.0
 11
299.90418150727902
 21
-410.58494488539282
 31
0.0
  0
LINE
  5
6E
  8
1
 62
     7
 10
321.40418150727902
 20
-311.58494488539287
 30
0.0
 11
333.57213069970999
 21
-311.58494488539287
 31
0.0
  0
LINE
  5
6F
  8
1
 62
     7
 10
333.57213069970999
 20
-311.58494488539287
 30
0.0
 11
335.30418150727883
 21
-314.58494488539299
 31
0.0
  0
LINE
  5
70
  8
1
 62
     7
 10
335.30418150727883
 20
-314.58494488539299
 30
0.0
 11
336.80418150727888
 21
-314.58494488539299
 31
0.0
  0
LINE
  5
71
  8
1
 62
     7
 10
336.80418150727888
 20
-314.58494488539299
 30
0.0
 11
336.80418150727888
 21
-421.58494488539287
 31
0.0
  0
LINE
  5
72
  8
1
 62
     7
 10
336.80418150727888
 20
-421.58494488539287
 30
0.0
 11
335.30418150727883
 21
-421.58494488539282
 31
0.0
  0
LINE
  5
73
  8
1
 62
     7
 10
335.30418150727883
 20
-421.58494488539282
 30
0.0
 11
333.57213069970999
 21
-424.58494488539282
 31
0.0
  0
LINE
  5
74
  8
1
 62
     7
 10
333.57213069970999
 20
-424.58494488539282
 30
0.0
 11
321.40418150727902
 21
-424.58494488539282
 31
0.0
  0
LINE
  5
75
  8
1
  6
DASHDOT
 62
     3
 10
402.80418150727883
 20
-368.08494488539287
 30
0.0
 11
397.80418150727883
 21
-368.08494488539287
 31
0.0
  0
LINE
  5
76
  8
1
 62
     7
 10
425.80418150727888
 20
-340.58494488539287
 30
0.0
 11
433.30418150727883
 21
-340.58494488539287
 31
0.0
  0
LINE
  5
77
  8
1
 62
     7
 10
433.30418150727883
 20
-340.58494488539287
 30
0.0
 11
433.30418150727883
 21
-314.73494488539291
 31
0.0
  0
LINE
  5
78
  8
1
 62
     7
 10
425.80418150727888
 20
-395.58494488539282
 30
0.0
 11
433.30418150727883
 21
-395.58494488539282
 31
0.0
  0
LINE
  5
79
  8
1
 62
     7
 10
410.80418150727883
 20
-314.73494488539291
 30
0.0
 11
433.30418150727883
 21
-314.73494488539291
 31
0.0
  0
LINE
  5
7A
  8
1
 62
     7
 10
433.30418150727883
 20
-421.43494488539312
 30
0.0
 11
410.80418150727883
 21
-421.43494488539301
 31
0.0
  0
LINE
  5
7B
  8
1
 62
     7
 10
404.80418150727888
 20
-297.08494488539287
 30
0.0
 11
402.80418150727883
 21
-297.08494488539287
 31
0.0
  0
LINE
  5
7C
  8
1
  6
DASHDOT
 62
     3
 10
401.75191303037872
 20
-303.08494488539287
 30
0.0
 11
405.8526425071023
 21
-303.08494488539287
 31
0.0
  0
LINE
  5
7D
  8
1
 62
     7
 10
402.80418150727883
 20
-343.58494488539287
 30
0.0
 11
404.80418150727888
 21
-343.58494488539287
 31
0.0
  0
LINE
  5
7E
  8
1
 62
     7
 10
402.80418150727883
 20
-392.58494488539287
 30
0.0
 11
404.80418150727888
 21
-392.58494488539287
 31
0.0
  0
LINE
  5
7F
  8
1
 62
     7
 10
402.80418150727883
 20
-410.58494488539282
 30
0.0
 11
404.80418150727888
 21
-410.58494488539282
 31
0.0
  0
LINE
  5
80
  8
1
 62
     7
 10
424.30418150727883
 20
-347.58494488539287
 30
0.0
 11
426.30418150727888
 21
-347.58494488539287
 31
0.0
  0
LINE
  5
81
  8
1
 62
     7
 10
426.30418150727888
 20
-347.58494488539287
 30
0.0
 11
426.30418150727888
 21
-341.08494488539287
 31
0.0
  0
LINE
  5
82
  8
1
 62
     7
 10
426.30418150727888
 20
-341.08494488539287
 30
0.0
 11
435.80418150727883
 21
-341.08494488539287
 31
0.0
  0
LINE
  5
83
  8
1
 62
     7
 10
435.80418150727883
 20
-314.23494488539308
 30
0.0
 11
426.30418150727888
 21
-314.23494488539308
 31
0.0
  0
LINE
  5
84
  8
1
 62
     7
 10
426.30418150727888
 20
-311.58494488539287
 30
0.0
 11
438.47213069971008
 21
-311.58494488539287
 31
0.0
  0
LINE
  5
85
  8
1
 62
     7
 10
438.47213069971008
 20
-311.58494488539287
 30
0.0
 11
440.20418150727897
 21
-314.58494488539299
 31
0.0
  0
LINE
  5
86
  8
1
 62
     7
 10
440.20418150727897
 20
-314.58494488539299
 30
0.0
 11
441.70418150727892
 21
-314.58494488539299
 31
0.0
  0
LINE
  5
87
  8
1
 62
     7
 10
441.70418150727892
 20
-314.58494488539299
 30
0.0
 11
441.70418150727892
 21
-352.58494488539299
 31
0.0
  0
LINE
  5
88
  8
1
 62
     7
 10
441.70418150727892
 20
-341.08494488539287
 30
0.0
 11
439.40418150727891
 21
-341.08494488539287
 31
0.0
  0
LINE
  5
89
  8
1
 62
     7
 10
439.40418150727891
 20
-341.08494488539287
 30
0.0
 11
439.40418150727891
 21
-344.58494488539287
 31
0.0
  0
LINE
  5
8A
  8
1
 62
     7
 10
441.30418150727883
 20
-391.58494488539299
 30
0.0
 11
439.40418150727891
 21
-391.58494488539299
 31
0.0
  0
LINE
  5
8B
  8
1
 62
     7
 10
439.40418150727891
 20
-391.58494488539299
 30
0.0
 11
439.40418150727891
 21
-395.08494488539287
 31
0.0
  0
LINE
  5
8C
  8
1
 62
     7
 10
439.40418150727891
 20
-395.08494488539287
 30
0.0
 11
441.70418150727892
 21
-395.08494488539287
 31
0.0
  0
LINE
  5
8D
  8
1
 62
     7
 10
441.70418150727892
 20
-421.58494488539287
 30
0.0
 11
440.20418150727897
 21
-421.58494488539282
 31
0.0
  0
LINE
  5
8E
  8
1
 62
     7
 10
440.20418150727897
 20
-421.58494488539282
 30
0.0
 11
438.47213069971008
 21
-424.58494488539282
 31
0.0
  0
LINE
  5
8F
  8
1
 62
     7
 10
438.47213069971008
 20
-424.58494488539282
 30
0.0
 11
426.30418150727888
 21
-424.58494488539282
 31
0.0
  0
LINE
  5
90
  8
1
 62
     7
 10
426.30418150727888
 20
-424.58494488539282
 30
0.0
 11
426.30418150727888
 21
-421.93494488539312
 31
0.0
  0
LINE
  5
91
  8
1
 62
     7
 10
426.30418150727888
 20
-421.93494488539312
 30
0.0
 11
435.80418150727883
 21
-421.93494488539312
 31
0.0
  0
LINE
  5
92
  8
1
 62
     7
 10
435.80418150727883
 20
-395.08494488539282
 30
0.0
 11
426.30418150727888
 21
-395.08494488539282
 31
0.0
  0
LINE
  5
93
  8
1
 62
     7
 10
426.30418150727888
 20
-388.58494488539287
 30
0.0
 11
424.30418150727883
 21
-388.58494488539287
 31
0.0
  0
LINE
  5
94
  8
1
 62
     7
 10
433.30418150727883
 20
-395.58494488539282
 30
0.0
 11
433.30418150727883
 21
-421.43494488539312
 31
0.0
  0
LINE
  5
95
  8
1
 62
     7
 10
402.80418150727883
 20
-410.58494488539282
 30
0.0
 11
402.80418150727883
 21
-297.08494488539287
 31
0.0
  0
LINE
  5
96
  8
1
 62
     7
 10
424.30418150727883
 20
-397.08494488539282
 30
0.0
 11
425.80418150727888
 21
-397.08494488539282
 31
0.0
  0
LINE
  5
97
  8
1
 62
     7
 10
424.30418150727883
 20
-344.18494488539289
 30
0.0
 11
425.80418150727888
 21
-344.18494488539289
 31
0.0
  0
LINE
  5
98
  8
1
 62
     7
 10
424.30418150727883
 20
-390.58494488539287
 30
0.0
 11
425.80418150727888
 21
-390.58494488539287
 31
0.0
  0
LINE
  5
99
  8
1
 62
     7
 10
425.80418150727888
 20
-339.08494488539287
 30
0.0
 11
425.80418150727888
 21
-344.77394488539278
 31
0.0
  0
LINE
  5
9A
  8
1
 62
     7
 10
425.80418150727888
 20
-339.08494488539287
 30
0.0
 11
424.30418150727883
 21
-339.08494488539287
 31
0.0
  0
LINE
  5
9B
  8
1
 62
     7
 10
425.80418150727888
 20
-390.02194488539288
 30
0.0
 11
425.80418150727888
 21
-397.08494488539282
 31
0.0
  0
LINE
  5
9C
  8
1
 62
     7
 10
411.30418150727883
 20
-355.2849448853928
 30
0.0
 11
441.30418150727883
 21
-355.2849448853928
 31
0.0
  0
LINE
  5
9D
  8
1
 62
     7
 10
441.30418150727883
 20
-344.58494488539287
 30
0.0
 11
441.30418150727883
 21
-391.58494488539299
 31
0.0
  0
LINE
  5
9E
  8
1
 62
     7
 10
411.31058707083741
 20
-378.08494488539287
 30
0.0
 11
457.31058707083719
 21
-378.08494488539287
 31
0.0
  0
LINE
  5
9F
  8
1
 62
     7
 10
439.40418150727891
 20
-344.58494488539287
 30
0.0
 11
441.30418150727883
 21
-344.58494488539287
 31
0.0
  0
LINE
  5
A0
  8
1
 62
     7
 10
414.35418150727889
 20
-290.0890370092398
 30
0.0
 11
414.35418150727889
 21
-314.73494488539291
 31
0.0
  0
LINE
  5
A1
  8
1
 62
     7
 10
416.85418150727889
 20
-290.0890370092398
 30
0.0
 11
416.85418150727889
 21
-314.73494488539291
 31
0.0
  0
LINE
  5
A2
  8
1
 62
     7
 10
414.35418150727889
 20
-290.0890370092398
 30
0.0
 11
416.85418150727889
 21
-290.0890370092398
 31
0.0
  0
LINE
  5
A3
  8
1
 62
     7
 10
415.2917302240844
 20
-287.89382004416308
 30
0.0
 11
415.2917302240844
 21
-290.0890370092398
 31
0.0
  0
LINE
  5
A4
  8
1
 62
     7
 10
414.91930031138861
 20
-287.89382004416308
 30
0.0
 11
414.91930031138861
 21
-290.0890370092398
 31
0.0
  0
LINE
  5
A5
  8
1
 62
     7
 10
415.91663279047327
 20
-290.0890370092398
 30
0.0
 11
415.91663279047327
 21
-287.89382004416308
 31
0.0
  0
LINE
  5
A6
  8
1
 62
     7
 10
416.28906270316941
 20
-290.0890370092398
 30
0.0
 11
416.28906270316941
 21
-287.89382004416308
 31
0.0
  0
LINE
  5
A7
  8
1
 62
     7
 10
424.30418150727883
 20
-383.08494488539287
 30
0.0
 11
424.30418150727883
 21
-397.08494488539282
 31
0.0
  0
LINE
  5
A8
  8
1
 62
     7
 10
411.30418150727883
 20
-395.58494488539282
 30
0.0
 11
424.30418150727883
 21
-395.58494488539282
 31
0.0
  0
LINE
  5
A9
  8
1
 62
     7
 10
424.30418150727883
 20
-383.08494488539287
 30
0.0
 11
411.30418150727883
 21
-383.08494488539287
 31
0.0
  0
LINE
  5
AA
  8
1
 62
     7
 10
457.30418150727883
 20
-358.08494488539287
 30
0.0
 11
411.31058707083741
 21
-358.08494488539287
 31
0.0
  0
LINE
  5
AB
  8
1
 62
     7
 10
415.82874642861918
 20
-350.02244488539287
 30
0.0
 11
411.30418150727883
 21
-350.02244488539287
 31
0.0
  0
LINE
  5
AC
  8
1
 62
     7
 10
419.77961658593881
 20
-350.02244488539287
 30
0.0
 11
424.30418150727883
 21
-350.02244488539287
 31
0.0
  0
LINE
  5
AD
  8
1
 62
     7
 10
415.82874642861918
 20
-343.64744488539299
 30
0.0
 11
411.30418150727883
 21
-343.64744488539299
 31
0.0
  0
LINE
  5
AE
  8
1
 62
     7
 10
419.77961658593881
 20
-343.64744488539299
 30
0.0
 11
424.30418150727883
 21
-343.64744488539299
 31
0.0
  0
LINE
  5
AF
  8
1
 62
     7
 10
422.92918150727883
 20
-342.88181988539287
 30
0.0
 11
422.92918150727883
 21
-350.78806988539287
 31
0.0
  0
LINE
  5
B0
  8
1
 62
     7
 10
412.67918150727883
 20
-342.88181988539287
 30
0.0
 11
412.67918150727883
 21
-350.78806988539287
 31
0.0
  0
LINE
  5
B1
  8
1
 62
     7
 10
415.82874642861918
 20
-386.14744488539287
 30
0.0
 11
411.30418150727883
 21
-386.14744488539287
 31
0.0
  0
LINE
  5
B2
  8
1
 62
     7
 10
419.77961658593881
 20
-386.14744488539287
 30
0.0
 11
424.30418150727883
 21
-386.14744488539287
 31
0.0
  0
LINE
  5
B3
  8
1
 62
     7
 10
415.82874642861918
 20
-392.52244488539299
 30
0.0
 11
411.30418150727883
 21
-392.52244488539299
 31
0.0
  0
LINE
  5
B4
  8
1
 62
     7
 10
419.77961658593881
 20
-392.52244488539299
 30
0.0
 11
424.30418150727883
 21
-392.52244488539299
 31
0.0
  0
LINE
  5
B5
  8
1
 62
     7
 10
422.92918150727883
 20
-393.28806988539287
 30
0.0
 11
422.92918150727883
 21
-385.38181988539287
 31
0.0
  0
LINE
  5
B6
  8
1
 62
     7
 10
412.67918150727883
 20
-393.28806988539287
 30
0.0
 11
412.67918150727883
 21
-385.38181988539287
 31
0.0
  0
LINE
  5
B7
  8
1
 62
     7
 10
448.50418150727882
 20
-411.08494488539282
 30
0.0
 11
446.70418150727892
 21
-411.08494488539282
 31
0.0
  0
LINE
  5
B8
  8
1
 62
     7
 10
448.50418150727882
 20
-420.08494488539282
 30
0.0
 11
446.70418150727892
 21
-420.08494488539282
 31
0.0
  0
LINE
  5
B9
  8
1
 62
     7
 10
447.40418150727891
 20
-411.08494488539282
 30
0.0
 11
447.40418150727891
 21
-420.08494488539282
 31
0.0
  0
LINE
  5
BA
  8
1
 62
     7
 10
344.10418150727889
 20
-411.58494488539282
 30
0.0
 11
344.10418150727889
 21
-419.58494488539282
 31
0.0
  0
LINE
  5
BB
  8
1
 62
     7
 10
343.60418150727889
 20
-411.08494488539282
 30
0.0
 11
341.80418150727883
 21
-411.08494488539282
 31
0.0
  0
LINE
  5
BC
  8
1
 62
     7
 10
343.60418150727889
 20
-420.08494488539282
 30
0.0
 11
341.80418150727883
 21
-420.08494488539282
 31
0.0
  0
LINE
  5
BD
  8
1
 62
     7
 10
342.50418150727899
 20
-411.08494488539282
 30
0.0
 11
342.50418150727899
 21
-420.08494488539282
 31
0.0
  0
LINE
  5
BE
  8
1
 62
     7
 10
343.60418150727889
 20
-420.08494488539282
 30
0.0
 11
344.10418150727889
 21
-419.58494488539282
 31
0.0
  0
LINE
  5
BF
  8
1
 62
     7
 10
343.60418150727889
 20
-411.08494488539282
 30
0.0
 11
344.10418150727889
 21
-411.58494488539282
 31
0.0
  0
LINE
  5
C0
  8
1
 62
     7
 10
449.00418150727882
 20
-419.58494488539282
 30
0.0
 11
449.00418150727882
 21
-411.58494488539282
 31
0.0
  0
LINE
  5
C1
  8
1
 62
     7
 10
448.50418150727882
 20
-420.08494488539282
 30
0.0
 11
449.00418150727882
 21
-419.58494488539282
 31
0.0
  0
LINE
  5
C2
  8
1
 62
     7
 10
449.00418150727882
 20
-419.58494488539282
 30
0.0
 11
449.00418150727882
 21
-419.08494488539282
 31
0.0
  0
LINE
  5
C3
  8
1
 62
     7
 10
448.50418150727882
 20
-420.08494488539282
 30
0.0
 11
449.00418150727882
 21
-419.58494488539282
 31
0.0
  0
LINE
  5
C4
  8
1
 62
     7
 10
448.50418150727882
 20
-411.08494488539282
 30
0.0
 11
449.00418150727882
 21
-411.58494488539282
 31
0.0
  0
LINE
  5
C5
  8
1
 62
     7
 10
448.50418150727882
 20
-411.08494488539282
 30
0.0
 11
449.00418150727882
 21
-411.58494488539282
 31
0.0
  0
LINE
  5
C6
  8
1
 62
     7
 10
446.70418150727892
 20
-421.08494488539287
 30
0.0
 11
446.70418150727892
 21
-408.69738045069079
 31
0.0
  0
LINE
  5
C7
  8
1
 62
     7
 10
575.17560663534027
 20
-312.9165393637528
 30
0.0
 11
583.03499909862921
 21
-283.58488737413398
 31
0.0
  0
LINE
  5
C8
  8
1
 62
     7
 10
585.44981366435195
 20
-284.23193498689028
 30
0.0
 11
577.60474342743407
 21
-313.51013570006393
 31
0.0
  0
LINE
  5
C9
  8
1
 62
     7
 10
587.86462823007457
 20
-284.87898259964658
 30
0.0
 11
580.0052357667854
 21
-314.21063458926528
 31
0.0
  0
LINE
  5
CA
  8
1
  6
DASHDOT
 62
     3
 10
465.30418150727883
 20
-368.08494488539287
 30
0.0
 11
470.30418150727883
 21
-368.08494488539287
 31
0.0
  0
LINE
  5
CB
  8
1
  6
DASHDOT
 62
     3
 10
562.98146737912896
 20
-301.4893550345393
 30
0.0
 11
562.98146737912896
 21
-304.71079570826862
 31
0.0
  0
LINE
  5
CC
  8
1
  6
DASHDOT
 62
     3
 10
561.48984329611869
 20
-303.08494488539282
 30
0.0
 11
564.56726235414169
 21
-303.08494488539282
 31
0.0
  0
LINE
  5
CD
  8
1
  6
DASHDOT
 62
     3
 10
583.98146737912896
 20
-368.08494488539282
 30
0.0
 11
592.97072428919773
 21
-368.08494488539282
 31
0.0
  0
LINE
  5
CE
  8
1
  6
DASHDOT
 62
     3
 10
533.31741890301373
 20
-368.08494488539282
 30
0.0
 11
541.98146737912896
 21
-368.08494488539282
 31
0.0
  0
LINE
  5
CF
  8
1
  6
DASHDOT
 62
     3
 10
562.98146737912896
 20
-363.00776348665102
 30
0.0
 11
562.98146737912896
 21
-373.20084611497521
 31
0.0
  0
LINE
  5
D0
  8
1
  6
DASHDOT
 62
     3
 10
558.85542500487259
 20
-368.08494488539282
 30
0.0
 11
567.41803469685465
 21
-368.08494488539282
 31
0.0
  0
LINE
  5
D1
  8
1
 62
     7
 10
449.40418150727868
 20
-336.0849448853931
 30
0.0
 11
449.90418150727868
 21
-336.08494488539287
 31
0.0
  0
LINE
  5
D2
  8
1
 62
     7
 10
449.40418150727868
 20
-324.08494488539287
 30
0.0
 11
449.90418150727868
 21
-324.08494488539287
 31
0.0
  0
LINE
  5
D3
  8
1
 62
     7
 10
446.10418150727889
 20
-314.08494488539287
 30
0.0
 11
442.10418150727889
 21
-314.08494488539287
 31
0.0
  0
LINE
  5
D4
  8
1
 62
     7
 10
457.30418150727883
 20
-350.58494488539299
 30
0.0
 11
451.30418150727883
 21
-350.58494488539299
 31
0.0
  0
LINE
  5
D5
  8
1
 62
     7
 10
457.30418150727883
 20
-347.08494488539287
 30
0.0
 11
465.30418150727883
 21
-347.08494488539287
 31
0.0
  0
LINE
  5
D6
  8
1
 62
     7
 10
457.30418150727883
 20
-389.08494488539287
 30
0.0
 11
457.30418150727883
 21
-347.08494488539287
 31
0.0
  0
LINE
  5
D7
  8
1
 62
     7
 10
442.10418150727889
 20
-314.08494488539287
 30
0.0
 11
442.10418150727861
 21
-352.58494488539299
 31
0.0
  0
LINE
  5
D8
  8
1
 62
     7
 10
441.30418150727883
 20
-354.58494488539299
 30
0.0
 11
457.30418150727883
 21
-354.58494488539299
 31
0.0
  0
LINE
  5
D9
  8
1
 62
     7
 10
570.98146737912896
 20
-299.08494488539287
 30
0.0
 11
570.98146737912896
 21
-312.15418411817279
 31
0.0
  0
LINE
  5
DA
  8
1
 62
     7
 10
556.98146737912907
 20
-297.08494488539287
 30
0.0
 11
568.98146737912896
 21
-297.08494488539287
 31
0.0
  0
LINE
  5
DB
  8
1
  6
DASHDOT
 62
     3
 10
573.82429423028668
 20
-386.86527188926971
 30
0.0
 11
577.2637481694702
 21
-392.82258086222902
 31
0.0
  0
LINE
  5
DC
  8
1
  6
DASHDOT
 62
     3
 10
552.13864052797169
 20
-386.86527188926971
 30
0.0
 11
548.69918658878782
 21
-392.82258086222879
 31
0.0
  0
LINE
  5
DD
  8
1
  6
DASHDOT
 62
     3
 10
577.51989099269622
 20
-342.9036565247356
 30
0.0
 11
573.67827904840829
 21
-349.55752359520602
 31
0.0
  0
LINE
  5
DE
  8
1
  6
DASHDOT
 62
     3
 10
552.13864052797169
 20
-349.30461788151632
 30
0.0
 11
548.69918658878817
 21
-343.34730890855712
 31
0.0
  0
LINE
  5
DF
  8
1
 62
     7
 10
442.10418150727861
 20
-341.58494488539287
 30
0.0
 11
446.80418150727883
 21
-341.58494488539287
 31
0.0
  0
LINE
  5
E0
  8
1
  6
DASHDOT
 62
     3
 10
577.51989099269622
 20
-342.9036565247356
 30
0.0
 11
573.67827904840829
 21
-349.55752359520602
 31
0.0
  0
LINE
  5
E1
  8
1
 62
     7
 10
449.90418150727879
 20
-322.58494488539287
 30
0.0
 11
449.90418150727879
 21
-337.5849448853931
 31
0.0
  0
LINE
  5
E2
  8
1
 62
     7
 10
451.30418150727883
 20
-314.08494488539287
 30
0.0
 11
465.30418150727883
 21
-314.0849448853931
 31
0.0
  0
LINE
  5
E3
  8
1
 62
     7
 10
451.30418150727883
 20
-385.58494488539299
 30
0.0
 11
457.30418150727883
 21
-385.58494488539299
 31
0.0
  0
LINE
  5
E4
  8
1
 62
     7
 10
465.30418150727883
 20
-389.08494488539287
 30
0.0
 11
457.30418150727883
 21
-389.08494488539287
 31
0.0
  0
LINE
  5
E5
  8
1
 62
     7
 10
442.10418150727861
 20
-383.58494488539282
 30
0.0
 11
442.10418150727889
 21
-422.08494488539299
 31
0.0
  0
LINE
  5
E6
  8
1
 62
     7
 10
446.80418150727883
 20
-394.58494488539287
 30
0.0
 11
442.10418150727861
 21
-394.58494488539287
 31
0.0
  0
LINE
  5
E7
  8
1
 62
     7
 10
442.10418150727889
 20
-422.08494488539299
 30
0.0
 11
446.10418150727889
 21
-422.08494488539299
 31
0.0
  0
LINE
  5
E8
  8
1
 62
     7
 10
447.40418150727891
 20
-403.08494488539287
 30
0.0
 11
446.80418150727883
 21
-403.08494488539287
 31
0.0
  0
LINE
  5
E9
  8
1
 62
     7
 10
446.80418150727883
 20
-383.58494488539282
 30
0.0
 11
446.80418150727883
 21
-406.08494488539299
 31
0.0
  0
LINE
  5
EA
  8
1
  6
DASHDOT
 62
     3
 10
466.04868071991473
 20
-393.08494488539287
 30
0.0
 11
450.50917949514383
 21
-393.08494488539287
 31
0.0
  0
LINE
  5
EB
  8
1
 62
     7
 10
457.30418150727883
 20
-381.58494488539282
 30
0.0
 11
441.30418150727883
 21
-381.58494488539299
 31
0.0
  0
LINE
  5
EC
  8
1
 62
     7
 10
447.40418150727891
 20
-410.08494488539299
 30
0.0
 11
449.40418150727868
 21
-410.08494488539299
 31
0.0
  0
LINE
  5
ED
  8
1
 62
     7
 10
454.30418150727883
 20
-401.08494488539299
 30
0.0
 11
454.30418150727883
 21
-405.5328390528054
 31
0.0
  0
LINE
  5
EE
  8
1
 62
     7
 10
456.30418150727883
 20
-407.53283905280551
 30
0.0
 11
459.80418150727883
 21
-407.53283905280551
 31
0.0
  0
LINE
  5
EF
  8
1
 62
     7
 10
461.80418150727883
 20
-405.5328390528054
 30
0.0
 11
461.80418150727883
 21
-401.08494488539299
 31
0.0
  0
LINE
  5
F0
  8
1
 62
     7
 10
451.30418150727883
 20
-398.08494488539299
 30
0.0
 11
451.30418150727883
 21
-383.58494488539282
 31
0.0
  0
LINE
  5
F1
  8
1
 62
     7
 10
464.80418150727883
 20
-398.08494488539299
 30
0.0
 11
465.30418150727883
 21
-397.58494488539287
 31
0.0
  0
LINE
  5
F2
  8
1
 62
     7
 10
451.30418150727883
 20
-390.33494488539299
 30
0.0
 11
465.30418150727883
 21
-390.33494488539299
 31
0.0
  0
LINE
  5
F3
  8
1
 62
     7
 10
465.30418150727883
 20
-395.83494488539299
 30
0.0
 11
451.30418150727883
 21
-395.83494488539299
 31
0.0
  0
LINE
  5
F4
  8
1
 62
     7
 10
554.98146737912896
 20
-312.15418411817279
 30
0.0
 11
554.98146737912896
 21
-299.08494488539287
 31
0.0
  0
LINE
  5
F5
  8
1
 62
     7
 10
446.80418150727883
 20
-338.08494488539299
 30
0.0
 11
447.40418150727891
 21
-338.08494488539299
 31
0.0
  0
LINE
  5
F6
  8
1
 62
     7
 10
446.80418150727883
 20
-352.58494488539299
 30
0.0
 11
446.80418150727883
 21
-321.08494488539299
 31
0.0
  0
LINE
  5
F7
  8
1
 62
     7
 10
447.40418150727891
 20
-319.08494488539299
 30
0.0
 11
449.40418150727868
 21
-319.08494488539299
 31
0.0
  0
LINE
  5
F8
  8
1
 62
     7
 10
447.40418150727891
 20
-319.08494488539299
 30
0.0
 11
447.40418150727891
 21
-352.58494488539299
 31
0.0
  0
LINE
  5
F9
  8
1
 62
     7
 10
465.30418150727883
 20
-314.0849448853931
 30
0.0
 11
465.30418150727883
 21
-397.58494488539287
 31
0.0
  0
LINE
  5
FA
  8
1
 62
     7
 10
447.40418150727891
 20
-335.58494488539299
 30
0.0
 11
449.40418150727868
 21
-335.58494488539299
 31
0.0
  0
LINE
  5
FB
  8
1
 62
     7
 10
449.40418150727868
 20
-352.58494488539299
 30
0.0
 11
449.40418150727868
 21
-319.08494488539299
 31
0.0
  0
LINE
  5
FC
  8
1
 62
     7
 10
613.47635855346869
 20
-378.73083969992251
 30
0.0
 11
579.00929761089935
 21
-319.03213895981912
 31
0.0
  0
LINE
  5
FD
  8
1
 62
     7
 10
546.95363714735856
 20
-319.03213895981918
 30
0.0
 11
512.48657620478923
 21
-378.73083969992251
 31
0.0
  0
LINE
  5
FE
  8
1
 62
     7
 10
528.51440643655951
 20
-406.49185599643693
 30
0.0
 11
597.44852832169863
 21
-406.49185599643693
 31
0.0
  0
LINE
  5
FF
  8
1
 62
     7
 10
449.40418150727868
 20
-383.58494488539282
 30
0.0
 11
449.40418150727868
 21
-410.08494488539299
 31
0.0
  0
LINE
  5
100
  8
1
 62
     7
 10
588.22032630737704
 20
-410.08494488539282
 30
0.0
 11
537.74260845088111
 21
-410.08494488539282
 31
0.0
  0
LINE
  5
101
  8
1
 62
     7
 10
586.7351048739514
 20
-325.22745189099851
 30
0.0
 11
611.97396380219948
 21
-368.94243787978729
 31
0.0
  0
LINE
  5
102
  8
1
 62
     7
 10
513.98897095605855
 20
-368.94243787978718
 30
0.0
 11
539.22782988430652
 21
-325.22745189099851
 31
0.0
  0
LINE
  5
103
  8
1
 62
     7
 10
587.86462823007457
 20
-284.87898259964658
 30
0.0
 11
583.03499909862921
 21
-283.58488737413398
 31
0.0
  0
LINE
  5
104
  8
1
 62
     7
 10
586.17425803406877
 20
-284.42604927071721
 30
0.0
 11
587.46835325958136
 21
-279.59642013927191
 31
0.0
  0
LINE
  5
105
  8
1
 62
     7
 10
586.36744319932666
 20
-284.4778130797377
 30
0.0
 11
587.66153842483925
 21
-279.6481839482924
 31
0.0
  0
LINE
  5
106
  8
1
 62
     7
 10
586.56062836458455
 20
-284.52957688875807
 30
0.0
 11
587.85472359009714
 21
-279.69994775731288
 31
0.0
  0
LINE
  5
107
  8
1
 62
     7
 10
586.75381352984209
 20
-284.58134069777873
 30
0.0
 11
588.04790875535468
 21
-279.75171156633331
 31
0.0
  0
LINE
  5
108
  8
1
 62
     7
 10
586.94699869510021
 20
-284.63310450679921
 30
0.0
 11
588.24109392061268
 21
-279.80347537535391
 31
0.0
  0
LINE
  5
109
  8
1
 62
     7
 10
583.95262863360392
 20
-283.83076546698152
 30
0.0
 11
585.24672385911651
 21
-279.0011363355361
 31
0.0
  0
LINE
  5
10A
  8
1
 62
     7
 10
584.14581379886181
 20
-283.882529276002
 30
0.0
 11
585.43990902437429
 21
-279.05290014455659
 31
0.0
  0
LINE
  5
10B
  8
1
 62
     7
 10
584.33899896411958
 20
-283.93429308502232
 30
0.0
 11
585.63309418963195
 21
-279.10466395357702
 31
0.0
  0
LINE
  5
10C
  8
1
 62
     7
 10
584.53218412937736
 20
-283.98605689404292
 30
0.0
 11
585.82627935489006
 21
-279.1564277625975
 31
0.0
  0
LINE
  5
10D
  8
1
 62
     7
 10
584.72536929463524
 20
-284.03782070306352
 30
0.0
 11
586.01946452014784
 21
-279.2081915716181
 31
0.0
  0
LINE
  5
10E
  8
1
 62
     7
 10
449.40418150727868
 20
-400.58494488539287
 30
0.0
 11
447.40418150727891
 21
-400.58494488539287
 31
0.0
  0
LINE
  5
10F
  8
1
 62
     7
 10
446.10418150727889
 20
-314.08494488539287
 30
0.0
 11
446.10418150727889
 21
-330.08494488539287
 31
0.0
  0
LINE
  5
110
  8
1
 62
     7
 10
446.80418150727883
 20
-321.08494488539299
 30
0.0
 11
447.40418150727891
 21
-321.08494488539299
 31
0.0
  0
LINE
  5
111
  8
1
 62
     7
 10
446.10418150727889
 20
-422.08494488539299
 30
0.0
 11
446.10418150727889
 21
-406.08494488539299
 31
0.0
  0
LINE
  5
112
  8
1
 62
     7
 10
446.10418150727889
 20
-406.08494488539299
 30
0.0
 11
446.80418150727883
 21
-406.08494488539299
 31
0.0
  0
LINE
  5
113
  8
1
 62
     7
 10
447.40418150727891
 20
-410.08494488539299
 30
0.0
 11
447.40418150727891
 21
-383.58494488539282
 31
0.0
  0
LINE
  5
114
  8
1
 62
     7
 10
446.80418150727883
 20
-406.08494488539299
 30
0.0
 11
446.10418150727889
 21
-408.61838895213839
 31
0.0
  0
LINE
  5
115
  8
1
 62
     7
 10
447.40418150727891
 20
-406.08494488539299
 30
0.0
 11
446.70418150727892
 21
-408.69738045069079
 31
0.0
  0
LINE
  5
116
  8
1
 62
     7
 10
446.70418150727892
 20
-421.08494488539287
 30
0.0
 11
446.10418150727889
 21
-421.08494488539287
 31
0.0
  0
LINE
  5
117
  8
1
 62
     7
 10
451.30418150727883
 20
-322.58494488539287
 30
0.0
 11
449.90418150727879
 21
-322.58494488539287
 31
0.0
  0
LINE
  5
118
  8
1
 62
     7
 10
451.30418150727883
 20
-337.5849448853931
 30
0.0
 11
449.90418150727879
 21
-337.5849448853931
 31
0.0
  0
LINE
  5
119
  8
1
 62
     7
 10
446.10418150727889
 20
-330.08494488539287
 30
0.0
 11
446.80418150727883
 21
-330.08494488539287
 31
0.0
  0
LINE
  5
11A
  8
1
 62
     7
 10
341.80418150727883
 20
-421.08494488539287
 30
0.0
 11
341.80418150727883
 21
-408.69738045069062
 31
0.0
  0
LINE
  5
11B
  8
1
  6
DASHDOT
 62
     3
 10
360.40418150727862
 20
-368.08494488539287
 30
0.0
 11
365.40418150727862
 21
-368.08494488539287
 31
0.0
  0
LINE
  5
11C
  8
1
 62
     7
 10
344.50418150727859
 20
-336.08494488539287
 30
0.0
 11
345.00418150727859
 21
-336.08494488539287
 31
0.0
  0
LINE
  5
11D
  8
1
 62
     7
 10
344.50418150727859
 20
-324.08494488539287
 30
0.0
 11
345.00418150727859
 21
-324.08494488539287
 31
0.0
  0
LINE
  5
11E
  8
1
 62
     7
 10
341.2041815072788
 20
-314.08494488539287
 30
0.0
 11
337.2041815072788
 21
-314.08494488539287
 31
0.0
  0
LINE
  5
11F
  8
1
 62
     7
 10
337.2041815072788
 20
-314.08494488539287
 30
0.0
 11
337.2041815072788
 21
-422.08494488539299
 31
0.0
  0
LINE
  5
120
  8
1
 62
     7
 10
346.40418150727862
 20
-314.08494488539287
 30
0.0
 11
346.40418150727862
 21
-398.08494488539299
 31
0.0
  0
LINE
  5
121
  8
1
 62
     7
 10
346.40418150727862
 20
-314.08494488539287
 30
0.0
 11
360.40418150727862
 21
-314.0849448853931
 31
0.0
  0
LINE
  5
122
  8
1
 62
     7
 10
337.2041815072788
 20
-422.08494488539299
 30
0.0
 11
341.2041815072788
 21
-422.08494488539299
 31
0.0
  0
LINE
  5
123
  8
1
 62
     7
 10
342.50418150727882
 20
-410.08494488539299
 30
0.0
 11
344.50418150727859
 21
-410.08494488539299
 31
0.0
  0
LINE
  5
124
  8
1
 62
     7
 10
349.40418150727879
 20
-401.08494488539299
 30
0.0
 11
349.40418150727862
 21
-405.5328390528054
 31
0.0
  0
LINE
  5
125
  8
1
 62
     7
 10
351.40418150727862
 20
-407.53283905280551
 30
0.0
 11
354.90418150727862
 21
-407.53283905280551
 31
0.0
  0
LINE
  5
126
  8
1
 62
     7
 10
356.90418150727862
 20
-405.5328390528054
 30
0.0
 11
356.90418150727862
 21
-401.08494488539299
 31
0.0
  0
LINE
  5
127
  8
1
 62
     7
 10
359.90418150727862
 20
-398.08494488539299
 30
0.0
 11
360.40418150727862
 21
-397.58494488539287
 31
0.0
  0
LINE
  5
128
  8
1
 62
     7
 10
341.90418150727868
 20
-406.08494488539299
 30
0.0
 11
341.90418150727879
 21
-321.08494488539299
 31
0.0
  0
LINE
  5
129
  8
1
 62
     7
 10
342.50418150727882
 20
-319.08494488539299
 30
0.0
 11
344.50418150727859
 21
-319.08494488539299
 31
0.0
  0
LINE
  5
12A
  8
1
 62
     7
 10
342.50418150727882
 20
-319.08494488539299
 30
0.0
 11
342.50418150727882
 21
-410.08494488539299
 31
0.0
  0
LINE
  5
12B
  8
1
 62
     7
 10
360.40418150727862
 20
-314.0849448853931
 30
0.0
 11
360.40418150727862
 21
-397.58494488539287
 31
0.0
  0
LINE
  5
12C
  8
1
 62
     7
 10
344.50418150727859
 20
-410.08494488539299
 30
0.0
 11
344.50418150727859
 21
-319.08494488539299
 31
0.0
  0
LINE
  5
12D
  8
1
 62
     7
 10
341.2041815072788
 20
-314.08494488539287
 30
0.0
 11
341.2041815072788
 21
-422.08494488539299
 31
0.0
  0
LINE
  5
12E
  8
1
 62
     7
 10
341.90418150727879
 20
-321.08494488539299
 30
0.0
 11
342.50418150727882
 21
-321.08494488539299
 31
0.0
  0
LINE
  5
12F
  8
1
 62
     7
 10
341.2041815072788
 20
-406.08494488539299
 30
0.0
 11
341.90418150727868
 21
-406.08494488539299
 31
0.0
  0
LINE
  5
130
  8
1
 62
     7
 10
341.90418150727868
 20
-406.08494488539299
 30
0.0
 11
341.2041815072788
 21
-408.61838895213828
 31
0.0
  0
LINE
  5
131
  8
1
 62
     7
 10
342.50418150727882
 20
-406.08494488539299
 30
0.0
 11
341.80418150727883
 21
-408.69738045069062
 31
0.0
  0
LINE
  5
132
  8
1
 62
     7
 10
341.80418150727883
 20
-421.08494488539287
 30
0.0
 11
341.2041815072788
 21
-421.08494488539287
 31
0.0
  0
LINE
  5
133
  8
1
 62
     7
 10
346.40418150727862
 20
-322.58494488539287
 30
0.0
 11
345.00418150727882
 21
-322.58494488539287
 31
0.0
  0
LINE
  5
134
  8
1
 62
     7
 10
346.40418150727862
 20
-337.58494488539299
 30
0.0
 11
345.00418150727882
 21
-337.58494488539299
 31
0.0
  0
LINE
  5
135
  8
1
 62
     7
 10
341.2041815072788
 20
-330.08494488539287
 30
0.0
 11
341.90418150727879
 21
-330.08494488539287
 31
0.0
  0
LINE
  5
136
  8
1
 62
     7
 10
345.00418150727882
 20
-322.58494488539287
 30
0.0
 11
345.00418150727882
 21
-337.58494488539299
 31
0.0
  0
ARC
  5
137
  8
1
  6
DASHDOT
 62
     3
 10
562.98146737912896
 20
-368.08494488539282
 30
0.0
 40
24.999999999999979
 50
45.509310334819489
 51
74.905831064466554
  0
ARC
  5
138
  8
1
  6
DASHDOT
 62
     3
 10
562.98146737912896
 20
-368.08494488539282
 30
0.0
 40
25.000000000000139
 50
285.50931033481959
 51
314.90583106446672
  0
ARC
  5
139
  8
1
 62
     7
 10
193.22438613943029
 20
-368.08494488539282
 30
0.0
 40
9.9999999999999272
 50
107.45760312372219
 51
72.542396876277763
  0
ARC
  5
13A
  8
1
 62
     7
 10
193.22438613943029
 20
-368.08494488539282
 30
0.0
 40
42.49999999999995
 50
108.4714263052566
 51
71.528573694743685
  0
ARC
  5
13B
  8
1
 62
     7
 10
193.22438613943029
 20
-368.08494488539282
 30
0.0
 40
56.5
 50
107.5360394802799
 51
81.859967824574767
  0
ARC
  5
13C
  8
1
 62
     7
 10
209.22438613943009
 20
-320.18661506064842
 30
0.0
 40
8.0
 50
180.0
 51
251.52857369474299
  0
ARC
  5
13D
  8
1
 62
     7
 10
177.22438613943029
 20
-320.18661506064842
 30
0.0
 40
8.0000000000000338
 50
288.47142630525622
 51
0.0
  0
ARC
  5
13E
  8
1
 62
     7
 10
199.22438613943021
 20
-299.08494488539287
 30
0.0
 40
2.0
 50
0.0
 51
90.0
  0
ARC
  5
13F
  8
1
 62
     7
 10
187.22438613943029
 20
-299.08494488539287
 30
0.0
 40
2.0
 50
90.0
 51
180.0
  0
ARC
  5
140
  8
1
 62
     7
 10
305.90418150727902
 20
-415.43494488539289
 30
0.0
 40
6.0
 50
180.0
 51
270.0
  0
ARC
  5
141
  8
1
 62
     7
 10
305.90418150727902
 20
-320.73494488539291
 30
0.0
 40
6.0
 50
90.0
 51
180.0
  0
ARC
  5
142
  8
1
 62
     7
 10
410.80418150727883
 20
-415.43494488539289
 30
0.0
 40
6.0
 50
180.0
 51
270.0
  0
ARC
  5
143
  8
1
 62
     7
 10
410.80418150727883
 20
-400.58494488539287
 30
0.0
 40
5.9999999999999716
 50
113.5564643091006
 51
180.0
  0
ARC
  5
144
  8
1
 62
     7
 10
410.80418150727883
 20
-320.73494488539291
 30
0.0
 40
6.0
 50
90.0
 51
180.0
  0
ARC
  5
145
  8
1
 62
     7
 10
410.80418150727883
 20
-335.58494488539299
 30
0.0
 40
6.0
 50
180.0
 51
246.4435356909004
  0
ARC
  5
146
  8
1
 62
     7
 10
193.22438613943029
 20
-368.08494488539282
 30
0.0
 40
56.499999999999943
 50
98.140032175425318
 51
102.4639605197205
  0
ARC
  5
147
  8
1
 62
     7
 10
193.22438613943029
 20
-368.08494488539282
 30
0.0
 40
53.349999999999923
 50
98.624210943215274
 51
81.375789056784811
  0
ARC
  5
148
  8
1
  6
DASHDOT
 62
     3
 10
562.98146737912896
 20
-368.08494488539282
 30
0.0
 40
25.000000000000028
 50
165.50931033481959
 51
194.90583106446709
  0
ARC
  5
149
  8
1
  6
DASHDOT
 62
     3
 10
562.98146737912896
 20
-368.08494488539282
 30
0.0
 40
24.999999999999961
 50
229.51536214674249
 51
251.34464585693269
  0
ARC
  5
14A
  8
1
  6
DASHDOT
 62
     3
 10
562.98146737912896
 20
-368.08494488539282
 30
0.0
 40
25.00000000000005
 50
346.25753306746532
 51
12.8652456290794
  0
ARC
  5
14B
  8
1
  6
DASHDOT
 62
     3
 10
562.98146737912896
 20
-368.08494488539282
 30
0.0
 40
24.999999999999918
 50
107.7076855583104
 51
130.7700441555958
  0
ARC
  5
14C
  8
1
 62
     7
 10
568.98146737912896
 20
-299.08494488539287
 30
0.0
 40
2.0
 50
0.0
 51
90.0
  0
ARC
  5
14D
  8
1
 62
     7
 10
556.98146737912907
 20
-299.08494488539287
 30
0.0
 40
2.0
 50
90.0
 51
180.0
  0
ARC
  5
14E
  8
1
 62
     7
 10
562.98146737912896
 20
-368.08494488539282
 30
0.0
 40
53.000000000000277
 50
315.89485218307442
 51
344.10514781692518
  0
ARC
  5
14F
  8
1
 62
     7
 10
562.98146737912896
 20
-368.08494488539282
 30
0.0
 40
53.000000000000071
 50
75.894852183074633
 51
104.1051478169254
  0
ARC
  5
150
  8
1
 62
     7
 10
551.28376416628089
 20
-321.53213895981912
 30
0.0
 40
4.9999999999998828
 50
104.1051478169249
 51
150.00000000000111
  0
ARC
  5
151
  8
1
 62
     7
 10
609.1462315345467
 20
-381.23083969992251
 30
0.0
 40
4.9999999999999201
 50
344.10514781692581
 51
29.99999999999989
  0
ARC
  5
152
  8
1
 62
     7
 10
574.67917059197725
 20
-321.53213895981912
 30
0.0
 40
5.000000000000016
 50
29.99999999999989
 51
75.894852183075457
  0
ARC
  5
153
  8
1
 62
     7
 10
597.44852832169863
 20
-401.49185599643693
 30
0.0
 40
5.0
 50
270.0
 51
315.8948521830722
  0
ARC
  5
154
  8
1
 62
     7
 10
528.51440643655951
 20
-401.49185599643721
 30
0.0
 40
5.0000000000000524
 50
224.10514781692581
 51
270.0
  0
ARC
  5
155
  8
1
 62
     7
 10
562.98146737912896
 20
-368.08494488539282
 30
0.0
 40
53.000000000000142
 50
195.89485218307459
 51
224.10514781692549
  0
ARC
  5
156
  8
1
 62
     7
 10
516.81670322371156
 20
-381.23083969992251
 30
0.0
 40
5.000000000000016
 50
150.0
 51
195.89485218307351
  0
ARC
  5
157
  8
1
 62
     7
 10
546.58451939938698
 20
-412.13196631646861
 30
0.0
 40
14.99999999999989
 50
69.581709741809547
 51
123.39449868891489
  0
ARC
  5
158
  8
1
 62
     7
 10
562.98146737912896
 20
-368.08494488539282
 30
0.0
 40
32.00000000000022
 50
249.58170974180831
 51
290.33498709240661
  0
ARC
  5
159
  8
1
 62
     7
 10
609.32578088934918
 20
-360.26160766484361
 30
0.0
 40
15.000000000000069
 50
189.58170974180831
 51
243.39449868891529
  0
ARC
  5
15A
  8
1
 62
     7
 10
533.03410184865106
 20
-331.86126067486663
 30
0.0
 40
14.99999999999992
 50
309.58170974180831
 51
3.3944986889148279
  0
ARC
  5
15B
  8
1
 62
     7
 10
562.98146737912896
 20
-368.08494488539282
 30
0.0
 40
31.999999999999979
 50
129.58170974180871
 51
170.334987092407
  0
ARC
  5
15C
  8
1
 62
     7
 10
579.37841535887117
 20
-412.13196631646861
 30
0.0
 40
14.99999999999995
 50
56.605501311086051
 51
110.4182902581919
  0
ARC
  5
15D
  8
1
 62
     7
 10
516.63715386890919
 20
-360.26160766484361
 30
0.0
 40
14.99999999999989
 50
296.60550131108459
 51
350.41829025819152
  0
ARC
  5
15E
  8
1
 62
     7
 10
595.89043272293782
 20
-387.08494488539287
 30
0.0
 40
15.000000000000011
 50
236.60550131108511
 51
63.394498688914616
  0
ARC
  5
15F
  8
1
 62
     7
 10
530.07250203532033
 20
-387.08494488539287
 30
0.0
 40
15.00000000000005
 50
116.6055013110854
 51
303.39449868891472
  0
ARC
  5
160
  8
1
 62
     7
 10
592.92883290960708
 20
-331.86126067486663
 30
0.0
 40
14.99999999999984
 50
176.60550131108511
 51
230.4182902581916
  0
ARC
  5
161
  8
1
 62
     7
 10
562.98146737912896
 20
-330.08494488539282
 30
0.0
 40
15.00000000000008
 50
356.60550131108459
 51
183.39449868891509
  0
ARC
  5
162
  8
1
 62
     7
 10
562.98146737912896
 20
-368.08494488539282
 30
0.0
 40
32.000000000000007
 50
9.6650129075928781
 51
50.418290258191298
  0
ARC
  5
163
  8
1
 62
     7
 10
562.98146737912896
 20
-368.08494488539282
 30
0.0
 40
48.999999999999972
 50
231.61116771576249
 51
238.99728086612589
  0
ARC
  5
164
  8
1
 62
     7
 10
562.98146737912896
 20
-368.08494488539282
 30
0.0
 40
49.000000000000021
 50
301.00271913387388
 51
308.38883228423748
  0
ARC
  5
165
  8
1
 62
     7
 10
562.98146737912896
 20
-368.08494488539282
 30
0.0
 40
48.999999999999957
 50
351.61116771576241
 51
358.99728086612572
  0
ARC
  5
166
  8
1
 62
     7
 10
562.98146737912896
 20
-368.08494488539282
 30
0.0
 40
48.999999999999957
 50
111.61116771576251
 51
118.997280866126
  0
ARC
  5
167
  8
1
 62
     7
 10
562.98146737912896
 20
-368.08494488539282
 30
0.0
 40
48.999999999999957
 50
61.002719133873988
 51
68.388832284237367
  0
ARC
  5
168
  8
1
 62
     7
 10
562.98146737912896
 20
-368.08494488539282
 30
0.0
 40
49.000000000000128
 50
181.002719133874
 51
188.38883228423731
  0
ARC
  5
169
  8
1
 62
     7
 10
548.98146737912907
 20
-392.33365619135708
 30
0.0
 40
25.000000000000028
 50
214.48920527721779
 51
239.99999999999989
  0
ARC
  5
16A
  8
1
 62
     7
 10
562.98146737912896
 20
-368.08494488539282
 30
0.0
 40
53.000000000000028
 50
239.99999999999989
 51
299.99999999999989
  0
ARC
  5
16B
  8
1
 62
     7
 10
576.9814673791293
 20
-392.33365619135719
 30
0.0
 40
24.999999999999819
 50
299.99999999999972
 51
325.51079472278178
  0
ARC
  5
16C
  8
1
 62
     7
 10
576.98146737912896
 20
-343.83623357942861
 30
0.0
 40
25.0
 50
59.999999999999389
 51
85.510794722781654
  0
ARC
  5
16D
  8
1
 62
     7
 10
534.98146737912919
 20
-368.08494488539282
 30
0.0
 40
25.0
 50
180.0
 51
205.5107947227815
  0
ARC
  5
16E
  8
1
 62
     7
 10
562.98146737912896
 20
-368.08494488539282
 30
0.0
 40
53.0
 50
0.0
 51
59.999999999999709
  0
ARC
  5
16F
  8
1
 62
     7
 10
562.98146737912896
 20
-368.08494488539282
 30
0.0
 40
53.000000000000107
 50
119.9999999999997
 51
180.0
  0
ARC
  5
170
  8
1
 62
     7
 10
590.98146737912907
 20
-368.08494488539287
 30
0.0
 40
25.000000000000071
 50
334.48920527721759
 51
0.0
  0
ARC
  5
171
  8
1
 62
     7
 10
548.98146737912919
 20
-343.83623357942838
 30
0.0
 40
24.999999999999879
 50
94.489205277217835
 51
119.9999999999999
  0
CIRCLE
  5
172
  8
1
 62
     7
 10
193.22438613943029
 20
-368.08494488539282
 30
0.0
 40
17.5
  0
CIRCLE
  5
173
  8
1
 62
     7
 10
193.22438613943029
 20
-368.08494488539282
 30
0.0
 40
24.5
  0
CIRCLE
  5
174
  8
1
 62
     7
 10
193.22438613943029
 20
-303.08494488539287
 30
0.0
 40
3.25
  0
CIRCLE
  5
175
  8
1
 62
     7
 10
417.80418150727888
 20
-346.83494488539287
 30
0.0
 40
3.75
  0
CIRCLE
  5
176
  8
1
 62
     7
 10
417.80418150727888
 20
-389.33494488539287
 30
0.0
 40
3.75
  0
CIRCLE
  5
177
  8
1
 62
     7
 10
562.98146737912896
 20
-368.08494488539282
 30
0.0
 40
54.0
  0
CIRCLE
  5
178
  8
1
 62
     7
 10
562.98146737912896
 20
-415.58494488539282
 30
0.0
 40
5.0
  0
CIRCLE
  5
179
  8
1
 62
     7
 10
521.84526069936817
 20
-344.33494488539282
 30
0.0
 40
5.0
  0
CIRCLE
  5
17A
  8
1
 62
     7
 10
604.11767405888975
 20
-344.33494488539282
 30
0.0
 40
5.0
  0
CIRCLE
  5
17B
  8
1
 62
     3
 10
587.98146737912896
 20
-368.08494488539282
 30
0.0
 40
2.500000000000008
  0
CIRCLE
  5
17C
  8
1
 62
     7
 10
587.98146737912896
 20
-368.08494488539282
 30
0.0
 40
1.500000000000123
  0
CIRCLE
  5
17D
  8
1
 62
     3
 10
550.48146737912896
 20
-389.73557998000382
 30
0.0
 40
2.500000000000008
  0
CIRCLE
  5
17E
  8
1
 62
     7
 10
550.48146737912896
 20
-389.73557998000382
 30
0.0
 40
1.4999999999999261
  0
CIRCLE
  5
17F
  8
1
 62
     7
 10
575.48146737912896
 20
-346.43430979078181
 30
0.0
 40
2.7500000000001279
  0
CIRCLE
  5
180
  8
1
 62
     7
 10
575.48146737912896
 20
-389.73557998000382
 30
0.0
 40
2.7500000000001279
  0
CIRCLE
  5
181
  8
1
 62
     7
 10
550.48146737912896
 20
-346.43430979078181
 30
0.0
 40
1.5
  0
CIRCLE
  5
182
  8
1
 62
     3
 10
550.48146737912896
 20
-346.43430979078181
 30
0.0
 40
2.5
  0
CIRCLE
  5
183
  8
1
 62
     7
 10
537.98146737912896
 20
-368.08494488539282
 30
0.0
 40
2.75
  0
CIRCLE
  5
184
  8
1
 62
     7
 10
562.98146737912896
 20
-368.08494488539282
 30
0.0
 40
21.0
  0
CIRCLE
  5
185
  8
1
 62
     7
 10
562.98146737912896
 20
-368.08494488539282
 30
0.0
 40
17.5
  0
CIRCLE
  5
186
  8
1
 62
     7
 10
562.98146737912896
 20
-368.08494488539282
 30
0.0
 40
13.5
  0
CIRCLE
  5
187
  8
1
 62
     7
 10
562.98146737912896
 20
-368.08494488539282
 30
0.0
 40
10.0
  0
CIRCLE
  5
188
  8
1
 62
     7
 10
575.48146737912896
 20
-346.43430979078181
 30
0.0
 40
2.7500000000001279
  0
CIRCLE
  5
189
  8
1
 62
     7
 10
562.98146737912896
 20
-330.08494488539282
 30
0.0
 40
2.0
  0
CIRCLE
  5
18A
  8
1
 62
     3
 10
562.98146737912896
 20
-330.08494488539282
 30
0.0
 40
2.5
  0
CIRCLE
  5
18B
  8
1
 62
     7
 10
562.98146737912896
 20
-330.08494488539282
 30
0.0
 40
6.0
  0
CIRCLE
  5
18C
  8
1
 62
     7
 10
530.07250203532033
 20
-387.08494488539287
 30
0.0
 40
1.9999999999999181
  0
CIRCLE
  5
18D
  8
1
 62
     3
 10
530.07250203532033
 20
-387.08494488539287
 30
0.0
 40
2.500000000000008
  0
CIRCLE
  5
18E
  8
1
 62
     7
 10
530.07250203532033
 20
-387.08494488539287
 30
0.0
 40
5.9999999999999512
  0
CIRCLE
  5
18F
  8
1
 62
     7
 10
595.89043272293782
 20
-387.08494488539287
 30
0.0
 40
2.0000000000000151
  0
CIRCLE
  5
190
  8
1
 62
     3
 10
595.89043272293782
 20
-387.08494488539287
 30
0.0
 40
2.500000000000107
  0
CIRCLE
  5
191
  8
1
 62
     7
 10
595.89043272293782
 20
-387.08494488539287
 30
0.0
 40
6.0
  0
CIRCLE
  5
192
  8
1
 62
     7
 10
562.98146737912896
 20
-368.08494488539282
 30
0.0
 40
56.5
  0
CIRCLE
  5
193
  8
1
 62
     7
 10
595.89043272293782
 20
-387.08494488539287
 30
0.0
 40
9.5000000000001403
  0
CIRCLE
  5
194
  8
1
 62
     7
 10
530.07250203532033
 20
-387.08494488539287
 30
0.0
 40
9.4999999999999911
  0
CIRCLE
  5
195
  8
1
 62
     7
 10
562.98146737912896
 20
-330.08494488539282
 30
0.0
 40
9.5
  0
CIRCLE
  5
196
  8
1
 62
     7
 10
575.48146737912896
 20
-346.43430979078181
 30
0.0
 40
2.7500000000001279
  0
CIRCLE
  5
197
  8
1
 62
     7
 10
562.98146737912896
 20
-330.08494488539282
 30
0.0
 40
7.5
  0
CIRCLE
  5
198
  8
1
 62
     7
 10
530.07250203532033
 20
-387.08494488539287
 30
0.0
 40
7.5
  0
CIRCLE
  5
199
  8
1
 62
     7
 10
595.89043272293782
 20
-387.08494488539287
 30
0.0
 40
7.5
  0
CIRCLE
  5
19A
  8
1
 62
     7
 10
562.98146737912896
 20
-303.08494488539282
 30
0.0
 40
3.25
  0
ARC
  5
19B
  8
1
 62
     7
 10
462.80418150727883
 20
-398.08494488539299
 30
0.0
 40
2.0
 50
270.0
 51
0.0
  0
ARC
  5
19C
  8
1
 62
     7
 10
459.80418150727883
 20
-405.5328390528054
 30
0.0
 40
2.0
 50
270.0
 51
0.0
  0
ARC
  5
19D
  8
1
 62
     7
 10
456.30418150727883
 20
-405.5328390528054
 30
0.0
 40
2.0
 50
180.0
 51
270.0
  0
ARC
  5
19E
  8
1
 62
     7
 10
453.30418150727883
 20
-398.08494488539299
 30
0.0
 40
2.0
 50
180.0
 51
270.0
  0
ARC
  5
19F
  8
1
 62
     7
 10
462.80418150727883
 20
-401.08494488539299
 30
0.0
 40
1.0
 50
90.0
 51
180.0
  0
ARC
  5
1A0
  8
1
 62
     7
 10
453.30418150727883
 20
-401.08494488539299
 30
0.0
 40
1.0
 50
0.0
 51
90.0
  0
ARC
  5
1A1
  8
1
 62
     7
 10
357.90418150727862
 20
-398.08494488539299
 30
0.0
 40
2.0
 50
270.0
 51
0.0
  0
ARC
  5
1A2
  8
1
 62
     7
 10
354.90418150727862
 20
-405.5328390528054
 30
0.0
 40
2.0
 50
270.0
 51
0.0
  0
ARC
  5
1A3
  8
1
 62
     7
 10
351.40418150727862
 20
-405.5328390528054
 30
0.0
 40
2.0
 50
180.0
 51
270.0
  0
ARC
  5
1A4
  8
1
 62
     7
 10
348.40418150727862
 20
-398.08494488539299
 30
0.0
 40
2.0
 50
180.0
 51
270.0
  0
ARC
  5
1A5
  8
1
 62
     7
 10
357.90418150727862
 20
-401.08494488539299
 30
0.0
 40
1.0
 50
90.0
 51
180.0
  0
ARC
  5
1A6
  8
1
 62
     7
 10
348.40418150727862
 20
-401.08494488539299
 30
0.0
 40
1.000000000000113
 50
0.0
 51
90.0
  0
TEXT
  5
1A7
  8
1
 62
     7
 10
177.47438613943029
 20
-230.6250435602484
 30
0.0
 40
7.0
  1
VCEHA 2.5
 41
0.9
  7
SIMPLEX
  0
ENDSEC
  0
EOF
