  0
SECTION
  2
HEADER
  9
$ACADVER
  1
AC1009
  9
$INSBASE
 10
0.0
 20
0.0
 30
0.0
  9
$EXTMIN
 10
-303.73973851442992
 20
-918.44591825818088
 30
0.0
  9
$EXTMAX
 10
277.42257381052389
 20
-701.5403936253648
 30
0.0
  9
$LIMMIN
 10
-303.73973851442992
 20
-918.44591825818134
  9
$LIMMAX
 10
273.6488717569664
 20
-701.54039362536503
  9
$ORTHOMODE
 70
     0
  9
$REGENMODE
 70
     1
  9
$FILLMODE
 70
     1
  9
$QTEXTMODE
 70
     0
  9
$MIRRTEXT
 70
     1
  9
$DRAGMODE
 70
     2
  9
$LTSCALE
 40
1.0
  9
$OSMODE
 70
    37
  9
$ATTMODE
 70
     1
  9
$TEXTSIZE
 40
3.5
  9
$TRACEWID
 40
0.5
  9
$TEXTSTYLE
  7
STANDARD
  9
$CLAYER
  8
0
  9
$CELTYPE
  6
BYLAYER
  9
$CECOLOR
 62
   256
  9
$DIMSCALE
 40
1.0
  9
$DIMASZ
 40
0.18
  9
$DIMEXO
 40
0.0625
  9
$DIMDLI
 40
0.38
  9
$DIMRND
 40
0.0
  9
$DIMDLE
 40
0.0
  9
$DIMEXE
 40
0.18
  9
$DIMTP
 40
0.0
  9
$DIMTM
 40
0.0
  9
$DIMTXT
 40
0.18
  9
$DIMCEN
 40
0.09
  9
$DIMTSZ
 40
0.0
  9
$DIMTOL
 70
     0
  9
$DIMLIM
 70
     0
  9
$DIMTIH
 70
     1
  9
$DIMTOH
 70
     1
  9
$DIMSE1
 70
     0
  9
$DIMSE2
 70
     0
  9
$DIMTAD
 70
     0
  9
$DIMZIN
 70
     0
  9
$DIMBLK
  1

  9
$DIMASO
 70
     1
  9
$DIMSHO
 70
     1
  9
$DIMPOST
  1

  9
$DIMAPOST
  1

  9
$DIMALT
 70
     0
  9
$DIMALTD
 70
     2
  9
$DIMALTF
 40
25.399999999999999
  9
$DIMLFAC
 40
1.0
  9
$DIMTOFL
 70
     0
  9
$DIMTVP
 40
0.0
  9
$DIMTIX
 70
     0
  9
$DIMSOXD
 70
     0
  9
$DIMSAH
 70
     0
  9
$DIMBLK1
  1

  9
$DIMBLK2
  1

  9
$DIMSTYLE
  2
STANDARD
  9
$DIMCLRD
 70
     0
  9
$DIMCLRE
 70
     0
  9
$DIMCLRT
 70
     0
  9
$DIMTFAC
 40
1.0
  9
$DIMGAP
 40
0.09
  9
$LUNITS
 70
     2
  9
$LUPREC
 70
     4
  9
$SKETCHINC
 40
0.1
  9
$FILLETRAD
 40
2.0
  9
$AUNITS
 70
     0
  9
$AUPREC
 70
     0
  9
$MENU
  1
ACAD
  9
$ELEVATION
 40
0.0
  9
$PELEVATION
 40
0.0
  9
$THICKNESS
 40
0.0
  9
$LIMCHECK
 70
     0
  9
$BLIPMODE
 70
     0
  9
$CHAMFERA
 40
0.0
  9
$CHAMFERB
 40
0.0
  9
$SKPOLY
 70
     0
  9
$TDCREATE
 40
2452095.3811994209
  9
$TDUPDATE
 40
2452095.3818179392
  9
$TDINDWG
 40
0.0006325231
  9
$TDUSRTIMER
 40
0.0006325231
  9
$USRTIMER
 70
     1
  9
$ANGBASE
 50
0.0
  9
$ANGDIR
 70
     0
  9
$PDMODE
 70
     0
  9
$PDSIZE
 40
0.0
  9
$PLINEWID
 40
0.0
  9
$COORDS
 70
     1
  9
$SPLFRAME
 70
     0
  9
$SPLINETYPE
 70
     6
  9
$SPLINESEGS
 70
     8
  9
$ATTDIA
 70
     0
  9
$ATTREQ
 70
     1
  9
$HANDLING
 70
 10241
  9
$HANDSEED
  5
1A1
  9
$SURFTAB1
 70
     6
  9
$SURFTAB2
 70
     6
  9
$SURFTYPE
 70
     6
  9
$SURFU
 70
     6
  9
$SURFV
 70
     6
  9
$UCSNAME
  2

  9
$UCSORG
 10
0.0
 20
0.0
 30
0.0
  9
$UCSXDIR
 10
1.0
 20
0.0
 30
0.0
  9
$UCSYDIR
 10
0.0
 20
1.0
 30
0.0
  9
$PUCSNAME
  2

  9
$PUCSORG
 10
0.0
 20
0.0
 30
0.0
  9
$PUCSXDIR
 10
1.0
 20
0.0
 30
0.0
  9
$PUCSYDIR
 10
0.0
 20
1.0
 30
0.0
  9
$USERI1
 70
     0
  9
$USERI2
 70
     0
  9
$USERI3
 70
     0
  9
$USERI4
 70
     0
  9
$USERI5
 70
     0
  9
$USERR1
 40
0.0
  9
$USERR2
 40
0.0
  9
$USERR3
 40
0.0
  9
$USERR4
 40
0.0
  9
$USERR5
 40
0.0
  9
$WORLDVIEW
 70
     1
  9
$SHADEDGE
 70
     3
  9
$SHADEDIF
 70
    70
  9
$TILEMODE
 70
     1
  9
$MAXACTVP
 70
    64
  9
$PLIMCHECK
 70
     0
  9
$PEXTMIN
 10
1.0000000000000000E+020
 20
1.0000000000000000E+020
 30
1.0000000000000000E+020
  9
$PEXTMAX
 10
-1.0000000000000000E+020
 20
-1.0000000000000000E+020
 30
-1.0000000000000000E+020
  9
$PLIMMIN
 10
0.0
 20
0.0
  9
$PLIMMAX
 10
12.0
 20
9.0
  9
$UNITMODE
 70
     0
  9
$VISRETAIN
 70
     1
  9
$PLINEGEN
 70
     0
  9
$PSLTSCALE
 70
     1
  0
ENDSEC
  0
SECTION
  2
TABLES
  0
TABLE
  2
VPORT
 70
     2
  0
VPORT
  2
*ACTIVE
 70
     0
 10
0.0
 20
0.0
 11
1.0
 21
1.0
 12
-240.6237374206155
 22
-720.08859061483304
 13
0.0
 23
0.0
 14
1.0
 24
1.0
 15
0.0
 25
0.0
 16
0.0
 26
0.0
 36
1.0
 17
0.0
 27
0.0
 37
0.0
 40
8.9999994103495737
 41
2.4144144144144142
 42
50.0
 43
0.0
 44
0.0
 50
0.0
 51
0.0
 71
     0
 72
   100
 73
     1
 74
     1
 75
     0
 76
     0
 77
     0
 78
     0
  0
ENDTAB
  0
TABLE
  2
LTYPE
 70
     9
  0
LTYPE
  2
CONTINUOUS
 70
     0
  3
Solid line
 72
    65
 73
     0
 40
0.0
  0
LTYPE
  2
BORDER
 70
     0
  3
__ __ . __ __ .
 72
    65
 73
     6
 40
26.590264946709048
 49
7.5972185562025842
 49
-3.7986092781012921
 49
7.5972185562025842
 49
-3.7986092781012921
 49
0.0
 49
-3.7986092781012921
  0
LTYPE
  2
CENTER
 70
     0
  3
____ _ ____ _
 72
    65
 73
     4
 40
30.388874224810341
 49
18.993046390506461
 49
-3.7986092781012921
 49
3.7986092781012921
 49
-3.7986092781012921
  0
LTYPE
  2
DASHDOT
 70
     0
  3
__ . __ . __ .
 72
    65
 73
     4
 40
15.19443711240517
 49
7.5972185562025842
 49
-3.7986092781012921
 49
0.0
 49
-3.7986092781012921
  0
LTYPE
  2
DASHED
 70
     0
  3
__ __ __ __ __
 72
    65
 73
     2
 40
11.395827834303869
 49
7.5972185562025842
 49
-3.7986092781012921
  0
LTYPE
  2
DIVIDE
 70
     0
  3
__ . . __ . . 
 72
    65
 73
     6
 40
18.993046390506461
 49
7.5972185562025842
 49
-3.7986092781012921
 49
0.0
 49
-3.7986092781012921
 49
0.0
 49
-3.7986092781012921
  0
LTYPE
  2
DOT
 70
     0
  3
..............
 72
    65
 73
     4
 40
7.5972185562025842
 49
0.0
 49
-3.7986092781012921
 49
0.0
 49
-3.7986092781012921
  0
LTYPE
  2
HIDDEN
 70
     0
  3
_ _ _ _ _ _ _
 72
    65
 73
     2
 40
5.6979139171519373
 49
3.7986092781012921
 49
-1.8993046390506461
  0
LTYPE
  2
PHANTOM
 70
     0
  3
_____ _ _ _____ _ _ 
 72
    65
 73
     6
 40
37.986092781012921
 49
18.993046390506461
 49
-3.7986092781012921
 49
3.7986092781012921
 49
-3.7986092781012921
 49
3.7986092781012921
 49
-3.7986092781012921
  0
ENDTAB
  0
TABLE
  2
LAYER
 70
     2
  0
LAYER
  2
0
 70
     0
 62
     7
  6
CONTINUOUS
  0
LAYER
  2
1
 70
     0
 62
     7
  6
CONTINUOUS
  0
ENDTAB
  0
TABLE
  2
STYLE
 70
     4
  0
STYLE
  2
STANDARD
 70
     0
 40
0.0
 41
1.0
 50
0.0
 71
     0
 42
3.5
  3
txt
  4

  0
STYLE
  2
SIMPLEX
 70
     0
 40
0.0
 41
1.0
 50
0.0
 71
     0
 42
3.5
  3
simplex
  4

  0
STYLE
  2
COMPLEX
 70
     0
 40
0.0
 41
1.0
 50
0.0
 71
     0
 42
3.5
  3
complex
  4

  0
STYLE
  2
ITALIC
 70
     0
 40
0.0
 41
1.0
 50
0.0
 71
     0
 42
3.5
  3
italic
  4

  0
ENDTAB
  0
TABLE
  2
VIEW
 70
     0
  0
ENDTAB
  0
TABLE
  2
UCS
 70
     0
  0
ENDTAB
  0
TABLE
  2
APPID
 70
     1
  0
APPID
  2
ACAD
 70
     0
  0
ENDTAB
  0
TABLE
  2
DIMSTYLE
 70
     1
  0
DIMSTYLE
  2
STANDARD
 70
     0
  3

  4

  5

  6

  7

 40
1.0
 41
0.18
 42
0.0625
 43
0.38
 44
0.18
 45
0.0
 46
0.0
 47
0.0
 48
0.0
140
0.18
141
0.09
142
0.0
143
25.399999999999999
144
1.0
145
0.0
146
1.0
147
0.09
 71
     0
 72
     0
 73
     1
 74
     1
 75
     0
 76
     0
 77
     0
 78
     0
170
     0
171
     2
172
     0
173
     0
174
     0
175
     0
176
     0
177
     0
178
     0
  0
ENDTAB
  0
ENDSEC
  0
SECTION
  2
BLOCKS
  0
BLOCK
  8
0
  2
$MODEL_SPACE
 70
     0
 10
0.0
 20
0.0
 30
0.0
  3
$MODEL_SPACE
  1

  0
ENDBLK
  5
20
  8
0
  0
BLOCK
 67
     1
  8
0
  2
$PAPER_SPACE
 70
     0
 10
0.0
 20
0.0
 30
0.0
  3
$PAPER_SPACE
  1

  0
ENDBLK
  5
1C
 67
     1
  8
0
  0
ENDSEC
  0
SECTION
  2
ENTITIES
  0
LINE
  5
33
  8
1
 62
     7
 10
-57.616310072584589
 20
-903.44591825818111
 30
0.0
 11
-58.116310072584582
 21
-902.945918258181
 31
0.0
  0
LINE
  5
34
  8
1
 62
     7
 10
-57.616310072584589
 20
-912.445918258181
 30
0.0
 11
-58.116310072584582
 21
-912.94591825818088
 31
0.0
  0
LINE
  5
35
  8
1
 62
     7
 10
-59.716310072584591
 20
-902.945918258181
 30
0.0
 11
-59.716310072584591
 21
-912.94591825818088
 31
0.0
  0
LINE
  5
36
  8
1
 62
     7
 10
-58.116310072584582
 20
-912.94591825818088
 30
0.0
 11
-60.416310072584601
 21
-912.94591825818088
 31
0.0
  0
LINE
  5
37
  8
1
 62
     7
 10
-58.116310072584582
 20
-902.945918258181
 30
0.0
 11
-60.416310072584601
 21
-902.945918258181
 31
0.0
  0
LINE
  5
38
  8
1
 62
     7
 10
-57.616310072584589
 20
-903.44591825818111
 30
0.0
 11
-57.616310072584589
 21
-912.445918258181
 31
0.0
  0
LINE
  5
39
  8
1
 62
     7
 10
65.858689927415213
 20
-904.23832698767114
 30
0.0
 11
65.358689927415213
 21
-903.73832698767126
 31
0.0
  0
LINE
  5
3A
  8
1
 62
     7
 10
65.858689927415213
 20
-913.23832698767114
 30
0.0
 11
65.358689927415213
 21
-913.73832698767114
 31
0.0
  0
LINE
  5
3B
  8
1
 62
     7
 10
63.758689927415219
 20
-903.73832698767126
 30
0.0
 11
63.758689927415219
 21
-913.73832698767114
 31
0.0
  0
LINE
  5
3C
  8
1
 62
     7
 10
65.358689927415213
 20
-913.73832698767114
 30
0.0
 11
63.058689927415202
 21
-913.73832698767114
 31
0.0
  0
LINE
  5
3D
  8
1
 62
     7
 10
65.358689927415213
 20
-903.73832698767126
 30
0.0
 11
63.058689927415202
 21
-903.73832698767126
 31
0.0
  0
LINE
  5
3E
  8
1
 62
     7
 10
65.858689927415213
 20
-904.23832698767114
 30
0.0
 11
65.858689927415213
 21
-913.23832698767114
 31
0.0
  0
LINE
  5
3F
  8
1
 62
     7
 10
24.608689927415291
 20
-878.873418258181
 30
0.0
 11
24.608689927415291
 21
-870.01841825818087
 31
0.0
  0
LINE
  5
40
  8
1
 62
     7
 10
36.308689927415287
 20
-878.873418258181
 30
0.0
 11
36.308689927415287
 21
-870.01841825818087
 31
0.0
  0
LINE
  5
41
  8
1
 62
     7
 10
32.671177215514412
 20
-878.01591825818116
 30
0.0
 11
37.958689927415307
 21
-878.01591825818116
 31
0.0
  0
LINE
  5
42
  8
1
 62
     7
 10
28.246202639316198
 20
-878.01591825818116
 30
0.0
 11
22.95868992741531
 21
-878.01591825818116
 31
0.0
  0
LINE
  5
43
  8
1
 62
     7
 10
32.671177215514412
 20
-870.87591825818095
 30
0.0
 11
37.958689927415307
 21
-870.87591825818095
 31
0.0
  0
LINE
  5
44
  8
1
 62
     7
 10
28.246202639316198
 20
-870.87591825818095
 30
0.0
 11
22.95868992741531
 21
-870.87591825818095
 31
0.0
  0
LINE
  5
45
  8
1
 62
     7
 10
24.608689927415291
 20
-816.01841825818099
 30
0.0
 11
24.608689927415291
 21
-824.87341825818089
 31
0.0
  0
LINE
  5
46
  8
1
 62
     7
 10
36.308689927415287
 20
-816.01841825818099
 30
0.0
 11
36.308689927415287
 21
-824.87341825818089
 31
0.0
  0
LINE
  5
47
  8
1
 62
     7
 10
32.671177215514412
 20
-816.87591825818083
 30
0.0
 11
37.958689927415307
 21
-816.87591825818083
 31
0.0
  0
LINE
  5
48
  8
1
 62
     7
 10
28.246202639316198
 20
-816.87591825818083
 30
0.0
 11
22.95868992741531
 21
-816.87591825818083
 31
0.0
  0
LINE
  5
49
  8
1
 62
     7
 10
32.671177215514412
 20
-824.01591825818105
 30
0.0
 11
37.958689927415307
 21
-824.01591825818105
 31
0.0
  0
LINE
  5
4A
  8
1
 62
     7
 10
28.246202639316198
 20
-824.01591825818105
 30
0.0
 11
22.95868992741531
 21
-824.01591825818105
 31
0.0
  0
LINE
  5
4B
  8
1
 62
     7
 10
-105.0163100725844
 20
-763.44591825818088
 30
0.0
 11
-105.0163100725844
 21
-907.77179439701013
 31
0.0
  0
LINE
  5
4C
  8
1
 62
     7
 10
56.65868992741521
 20
-779.94591825818088
 30
0.0
 11
56.65868992741521
 21
-815.5589104271578
 31
0.0
  0
LINE
  5
4D
  8
1
 62
     7
 10
18.45868992741531
 20
-763.44591825818088
 30
0.0
 11
18.45868992741531
 21
-813.94591825818088
 31
0.0
  0
LINE
  5
4E
  8
1
 62
     7
 10
22.860613716062009
 20
-813.445918258181
 30
0.0
 11
37.958689927415307
 21
-813.445918258181
 31
0.0
  0
LINE
  5
4F
  8
1
 62
     7
 10
37.958689927415307
 20
-827.44591825818088
 30
0.0
 11
22.95868992741531
 21
-827.44591825818088
 31
0.0
  0
LINE
  5
50
  8
1
 62
     7
 10
37.958689927415307
 20
-811.945918258181
 30
0.0
 11
37.958689927415307
 21
-827.44591825818088
 31
0.0
  0
LINE
  5
51
  8
1
 62
     7
 10
22.95868992741531
 20
-867.44591825818088
 30
0.0
 11
37.958689927415307
 21
-867.44591825818088
 31
0.0
  0
LINE
  5
52
  8
1
 62
     7
 10
37.958689927415307
 20
-882.94591825818088
 30
0.0
 11
37.958689927415307
 21
-867.44591825818088
 31
0.0
  0
LINE
  5
53
  8
1
 62
     7
 10
56.65868992741521
 20
-914.94591825818054
 30
0.0
 11
56.65868992741521
 21
-879.33292608920397
 31
0.0
  0
LINE
  5
54
  8
1
 62
     7
 10
29.95868992741531
 20
-753.93416879609629
 30
0.0
 11
29.95868992741531
 21
-755.82997564634002
 31
0.0
  0
LINE
  5
55
  8
1
 62
     7
 10
29.45868992741531
 20
-753.9907990988147
 30
0.0
 11
29.45868992741531
 21
-755.82997564634002
 31
0.0
  0
LINE
  5
56
  8
1
 62
     7
 10
30.45868992741531
 20
-755.82997564634002
 30
0.0
 11
30.45868992741531
 21
-753.9907990988147
 31
0.0
  0
LINE
  5
57
  8
1
  6
DASHDOT
 62
     3
 10
-108.1389479795251
 20
-769.445918258181
 30
0.0
 11
-103.5331925838417
 21
-769.445918258181
 31
0.0
  0
LINE
  5
58
  8
1
  6
DASHDOT
 62
     3
 10
-107.0163100725844
 20
-847.445918258181
 30
0.0
 11
-112.0163100725845
 21
-847.445918258181
 31
0.0
  0
LINE
  5
59
  8
1
 62
     7
 10
-107.0163100725844
 20
-763.44591825818088
 30
0.0
 11
-107.0163100725844
 21
-899.945918258181
 31
0.0
  0
LINE
  5
5A
  8
1
 62
     7
 10
-68.816310072584599
 20
-914.94591825818054
 30
0.0
 11
-70.837036014748193
 21
-918.44591825818065
 31
0.0
  0
LINE
  5
5B
  8
1
 62
     7
 10
-66.816310072584585
 20
-914.94591825818054
 30
0.0
 11
-68.816310072584599
 21
-914.94591825818054
 31
0.0
  0
LINE
  5
5C
  8
1
 62
     7
 10
-83.316310072584585
 20
-918.44591825818065
 30
0.0
 11
-83.316310072584585
 21
-776.445918258181
 31
0.0
  0
LINE
  5
5D
  8
1
 62
     7
 10
-70.837036014748193
 20
-918.44591825818065
 30
0.0
 11
-83.316310072584585
 21
-918.44591825818065
 31
0.0
  0
LINE
  5
5E
  8
1
 62
     7
 10
-83.316310072584585
 20
-776.445918258181
 30
0.0
 11
-70.837036014748193
 21
-776.445918258181
 31
0.0
  0
LINE
  5
5F
  8
1
 62
     7
 10
-68.816310072584599
 20
-779.94591825818088
 30
0.0
 11
-66.816310072584585
 21
-779.94591825818088
 31
0.0
  0
LINE
  5
60
  8
1
 62
     7
 10
-70.837036014748193
 20
-776.445918258181
 30
0.0
 11
-68.816310072584599
 21
-779.94591825818088
 31
0.0
  0
LINE
  5
61
  8
1
 62
     7
 10
-98.016310072584503
 20
-914.79591825818113
 30
0.0
 11
-83.316310072584585
 21
-914.79591825818113
 31
0.0
  0
LINE
  5
62
  8
1
 62
     7
 10
-107.0163100725844
 20
-899.945918258181
 30
0.0
 11
-105.0163100725844
 21
-899.945918258181
 31
0.0
  0
LINE
  5
63
  8
1
 62
     7
 10
-107.0163100725844
 20
-763.44591825818088
 30
0.0
 11
-105.0163100725844
 21
-763.44591825818088
 31
0.0
  0
LINE
  5
64
  8
1
 62
     7
 10
-98.016310072584503
 20
-780.09591825818086
 30
0.0
 11
-83.316310072584585
 21
-780.09591825818086
 31
0.0
  0
LINE
  5
65
  8
1
 62
     7
 10
-66.816310072584585
 20
-914.94591825818054
 30
0.0
 11
-66.816310072584585
 21
-779.94591825818088
 31
0.0
  0
LINE
  5
66
  8
1
 62
     7
 10
-68.816310072584599
 20
-779.94591825818088
 30
0.0
 11
-68.816310072584599
 21
-914.94591825818054
 31
0.0
  0
LINE
  5
67
  8
1
 62
     7
 10
-70.837036014748193
 20
-918.44591825818065
 30
0.0
 11
-70.837036014748193
 21
-776.445918258181
 31
0.0
  0
LINE
  5
68
  8
1
 62
     7
 10
39.558689927415287
 20
-882.945918258181
 30
0.0
 11
37.958689927415307
 21
-882.94591825818088
 31
0.0
  0
LINE
  5
69
  8
1
  6
DASHDOT
 62
     3
 10
16.45868992741531
 20
-847.445918258181
 30
0.0
 11
11.45868992741531
 21
-847.445918258181
 31
0.0
  0
LINE
  5
6A
  8
1
 62
     7
 10
39.558689927415287
 20
-811.945918258181
 30
0.0
 11
37.958689927415307
 21
-811.945918258181
 31
0.0
  0
LINE
  5
6B
  8
1
 62
     7
 10
54.65868992741521
 20
-818.44591825818088
 30
0.0
 11
56.458689927415307
 21
-818.44591825818088
 31
0.0
  0
LINE
  5
6C
  8
1
 62
     7
 10
40.15868992741521
 20
-872.94591825818088
 30
0.0
 11
37.958689927415307
 21
-872.94591825818088
 31
0.0
  0
LINE
  5
6D
  8
1
 62
     7
 10
50.258689927415212
 20
-880.94591825818088
 30
0.0
 11
40.15868992741521
 21
-880.94591825818088
 31
0.0
  0
LINE
  5
6E
  8
1
 62
     7
 10
40.15868992741521
 20
-915.29591825818102
 30
0.0
 11
50.258689927415212
 21
-915.29591825818102
 31
0.0
  0
LINE
  5
6F
  8
1
 62
     7
 10
55.15868992741521
 20
-914.94591825818054
 30
0.0
 11
53.137963985251588
 21
-918.44591825818065
 31
0.0
  0
LINE
  5
70
  8
1
 62
     7
 10
56.65868992741521
 20
-914.94591825818054
 30
0.0
 11
55.15868992741521
 21
-914.94591825818054
 31
0.0
  0
LINE
  5
71
  8
1
 62
     7
 10
56.458689927415307
 20
-876.44591825818088
 30
0.0
 11
54.658689927415303
 21
-876.44591825818088
 31
0.0
  0
LINE
  5
72
  8
1
 62
     7
 10
56.65868992741521
 20
-880.94591825818088
 30
0.0
 11
54.65868992741521
 21
-880.94591825818088
 31
0.0
  0
LINE
  5
73
  8
1
 62
     7
 10
54.658689927415303
 20
-876.44591825818088
 30
0.0
 11
54.65868992741521
 21
-880.94591825818088
 31
0.0
  0
LINE
  5
74
  8
1
 62
     7
 10
56.458689927415307
 20
-818.44591825818088
 30
0.0
 11
56.458689927415307
 21
-876.44591825818088
 31
0.0
  0
LINE
  5
75
  8
1
 62
     7
 10
53.137963985251588
 20
-918.44591825818065
 30
0.0
 11
40.15868992741521
 21
-918.44591825818065
 31
0.0
  0
LINE
  5
76
  8
1
 62
     7
 10
39.558689927415287
 20
-876.94591825818077
 30
0.0
 11
37.958689927415307
 21
-876.94591825818077
 31
0.0
  0
LINE
  5
77
  8
1
 62
     7
 10
39.558689927415287
 20
-875.69191825818086
 30
0.0
 11
39.558689927415287
 21
-882.945918258181
 31
0.0
  0
LINE
  5
78
  8
1
 62
     7
 10
37.958689927415307
 20
-882.94591825818088
 30
0.0
 11
39.558689927415287
 21
-882.945918258181
 31
0.0
  0
LINE
  5
79
  8
1
 62
     7
 10
39.558689927415287
 20
-811.945918258181
 30
0.0
 11
37.958689927415307
 21
-811.945918258181
 31
0.0
  0
LINE
  5
7A
  8
1
 62
     7
 10
39.558689927415287
 20
-811.945918258181
 30
0.0
 11
39.558689927415287
 21
-819.19991825818113
 31
0.0
  0
LINE
  5
7B
  8
1
 62
     7
 10
37.958689927415307
 20
-817.945918258181
 30
0.0
 11
39.558689927415287
 21
-817.945918258181
 31
0.0
  0
LINE
  5
7C
  8
1
 62
     7
 10
40.15868992741521
 20
-776.445918258181
 30
0.0
 11
53.137963985251588
 21
-776.445918258181
 31
0.0
  0
LINE
  5
7D
  8
1
 62
     7
 10
40.15868992741521
 20
-776.445918258181
 30
0.0
 11
40.15868992741521
 21
-779.59591825818086
 31
0.0
  0
LINE
  5
7E
  8
1
 62
     7
 10
54.65868992741521
 20
-813.94591825818088
 30
0.0
 11
54.65868992741521
 21
-818.44591825818088
 31
0.0
  0
LINE
  5
7F
  8
1
 62
     7
 10
54.65868992741521
 20
-813.94591825818088
 30
0.0
 11
56.65868992741521
 21
-813.94591825818088
 31
0.0
  0
LINE
  5
80
  8
1
 62
     7
 10
55.15868992741521
 20
-779.94591825818088
 30
0.0
 11
56.65868992741521
 21
-779.94591825818088
 31
0.0
  0
LINE
  5
81
  8
1
 62
     7
 10
53.137963985251588
 20
-776.445918258181
 30
0.0
 11
55.15868992741521
 21
-779.94591825818088
 31
0.0
  0
LINE
  5
82
  8
1
 62
     7
 10
50.258689927415212
 20
-779.59591825818086
 30
0.0
 11
40.15868992741521
 21
-779.59591825818086
 31
0.0
  0
LINE
  5
83
  8
1
 62
     7
 10
40.15868992741521
 20
-813.94591825818088
 30
0.0
 11
50.258689927415212
 21
-813.94591825818088
 31
0.0
  0
LINE
  5
84
  8
1
 62
     7
 10
40.15868992741521
 20
-821.94591825818088
 30
0.0
 11
40.15868992741521
 21
-813.94591825818088
 31
0.0
  0
LINE
  5
85
  8
1
 62
     7
 10
37.958689927415307
 20
-821.94591825818088
 30
0.0
 11
40.15868992741521
 21
-821.94591825818088
 31
0.0
  0
LINE
  5
86
  8
1
 62
     7
 10
25.45868992741531
 20
-780.09591825818086
 30
0.0
 11
47.258689927415283
 21
-780.09591825818086
 31
0.0
  0
LINE
  5
87
  8
1
 62
     7
 10
47.258689927415283
 20
-780.09591825818086
 30
0.0
 11
47.258689927415283
 21
-813.445918258181
 31
0.0
  0
LINE
  5
88
  8
1
 62
     7
 10
39.558689927415287
 20
-813.445918258181
 30
0.0
 11
47.258689927415283
 21
-813.445918258181
 31
0.0
  0
LINE
  5
89
  8
1
 62
     7
 10
47.258689927415283
 20
-881.445918258181
 30
0.0
 11
39.558689927415287
 21
-881.445918258181
 31
0.0
  0
LINE
  5
8A
  8
1
 62
     7
 10
22.860613716062009
 20
-881.445918258181
 30
0.0
 11
37.958689927415307
 21
-881.445918258181
 31
0.0
  0
LINE
  5
8B
  8
1
 62
     7
 10
47.258689927415283
 20
-881.445918258181
 30
0.0
 11
47.258689927415283
 21
-914.79591825818113
 31
0.0
  0
LINE
  5
8C
  8
1
 62
     7
 10
47.258689927415283
 20
-914.79591825818113
 30
0.0
 11
25.45868992741531
 21
-914.79591825818113
 31
0.0
  0
LINE
  5
8D
  8
1
 62
     7
 10
16.45868992741531
 20
-899.945918258181
 30
0.0
 11
18.45868992741531
 21
-899.945918258181
 31
0.0
  0
LINE
  5
8E
  8
1
 62
     7
 10
16.45868992741531
 20
-878.19591825818088
 30
0.0
 11
18.45868992741531
 21
-878.19591825818088
 31
0.0
  0
LINE
  5
8F
  8
1
 62
     7
 10
16.45868992741531
 20
-763.44591825818088
 30
0.0
 11
18.45868992741531
 21
-763.44591825818088
 31
0.0
  0
LINE
  5
90
  8
1
 62
     7
 10
16.45868992741531
 20
-766.195918258181
 30
0.0
 11
18.45868992741531
 21
-766.195918258181
 31
0.0
  0
LINE
  5
91
  8
1
  6
DASHDOT
 62
     3
 10
15.3360520204746
 20
-769.445918258181
 30
0.0
 11
19.941807416158099
 21
-769.445918258181
 31
0.0
  0
LINE
  5
92
  8
1
 62
     7
 10
16.45868992741531
 20
-772.695918258181
 30
0.0
 11
18.45868992741531
 21
-772.695918258181
 31
0.0
  0
LINE
  5
93
  8
1
 62
     7
 10
22.95868992741531
 20
-859.945918258181
 30
0.0
 11
78.458689927415193
 21
-859.945918258181
 31
0.0
  0
LINE
  5
94
  8
1
 62
     7
 10
22.95868992741531
 20
-831.64591825818115
 30
0.0
 11
56.458689927415307
 21
-831.64591825818115
 31
0.0
  0
LINE
  5
95
  8
1
 62
     7
 10
22.95868992741531
 20
-834.945918258181
 30
0.0
 11
78.458689927415193
 21
-834.945918258181
 31
0.0
  0
LINE
  5
96
  8
1
 62
     7
 10
28.758689927415301
 20
-755.82997564634013
 30
0.0
 11
28.758689927415301
 21
-780.09591825818086
 31
0.0
  0
LINE
  5
97
  8
1
 62
     7
 10
28.758689927415301
 20
-755.82997564634013
 30
0.0
 11
31.15868992741531
 21
-755.82997564634002
 31
0.0
  0
LINE
  5
98
  8
1
 62
     7
 10
31.15868992741531
 20
-755.82997564634002
 30
0.0
 11
31.15868992741531
 21
-780.09591825818086
 31
0.0
  0
LINE
  5
99
  8
1
  6
DASHDOT
 62
     3
 10
-232.73973851442989
 20
-773.25033939010223
 30
0.0
 11
-232.73973851442989
 21
-765.64149712625976
 31
0.0
  0
LINE
  5
9A
  8
1
  6
DASHDOT
 62
     3
 10
-228.9353173825086
 20
-769.445918258181
 30
0.0
 11
-236.5441596463512
 21
-769.445918258181
 31
0.0
  0
LINE
  5
9B
  8
1
  6
DASHDOT
 62
     3
 10
-232.73973851442989
 20
-855.67065713493571
 30
0.0
 11
-232.73973851442989
 21
-839.22117938142628
 31
0.0
  0
LINE
  5
9C
  8
1
  6
DASHDOT
 62
     3
 10
-224.51499963767509
 20
-847.445918258181
 30
0.0
 11
-240.9644773911848
 21
-847.445918258181
 31
0.0
  0
LINE
  5
9D
  8
1
 62
     7
 10
-236.73973851442989
 20
-831.64591825818115
 30
0.0
 11
-228.73973851442989
 21
-831.64591825818115
 31
0.0
  0
LINE
  5
9E
  8
1
 62
     7
 10
-259.97433690483803
 20
-755.8559492783005
 30
0.0
 11
-255.137474804584
 21
-754.58884785987095
 31
0.0
  0
LINE
  5
9F
  8
1
 62
     7
 10
-252.5592774952591
 20
-783.07933192534119
 30
0.0
 11
-259.97433690483803
 21
-755.8559492783005
 31
0.0
  0
LINE
  5
A0
  8
1
 62
     7
 10
-258.14699852187539
 20
-755.37724572855882
 30
0.0
 11
-259.14310280635198
 21
-751.67806122970262
 31
0.0
  0
LINE
  5
A1
  8
1
 62
     7
 10
-258.78501534039577
 20
-755.5443854978912
 30
0.0
 11
-259.71580894912989
 21
-751.89282603324432
 31
0.0
  0
LINE
  5
A2
  8
1
 62
     7
 10
-259.44058160291388
 20
-755.71612265390138
 30
0.0
 11
-260.28851509190798
 21
-752.10759083678624
 31
0.0
  0
LINE
  5
A3
  8
1
 62
     7
 10
-257.95352164347258
 20
-751.35931391777785
 30
0.0
 11
-256.96658100921962
 21
-755.06095380931106
 31
0.0
  0
LINE
  5
A4
  8
1
 62
     7
 10
-257.35016117315229
 20
-751.25895262209474
 30
0.0
 11
-256.330472351673
 21
-754.88669268627552
 31
0.0
  0
LINE
  5
A5
  8
1
 62
     7
 10
-256.74680070283239
 20
-751.15859132641162
 30
0.0
 11
-255.6768667364633
 21
-754.70763829489522
 31
0.0
  0
LINE
  5
A6
  8
1
 62
     7
 10
-247.72964836381379
 20
-781.78523669982883
 30
0.0
 11
-255.137474804584
 21
-754.58884785987095
 31
0.0
  0
LINE
  5
A7
  8
1
  6
DASHDOT
 62
     3
 10
-232.73973851442989
 20
-765.64149712625976
 30
0.0
 11
-232.73973851442989
 21
-773.25033939010223
 31
0.0
  0
LINE
  5
A8
  8
1
  6
DASHDOT
 62
     3
 10
-228.9353173825086
 20
-769.445918258181
 30
0.0
 11
-236.5441596463512
 21
-769.445918258181
 31
0.0
  0
LINE
  5
A9
  8
1
 62
     7
 10
-240.73973851442989
 20
-765.445918258181
 30
0.0
 11
-240.73973851442989
 21
-789.09977346145649
 31
0.0
  0
LINE
  5
AA
  8
1
 62
     7
 10
-238.73973851442989
 20
-763.44591825818088
 30
0.0
 11
-226.73973851442989
 21
-763.44591825818088
 31
0.0
  0
LINE
  5
AB
  8
1
 62
     7
 10
-224.7397385144298
 20
-789.09977346145649
 30
0.0
 11
-224.7397385144298
 21
-765.445918258181
 31
0.0
  0
LINE
  5
AC
  8
1
 62
     7
 10
-257.45783978974208
 20
-755.19670843208257
 30
0.0
 11
-250.19439683269141
 21
-782.39703354066455
 31
0.0
  0
LINE
  5
AD
  8
1
 62
     7
 10
50.258689927415212
 20
-813.94591825818088
 30
0.0
 11
50.258689927415212
 21
-779.59591825818086
 31
0.0
  0
LINE
  5
AE
  8
1
 62
     7
 10
40.15868992741521
 20
-915.29591825818102
 30
0.0
 11
40.15868992741521
 21
-918.44591825818065
 31
0.0
  0
LINE
  5
AF
  8
1
 62
     7
 10
40.15868992741521
 20
-880.94591825818088
 30
0.0
 11
40.15868992741521
 21
-872.94591825818088
 31
0.0
  0
LINE
  5
B0
  8
1
 62
     7
 10
50.258689927415212
 20
-880.94591825818088
 30
0.0
 11
50.258689927415212
 21
-915.29591825818102
 31
0.0
  0
LINE
  5
B1
  8
1
 62
     7
 10
16.45868992741531
 20
-763.44591825818088
 30
0.0
 11
16.45868992741531
 21
-899.945918258181
 31
0.0
  0
LINE
  5
B2
  8
1
 62
     7
 10
-228.73973851442989
 20
-835.60319897585407
 30
0.0
 11
-228.73973851442989
 21
-831.64591825818115
 31
0.0
  0
LINE
  5
B3
  8
1
 62
     7
 10
-236.73973851442989
 20
-835.60319897585407
 30
0.0
 11
-236.73973851442989
 21
-831.64591825818115
 31
0.0
  0
LINE
  5
B4
  8
1
 62
     7
 10
22.958731496158599
 20
-881.445918258181
 30
0.0
 11
22.958731496158599
 21
-813.445918258181
 31
0.0
  0
LINE
  5
B5
  8
1
 62
     7
 10
16.45868992741531
 20
-813.94591825818088
 30
0.0
 11
22.958731496158599
 21
-813.94591825818088
 31
0.0
  0
LINE
  5
B6
  8
1
 62
     7
 10
16.45868992741531
 20
-816.69591825818088
 30
0.0
 11
22.958731496158599
 21
-816.69591825818088
 31
0.0
  0
LINE
  5
B7
  8
1
 62
     7
 10
18.45868992741531
 20
-816.69591825818088
 30
0.0
 11
18.45868992741531
 21
-907.77179439701013
 31
0.0
  0
LINE
  5
B8
  8
1
 62
     7
 10
20.95873149615861
 20
-813.94591825818088
 30
0.0
 11
20.95873149615861
 21
-816.69591825818088
 31
0.0
  0
LINE
  5
B9
  8
1
 62
     7
 10
-93.516310072584488
 20
-753.93416879609629
 30
0.0
 11
-93.516310072584488
 21
-755.82997564634002
 31
0.0
  0
LINE
  5
BA
  8
1
 62
     7
 10
-94.016310072584488
 20
-753.9907990988147
 30
0.0
 11
-94.016310072584488
 21
-755.82997564634002
 31
0.0
  0
LINE
  5
BB
  8
1
 62
     7
 10
-93.016310072584474
 20
-755.82997564634002
 30
0.0
 11
-93.016310072584474
 21
-753.9907990988147
 31
0.0
  0
LINE
  5
BC
  8
1
 62
     7
 10
-94.716310072584506
 20
-755.82997564634013
 30
0.0
 11
-94.716310072584506
 21
-780.09591825818086
 31
0.0
  0
LINE
  5
BD
  8
1
 62
     7
 10
-94.716310072584506
 20
-755.82997564634013
 30
0.0
 11
-92.316310072584486
 21
-755.82997564634002
 31
0.0
  0
LINE
  5
BE
  8
1
 62
     7
 10
-92.316310072584486
 20
-755.82997564634002
 30
0.0
 11
-92.316310072584486
 21
-780.09591825818086
 31
0.0
  0
LINE
  5
BF
  8
1
 62
     7
 10
-59.616310072584611
 20
-901.945918258181
 30
0.0
 11
-57.016310072584602
 21
-901.945918258181
 31
0.0
  0
LINE
  5
C0
  8
1
 62
     7
 10
-60.616310072584582
 20
-894.945918258181
 30
0.0
 11
-61.416310072584601
 21
-899.70979498665986
 31
0.0
  0
LINE
  5
C1
  8
1
 62
     7
 10
-59.616310072584611
 20
-895.03340692170673
 30
0.0
 11
-60.416310072584601
 21
-899.79728365018559
 31
0.0
  0
LINE
  5
C2
  8
1
 62
     7
 10
-56.316310072584571
 20
-790.945918258181
 30
0.0
 11
-56.316310072584571
 21
-808.945918258181
 31
0.0
  0
LINE
  5
C3
  8
1
 62
     7
 10
-56.316310072584571
 20
-808.945918258181
 30
0.0
 11
-55.016310072584602
 21
-808.945918258181
 31
0.0
  0
LINE
  5
C4
  8
1
 62
     7
 10
-56.316310072584571
 20
-790.945918258181
 30
0.0
 11
-55.016310072584602
 21
-790.945918258181
 31
0.0
  0
LINE
  5
C5
  8
1
 62
     7
 10
-57.016310072584602
 20
-806.94591825818088
 30
0.0
 11
-56.316310072584571
 21
-806.94591825818088
 31
0.0
  0
LINE
  5
C6
  8
1
 62
     7
 10
-57.016310072584602
 20
-792.94591825818088
 30
0.0
 11
-56.316310072584571
 21
-792.94591825818088
 31
0.0
  0
LINE
  5
C7
  8
1
 62
     7
 10
-60.616310072584596
 20
-788.945918258181
 30
0.0
 11
-59.616310072584611
 21
-788.945918258181
 31
0.0
  0
LINE
  5
C8
  8
1
 62
     7
 10
-66.316310072584599
 20
-779.44591825818088
 30
0.0
 11
-66.316310072584599
 21
-915.44591825818134
 31
0.0
  0
LINE
  5
C9
  8
1
 62
     7
 10
-66.316310072584599
 20
-779.44591825818088
 30
0.0
 11
-61.416310072584587
 21
-779.44591825818088
 31
0.0
  0
LINE
  5
CA
  8
1
  6
DASHDOT
 62
     3
 10
-28.01631007258457
 20
-847.445918258181
 30
0.0
 11
-35.016310072584567
 21
-847.445918258181
 31
0.0
  0
LINE
  5
CB
  8
1
 62
     7
 10
-59.616310072584611
 20
-784.945918258181
 30
0.0
 11
-59.616310072584611
 21
-901.945918258181
 31
0.0
  0
LINE
  5
CC
  8
1
 62
     7
 10
-35.016310072584567
 20
-782.445918258181
 30
0.0
 11
-55.016310072584602
 21
-782.445918258181
 31
0.0
  0
LINE
  5
CD
  8
1
 62
     7
 10
-55.016310072584602
 20
-782.445918258181
 30
0.0
 11
-55.016310072584602
 21
-884.945918258181
 31
0.0
  0
LINE
  5
CE
  8
1
 62
     7
 10
-35.016310072584567
 20
-782.445918258181
 30
0.0
 11
-35.016310072584567
 21
-884.945918258181
 31
0.0
  0
LINE
  5
CF
  8
1
 62
     7
 10
-55.016310072584602
 20
-884.945918258181
 30
0.0
 11
-53.456310072584593
 21
-884.945918258181
 31
0.0
  0
LINE
  5
D0
  8
1
 62
     7
 10
-50.456310072584593
 20
-887.94591825818088
 30
0.0
 11
-50.456310072584593
 21
-889.05907591663129
 31
0.0
  0
LINE
  5
D1
  8
1
 62
     7
 10
-47.456310072584593
 20
-892.05907591663117
 30
0.0
 11
-43.016310072584588
 21
-892.05907591663117
 31
0.0
  0
LINE
  5
D2
  8
1
 62
     7
 10
-40.016310072584567
 20
-889.05907591663129
 30
0.0
 11
-40.016310072584567
 21
-887.94591825818088
 31
0.0
  0
LINE
  5
D3
  8
1
 62
     7
 10
-37.016310072584567
 20
-884.945918258181
 30
0.0
 11
-35.016310072584567
 21
-884.945918258181
 31
0.0
  0
LINE
  5
D4
  8
1
 62
     7
 10
-57.016310072584602
 20
-784.945918258181
 30
0.0
 11
-59.616310072584611
 21
-784.945918258181
 31
0.0
  0
LINE
  5
D5
  8
1
 62
     7
 10
-57.016310072584602
 20
-784.945918258181
 30
0.0
 11
-57.016310072584602
 21
-902.00549282254042
 31
0.0
  0
LINE
  5
D6
  8
1
 62
     7
 10
-61.416310072584587
 20
-779.44591825818088
 30
0.0
 11
-61.416310072584587
 21
-915.44591825818134
 31
0.0
  0
LINE
  5
D7
  8
1
 62
     7
 10
-60.616310072584582
 20
-894.945918258181
 30
0.0
 11
-60.616310072584596
 21
-788.945918258181
 31
0.0
  0
LINE
  5
D8
  8
1
 62
     7
 10
-61.416310072584587
 20
-894.945918258181
 30
0.0
 11
-60.616310072584582
 21
-894.945918258181
 31
0.0
  0
LINE
  5
D9
  8
1
 62
     7
 10
-59.616310072584611
 20
-895.03340692170673
 30
0.0
 11
-59.616310072584582
 21
-863.445918258181
 31
0.0
  0
LINE
  5
DA
  8
1
 62
     7
 10
-60.416310072584601
 20
-899.79728365018559
 30
0.0
 11
-60.416310072584587
 21
-914.445918258181
 31
0.0
  0
LINE
  5
DB
  8
1
 62
     7
 10
-61.416310072584587
 20
-915.44591825818134
 30
0.0
 11
-66.316310072584599
 21
-915.44591825818134
 31
0.0
  0
LINE
  5
DC
  8
1
 62
     7
 10
-61.416310072584587
 20
-914.445918258181
 30
0.0
 11
-60.416310072584587
 21
-914.445918258181
 31
0.0
  0
LINE
  5
DD
  8
1
 62
     7
 10
-61.416310072584587
 20
-799.94591825818088
 30
0.0
 11
-60.616310072584596
 21
-799.94591825818088
 31
0.0
  0
LINE
  5
DE
  8
1
  6
DASHDOT
 62
     3
 10
207.55966958930961
 20
-847.445918258181
 30
0.0
 11
197.8270336374587
 21
-847.445918258181
 31
0.0
  0
LINE
  5
DF
  8
1
 62
     7
 10
225.83450678475651
 20
-751.25669206582927
 30
0.0
 11
218.59881417706171
 21
-778.2606645056967
 31
0.0
  0
LINE
  5
E0
  8
1
 62
     7
 10
230.66413591620201
 20
-752.55078729134186
 30
0.0
 11
223.42844330850701
 21
-779.5547597312094
 31
0.0
  0
LINE
  5
E1
  8
1
  6
DASHDOT
 62
     3
 10
238.95866462794459
 20
-847.445918258181
 30
0.0
 11
228.64887175696651
 21
-847.445918258181
 31
0.0
  0
LINE
  5
E2
  8
1
  6
DASHDOT
 62
     3
 10
176.64887175696651
 20
-847.445918258181
 30
0.0
 11
166.0427060027537
 21
-847.445918258181
 31
0.0
  0
LINE
  5
E3
  8
1
  6
DASHDOT
 62
     3
 10
202.64887175696651
 20
-771.11333685506702
 30
0.0
 11
202.64887175696651
 21
-767.82945094284514
 31
0.0
  0
LINE
  5
E4
  8
1
  6
DASHDOT
 62
     3
 10
201.11896434613459
 20
-769.445918258181
 30
0.0
 11
204.36074915691859
 21
-769.445918258181
 31
0.0
  0
LINE
  5
E5
  8
1
  6
DASHDOT
 62
     3
 10
202.64887175696651
 20
-852.95358749388311
 30
0.0
 11
202.64887175696651
 21
-842.32112453652303
 31
0.0
  0
LINE
  5
E6
  8
1
 62
     7
 10
63.858689927415213
 20
-885.44591825818088
 30
0.0
 11
66.458689927415207
 21
-885.44591825818088
 31
0.0
  0
LINE
  5
E7
  8
1
 62
     7
 10
63.858689927415213
 20
-901.945918258181
 30
0.0
 11
66.458689927415207
 21
-901.945918258181
 31
0.0
  0
LINE
  5
E8
  8
1
 62
     7
 10
62.858689927415227
 20
-894.945918258181
 30
0.0
 11
62.058689927415202
 21
-899.70979498665986
 31
0.0
  0
LINE
  5
E9
  8
1
 62
     7
 10
63.858689927415213
 20
-895.03340692170673
 30
0.0
 11
63.058689927415202
 21
-899.79728365018559
 31
0.0
  0
LINE
  5
EA
  8
1
 62
     7
 10
78.458689927415222
 20
-869.44591825818122
 30
0.0
 11
68.458689927415207
 21
-869.44591825818122
 31
0.0
  0
LINE
  5
EB
  8
1
 62
     7
 10
68.458689927415207
 20
-866.445918258181
 30
0.0
 11
68.458689927415207
 21
-884.945918258181
 31
0.0
  0
LINE
  5
EC
  8
1
 62
     7
 10
78.458689927415193
 20
-873.44591825818134
 30
0.0
 11
88.458689927415236
 21
-873.44591825818134
 31
0.0
  0
LINE
  5
ED
  8
1
 62
     7
 10
66.458689927415207
 20
-902.00549282254042
 30
0.0
 11
66.458689927415207
 21
-866.445918258181
 31
0.0
  0
LINE
  5
EE
  8
1
 62
     7
 10
57.15868992741521
 20
-880.44591825818145
 30
0.0
 11
62.858689927415199
 21
-880.44591825818145
 31
0.0
  0
LINE
  5
EF
  8
1
 62
     7
 10
68.458689927415207
 20
-782.445918258181
 30
0.0
 11
68.458689927415207
 21
-828.44591825818088
 31
0.0
  0
LINE
  5
F0
  8
1
 62
     7
 10
68.458689927415207
 20
-825.44591825818088
 30
0.0
 11
78.458689927415222
 21
-825.44591825818088
 31
0.0
  0
LINE
  5
F1
  8
1
  6
DASHDOT
 62
     3
 10
65.535123628684943
 20
-878.44591825818111
 30
0.0
 11
90.310336165763417
 21
-878.44591825818111
 31
0.0
  0
LINE
  5
F2
  8
1
 62
     7
 10
78.458689927415222
 20
-821.445918258181
 30
0.0
 11
78.458689927415193
 21
-873.44591825818134
 31
0.0
  0
LINE
  5
F3
  8
1
 62
     7
 10
88.458689927415236
 20
-821.445918258181
 30
0.0
 11
78.458689927415222
 21
-821.445918258181
 31
0.0
  0
LINE
  5
F4
  8
1
 62
     7
 10
67.158689927415224
 20
-790.945918258181
 30
0.0
 11
67.158689927415224
 21
-808.945918258181
 31
0.0
  0
LINE
  5
F5
  8
1
 62
     7
 10
67.158689927415224
 20
-808.945918258181
 30
0.0
 11
68.458689927415207
 21
-808.945918258181
 31
0.0
  0
LINE
  5
F6
  8
1
 62
     7
 10
67.158689927415224
 20
-790.945918258181
 30
0.0
 11
68.458689927415207
 21
-790.945918258181
 31
0.0
  0
LINE
  5
F7
  8
1
 62
     7
 10
66.458689927415207
 20
-806.94591825818088
 30
0.0
 11
67.158689927415224
 21
-806.94591825818088
 31
0.0
  0
LINE
  5
F8
  8
1
 62
     7
 10
66.458689927415207
 20
-792.94591825818088
 30
0.0
 11
67.158689927415224
 21
-792.94591825818088
 31
0.0
  0
LINE
  5
F9
  8
1
 62
     7
 10
62.858689927415199
 20
-808.945918258181
 30
0.0
 11
63.858689927415213
 21
-808.945918258181
 31
0.0
  0
LINE
  5
FA
  8
1
 62
     7
 10
62.858689927415199
 20
-788.945918258181
 30
0.0
 11
63.858689927415213
 21
-788.945918258181
 31
0.0
  0
LINE
  5
FB
  8
1
 62
     7
 10
57.15868992741521
 20
-779.44591825818088
 30
0.0
 11
57.15868992741521
 21
-828.44591825818088
 31
0.0
  0
LINE
  5
FC
  8
1
 62
     7
 10
57.15868992741521
 20
-779.44591825818088
 30
0.0
 11
62.058689927415209
 21
-779.44591825818088
 31
0.0
  0
LINE
  5
FD
  8
1
  6
DASHDOT
 62
     3
 10
95.458689927415236
 20
-847.445918258181
 30
0.0
 11
88.458689927415236
 21
-847.445918258181
 31
0.0
  0
LINE
  5
FE
  8
1
 62
     7
 10
56.458689927415207
 20
-831.445918258181
 30
0.0
 11
78.458689927415222
 21
-831.445918258181
 31
0.0
  0
LINE
  5
FF
  8
1
 62
     7
 10
78.458689927415193
 20
-863.445918258181
 30
0.0
 11
56.458689927415222
 21
-863.445918258181
 31
0.0
  0
LINE
  5
100
  8
1
 62
     7
 10
57.15868992741521
 20
-866.445918258181
 30
0.0
 11
57.15868992741521
 21
-915.44591825818134
 31
0.0
  0
LINE
  5
101
  8
1
 62
     7
 10
62.858689927415199
 20
-866.445918258181
 30
0.0
 11
62.858689927415227
 21
-894.945918258181
 31
0.0
  0
LINE
  5
102
  8
1
 62
     7
 10
63.85868992741522
 20
-866.445918258181
 30
0.0
 11
63.858689927415213
 21
-901.945918258181
 31
0.0
  0
LINE
  5
103
  8
1
 62
     7
 10
186.54493052840729
 20
-786.11244735124785
 30
0.0
 11
141.480557235009
 21
-864.16623150666373
 31
0.0
  0
LINE
  5
104
  8
1
 62
     7
 10
157.58449846356811
 20
-892.05907591663117
 30
0.0
 11
247.713245050365
 21
-892.05907591663117
 31
0.0
  0
LINE
  5
105
  8
1
 62
     7
 10
263.81718627892388
 20
-864.16623150666373
 30
0.0
 11
218.75281298552551
 21
-786.11244735124785
 31
0.0
  0
LINE
  5
106
  8
1
 62
     7
 10
88.458689927415236
 20
-782.445918258181
 30
0.0
 11
68.458689927415207
 21
-782.445918258181
 31
0.0
  0
LINE
  5
107
  8
1
 62
     7
 10
88.458689927415236
 20
-782.445918258181
 30
0.0
 11
88.458689927415236
 21
-884.945918258181
 31
0.0
  0
LINE
  5
108
  8
1
 62
     7
 10
68.458689927415207
 20
-884.945918258181
 30
0.0
 11
70.018689927415195
 21
-884.945918258181
 31
0.0
  0
LINE
  5
109
  8
1
 62
     7
 10
73.018689927415195
 20
-887.94591825818088
 30
0.0
 11
73.018689927415195
 21
-889.05907591663129
 31
0.0
  0
LINE
  5
10A
  8
1
 62
     7
 10
76.018689927415195
 20
-892.05907591663117
 30
0.0
 11
80.458689927415236
 21
-892.05907591663117
 31
0.0
  0
LINE
  5
10B
  8
1
 62
     7
 10
83.458689927415236
 20
-889.05907591663129
 30
0.0
 11
83.458689927415236
 21
-887.94591825818088
 31
0.0
  0
LINE
  5
10C
  8
1
 62
     7
 10
86.458689927415236
 20
-884.945918258181
 30
0.0
 11
88.458689927415236
 21
-884.945918258181
 31
0.0
  0
LINE
  5
10D
  8
1
 62
     7
 10
196.64887175696651
 20
-763.44591825818088
 30
0.0
 11
208.64887175696651
 21
-763.44591825818088
 31
0.0
  0
LINE
  5
10E
  8
1
 62
     7
 10
210.64887175696651
 20
-765.445918258181
 30
0.0
 11
210.64887175696651
 21
-776.89806216035186
 31
0.0
  0
LINE
  5
10F
  8
1
 62
     7
 10
194.64887175696651
 20
-765.445918258181
 30
0.0
 11
194.64887175696651
 21
-776.89806216035186
 31
0.0
  0
LINE
  5
110
  8
1
  6
DASHDOT
 62
     3
 10
220.60819782331509
 20
-816.33945304156896
 30
0.0
 11
215.6488717569664
 21
-824.92925775978586
 31
0.0
  0
LINE
  5
111
  8
1
  6
DASHDOT
 62
     3
 10
215.15916111084999
 20
-869.1143750364954
 30
0.0
 11
220.31034403573571
 21
-878.03648558147859
 31
0.0
  0
LINE
  5
112
  8
1
  6
DASHDOT
 62
     3
 10
185.0197013610364
 20
-816.911299437141
 30
0.0
 11
189.21995479075031
 21
-824.18635178207114
 31
0.0
  0
LINE
  5
113
  8
1
  6
DASHDOT
 62
     3
 10
189.0892964944438
 20
-870.93179154192433
 30
0.0
 11
184.87494370352451
 21
-878.23126469681608
 31
0.0
  0
LINE
  5
114
  8
1
 62
     7
 10
68.458689927415207
 20
-875.14591825818093
 30
0.0
 11
88.458689927415236
 21
-875.14591825818093
 31
0.0
  0
LINE
  5
115
  8
1
 62
     7
 10
68.458689927415207
 20
-881.74591825818095
 30
0.0
 11
88.458689927415236
 21
-881.74591825818095
 31
0.0
  0
LINE
  5
116
  8
1
 62
     7
 10
66.458689927415207
 20
-784.945918258181
 30
0.0
 11
63.858689927415213
 21
-784.945918258181
 31
0.0
  0
LINE
  5
117
  8
1
 62
     7
 10
63.858689927415213
 20
-784.945918258181
 30
0.0
 11
63.858689927415213
 21
-828.44591825818088
 31
0.0
  0
LINE
  5
118
  8
1
 62
     7
 10
66.458689927415207
 20
-784.945918258181
 30
0.0
 11
66.458689927415207
 21
-828.44591825818088
 31
0.0
  0
LINE
  5
119
  8
1
 62
     7
 10
225.83450678475651
 20
-751.25669206582927
 30
0.0
 11
230.66413591620201
 21
-752.55078729134186
 31
0.0
  0
LINE
  5
11A
  8
1
 62
     7
 10
221.0250239592454
 20
-778.86518459165723
 30
0.0
 11
228.24932135047931
 21
-751.90373967858545
 31
0.0
  0
LINE
  5
11B
  8
1
 62
     7
 10
227.2833955241901
 20
-751.6449206334828
 30
0.0
 11
228.5774907497028
 21
-746.81529150203755
 31
0.0
  0
LINE
  5
11C
  8
1
 62
     7
 10
229.2152471767684
 20
-752.16255872368788
 30
0.0
 11
230.50934240228099
 21
-747.33292959224264
 31
0.0
  0
LINE
  5
11D
  8
1
 62
     7
 10
226.99361777630341
 20
-751.56727491995196
 30
0.0
 11
228.28771300181589
 21
-746.73764578850682
 31
0.0
  0
LINE
  5
11E
  8
1
 62
     7
 10
226.70384002841661
 20
-751.48962920642123
 30
0.0
 11
227.99793525392911
 21
-746.66000007497598
 31
0.0
  0
LINE
  5
11F
  8
1
 62
     7
 10
227.5731732720769
 20
-751.72256634701375
 30
0.0
 11
228.86726849758961
 21
-746.89293721556828
 31
0.0
  0
LINE
  5
120
  8
1
 62
     7
 10
228.92546942888151
 20
-752.08491301015727
 30
0.0
 11
230.21956465439419
 21
-747.25528387871157
 31
0.0
  0
LINE
  5
121
  8
1
 62
     7
 10
229.50502492465489
 20
-752.24020443721861
 30
0.0
 11
230.79912015016751
 21
-747.41057530577336
 31
0.0
  0
LINE
  5
122
  8
1
 62
     7
 10
229.79480267254161
 20
-752.31785015074945
 30
0.0
 11
231.08889789805431
 21
-747.48822101930421
 31
0.0
  0
LINE
  5
123
  8
1
 62
     7
 10
172.05475467540981
 20
-901.945918258181
 30
0.0
 11
233.2429888385231
 21
-901.945918258181
 31
0.0
  0
LINE
  5
124
  8
1
 62
     7
 10
265.14431480399691
 20
-846.69120085716429
 30
0.0
 11
234.55019772244009
 21
-793.70063565919747
 31
0.0
  0
LINE
  5
125
  8
1
 62
     7
 10
170.747545791493
 20
-793.70063565919747
 30
0.0
 11
140.15342870993621
 21
-846.69120085716429
 31
0.0
  0
LINE
  5
126
  8
1
 62
     7
 10
62.058689927415209
 20
-779.44591825818088
 30
0.0
 11
62.058689927415209
 21
-799.94591825818088
 31
0.0
  0
LINE
  5
127
  8
1
 62
     7
 10
62.858689927415199
 20
-814.445918258181
 30
0.0
 11
57.15868992741521
 21
-814.445918258181
 31
0.0
  0
LINE
  5
128
  8
1
 62
     7
 10
62.858689927415199
 20
-828.44591825818088
 30
0.0
 11
62.858689927415199
 21
-788.945918258181
 31
0.0
  0
LINE
  5
129
  8
1
 62
     7
 10
62.058689927415209
 20
-915.44591825818134
 30
0.0
 11
62.058689927415209
 21
-894.945918258181
 31
0.0
  0
LINE
  5
12A
  8
1
 62
     7
 10
62.058689927415209
 20
-894.945918258181
 30
0.0
 11
62.858689927415227
 21
-894.945918258181
 31
0.0
  0
LINE
  5
12B
  8
1
 62
     7
 10
63.858689927415213
 20
-895.03340692170673
 30
0.0
 11
63.85868992741522
 21
-866.445918258181
 31
0.0
  0
LINE
  5
12C
  8
1
 62
     7
 10
63.058689927415202
 20
-899.79728365018559
 30
0.0
 11
63.058689927415223
 21
-914.445918258181
 31
0.0
  0
LINE
  5
12D
  8
1
 62
     7
 10
62.058689927415209
 20
-915.44591825818134
 30
0.0
 11
57.15868992741521
 21
-915.44591825818134
 31
0.0
  0
LINE
  5
12E
  8
1
 62
     7
 10
62.058689927415209
 20
-914.445918258181
 30
0.0
 11
63.058689927415223
 21
-914.445918258181
 31
0.0
  0
LINE
  5
12F
  8
1
 62
     7
 10
63.858689927415213
 20
-809.44591825818088
 30
0.0
 11
66.458689927415207
 21
-809.44591825818088
 31
0.0
  0
LINE
  5
130
  8
1
 62
     7
 10
62.058689927415209
 20
-799.94591825818088
 30
0.0
 11
62.858689927415199
 21
-799.94591825818088
 31
0.0
  0
ARC
  5
131
  8
1
 62
     7
 10
-98.016330856956159
 20
-907.7958975453148
 30
0.0
 40
7.0000207128969958
 50
179.8027132409423
 51
270.00017012189301
  0
ARC
  5
132
  8
1
 62
     7
 10
25.458669143043711
 20
-907.7958975453148
 30
0.0
 40
7.0000207128970526
 50
179.8027132409423
 51
270.00017012189272
  0
ARC
  5
133
  8
1
 62
     7
 10
-248.7397385144298
 20
-789.09977346145649
 30
0.0
 40
7.9999999999999591
 50
285.33498679390061
 51
0.0
  0
ARC
  5
134
  8
1
 62
     7
 10
-216.7397385144298
 20
-789.09977346145649
 30
0.0
 40
8.0
 50
180.0
 51
254.66501320609859
  0
ARC
  5
135
  8
1
 62
     7
 10
-98.016310072584503
 20
-787.09591825818097
 30
0.0
 40
7.0
 50
90.0
 51
180.0
  0
ARC
  5
136
  8
1
 62
     7
 10
25.45868992741531
 20
-787.09591825818097
 30
0.0
 40
7.0
 50
90.0
 51
180.0
  0
ARC
  5
137
  8
1
 62
     7
 10
25.45868992741531
 20
-806.94591825818088
 30
0.0
 40
7.0
 50
180.0
 51
248.21321070173821
  0
ARC
  5
138
  8
1
 62
     7
 10
25.45868992741531
 20
-887.94591825818088
 30
0.0
 40
6.9999999999999956
 50
111.7867892982617
 51
180.0
  0
ARC
  5
139
  8
1
 62
     7
 10
-226.73973851442989
 20
-765.445918258181
 30
0.0
 40
2.0
 50
0.0
 51
90.0
  0
ARC
  5
13A
  8
1
 62
     7
 10
-238.73973851442989
 20
-765.445918258181
 30
0.0
 40
2.0
 50
90.0
 51
180.0
  0
ARC
  5
13B
  8
1
 62
     7
 10
-232.73973851442989
 20
-847.445918258181
 30
0.0
 40
71.000000000000028
 50
107.0178741429602
 51
83.530398389657364
  0
ARC
  5
13C
  8
1
 62
     7
 10
-232.73973851442989
 20
-847.445918258181
 30
0.0
 40
52.500186881036541
 50
105.33498679390119
 51
74.665013206098891
  0
ARC
  5
13D
  8
1
 62
     7
 10
-232.73973851442989
 20
-847.445918258181
 30
0.0
 40
12.50000000000002
 50
108.6629248849424
 51
71.337075115057559
  0
ARC
  5
13E
  8
1
 62
     7
 10
-232.73973851442989
 20
-847.445918258181
 30
0.0
 40
67.34999999999998
 50
96.821841234133871
 51
83.178158765866115
  0
ARC
  5
13F
  8
1
 62
     7
 10
-232.73973851442989
 20
-847.445918258181
 30
0.0
 40
70.999999999999929
 50
96.46960161034265
 51
102.98212585704
  0
ARC
  5
140
  8
1
 62
     7
 10
170.68067047269341
 20
-805.80118141607579
 30
0.0
 40
14.999999999999931
 50
307.51131702019501
 51
10.37919268493232
  0
ARC
  5
141
  8
1
 62
     7
 10
202.64887175696651
 20
-799.94591825818088
 30
0.0
 40
17.499999999999929
 50
349.6208073150683
 51
190.3791926849315
  0
ARC
  5
142
  8
1
 62
     7
 10
234.61707304123951
 20
-805.80118141607579
 30
0.0
 40
15.00000000000003
 50
169.62080731506759
 51
232.48868297980459
  0
ARC
  5
143
  8
1
 62
     7
 10
202.64887175696651
 20
-847.445918258181
 30
0.0
 40
37.499999999999979
 50
7.5113170201952659
 51
52.488682979804672
  0
ARC
  5
144
  8
1
 62
     7
 10
190.87505754732939
 20
-788.61244735124785
 30
0.0
 40
5.0000000000000311
 50
101.31659956574519
 51
150.0
  0
ARC
  5
145
  8
1
 62
     7
 10
202.64887175696651
 20
-847.445918258181
 30
0.0
 40
65.0
 50
78.68340043425448
 51
101.31659956574561
  0
ARC
  5
146
  8
1
 62
     7
 10
214.4226859666033
 20
-788.61244735124785
 30
0.0
 40
4.999999999999992
 50
30.00000000000005
 51
78.683400434254722
  0
ARC
  5
147
  8
1
 62
     7
 10
145.8106842539311
 20
-866.66623150666385
 30
0.0
 40
5.000000000000016
 50
150.0
 51
198.6834004342542
  0
ARC
  5
148
  8
1
 62
     7
 10
247.713245050365
 20
-887.05907591663129
 30
0.0
 40
5.0
 50
270.0
 51
318.6834004342532
  0
ARC
  5
149
  8
1
 62
     7
 10
157.58449846356811
 20
-887.05907591663129
 30
0.0
 40
5.0000000000001359
 50
221.3165995657447
 51
270.0
  0
ARC
  5
14A
  8
1
 62
     7
 10
259.48705926000179
 20
-866.66623150666385
 30
0.0
 40
5.000000000000048
 50
341.31659956574572
 51
29.99999999999989
  0
ARC
  5
14B
  8
1
 62
     7
 10
182.56757235992211
 20
-895.95356110470846
 30
0.0
 40
14.99999999999995
 50
67.51131702019542
 51
130.37919268493189
  0
ARC
  5
14C
  8
1
 62
     7
 10
254.69837243828391
 20
-840.58301225375885
 30
0.0
 40
14.999999999999959
 50
187.51131702019521
 51
250.37919268493201
  0
ARC
  5
14D
  8
1
 62
     7
 10
150.599371075649
 20
-840.58301225375874
 30
0.0
 40
15.00000000000006
 50
289.62080731506779
 51
352.48868297980431
  0
ARC
  5
14E
  8
1
 62
     7
 10
222.73017115401069
 20
-895.95356110470846
 30
0.0
 40
15.000000000000011
 50
49.6208073150679
 51
112.48868297980449
  0
ARC
  5
14F
  8
1
 62
     7
 10
202.64887175696651
 20
-847.445918258181
 30
0.0
 40
37.5
 50
127.51131702019551
 51
172.48868297980471
  0
ARC
  5
150
  8
1
 62
     7
 10
161.51266507720561
 20
-871.19591825818088
 30
0.0
 40
17.5
 50
109.6208073150684
 51
310.3791926849317
  0
ARC
  5
151
  8
1
 62
     7
 10
202.64887175696651
 20
-847.445918258181
 30
0.0
 40
37.500000000000071
 50
247.51131702019509
 51
292.48868297980471
  0
ARC
  5
152
  8
1
 62
     7
 10
243.78507843672719
 20
-871.19591825818088
 30
0.0
 40
17.499999999999989
 50
229.6208073150685
 51
70.379192684931624
  0
ARC
  5
153
  8
1
 62
     7
 10
202.64887175696651
 20
-847.445918258181
 30
0.0
 40
65.000000000000071
 50
198.68340043425439
 51
221.31659956574549
  0
ARC
  5
154
  8
1
 62
     7
 10
202.64887175696651
 20
-847.445918258181
 30
0.0
 40
65.000000000000043
 50
318.68340043425428
 51
341.31659956574538
  0
ARC
  5
155
  8
1
  6
DASHDOT
 62
     3
 10
202.64887175696651
 20
-847.445918258181
 30
0.0
 40
31.000000000000011
 50
47.3079868365256
 51
69.860022397827478
  0
ARC
  5
156
  8
1
  6
DASHDOT
 62
     3
 10
202.64887175696651
 20
-847.445918258181
 30
0.0
 40
30.999999999999879
 50
110.7549600389418
 51
129.55802068868451
  0
ARC
  5
157
  8
1
  6
DASHDOT
 62
     3
 10
202.64887175696651
 20
-847.445918258181
 30
0.0
 40
31.000000000000011
 50
169.62676599304359
 51
190.974298583321
  0
ARC
  5
158
  8
1
  6
DASHDOT
 62
     3
 10
202.64887175696651
 20
-847.445918258181
 30
0.0
 40
31.000000000000039
 50
228.93850309735441
 51
249.92410591207829
  0
ARC
  5
159
  8
1
  6
DASHDOT
 62
     3
 10
202.64887175696651
 20
-847.445918258181
 30
0.0
 40
31.0
 50
288.79334036844762
 51
310.54766451512182
  0
ARC
  5
15A
  8
1
  6
DASHDOT
 62
     3
 10
202.64887175696651
 20
-847.445918258181
 30
0.0
 40
30.99999999999994
 50
347.57613821593549
 51
9.9043925367084444
  0
ARC
  5
15B
  8
1
 62
     7
 10
202.64887175696651
 20
-847.445918258181
 30
0.0
 40
62.5
 50
299.30810923552531
 51
314.45419820605218
  0
ARC
  5
15C
  8
1
 62
     7
 10
202.64887175696651
 20
-847.445918258181
 30
0.0
 40
62.500000000000028
 50
225.54580179394759
 51
240.69189076447461
  0
ARC
  5
15D
  8
1
 62
     7
 10
202.64887175696651
 20
-847.445918258181
 30
0.0
 40
62.500000000000021
 50
345.5458017939477
 51
0.6918907644745569
  0
ARC
  5
15E
  8
1
 62
     7
 10
202.64887175696651
 20
-847.445918258181
 30
0.0
 40
62.499999999999929
 50
105.5458017939476
 51
120.69189076447449
  0
ARC
  5
15F
  8
1
 62
     7
 10
202.64887175696651
 20
-847.445918258181
 30
0.0
 40
62.500000000000071
 50
59.30810923552535
 51
74.454198206052283
  0
ARC
  5
160
  8
1
 62
     7
 10
202.64887175696651
 20
-847.445918258181
 30
0.0
 40
62.499999999999957
 50
179.30810923552551
 51
194.45419820605241
  0
ARC
  5
161
  8
1
 62
     7
 10
184.14887175696651
 20
-879.48885819820521
 30
0.0
 40
29.999999999999961
 50
204.66909656042111
 51
240.0
  0
ARC
  5
162
  8
1
 62
     7
 10
202.64887175696651
 20
-847.445918258181
 30
0.0
 40
66.999999999999943
 50
239.99999999999989
 51
300.00000000000011
  0
ARC
  5
163
  8
1
 62
     7
 10
221.14887175696651
 20
-879.48885819820521
 30
0.0
 40
29.99999999999994
 50
300.00000000000028
 51
335.33090343957912
  0
ARC
  5
164
  8
1
 62
     7
 10
221.1488717569666
 20
-815.40297831815667
 30
0.0
 40
29.999999999999961
 50
60.000000000000149
 51
95.330903439579004
  0
ARC
  5
165
  8
1
 62
     7
 10
165.6488717569666
 20
-847.445918258181
 30
0.0
 40
30.000000000000089
 50
180.0
 51
215.33090343957889
  0
ARC
  5
166
  8
1
 62
     7
 10
202.64887175696651
 20
-847.445918258181
 30
0.0
 40
67.0
 50
0.0
 51
60.0
  0
ARC
  5
167
  8
1
 62
     7
 10
202.64887175696651
 20
-847.445918258181
 30
0.0
 40
66.999999999999943
 50
119.9999999999999
 51
180.0
  0
ARC
  5
168
  8
1
 62
     7
 10
239.64887175696651
 20
-847.445918258181
 30
0.0
 40
30.000000000000028
 50
324.66909656042122
 51
0.0
  0
ARC
  5
169
  8
1
 62
     7
 10
184.14887175696651
 20
-815.40297831815667
 30
0.0
 40
30.00000000000005
 50
84.669096560421053
 51
119.9999999999999
  0
CIRCLE
  5
16A
  8
1
 62
     7
 10
30.45868992741531
 20
-874.445918258181
 30
0.0
 40
4.1999999999999984
  0
CIRCLE
  5
16B
  8
1
 62
     7
 10
30.45868992741531
 20
-820.445918258181
 30
0.0
 40
4.1999999999999984
  0
CIRCLE
  5
16C
  8
1
 62
     7
 10
-232.73973851442989
 20
-769.445918258181
 30
0.0
 40
3.25
  0
CIRCLE
  5
16D
  8
1
 62
     7
 10
-232.73973851442989
 20
-847.445918258181
 30
0.0
 40
30.75
  0
CIRCLE
  5
16E
  8
1
 62
     7
 10
-232.73973851442989
 20
-847.445918258181
 30
0.0
 40
22.501778378318679
  0
CIRCLE
  5
16F
  8
1
 62
     7
 10
202.64887175696651
 20
-799.94591825818088
 30
0.0
 40
7.0
  0
CIRCLE
  5
170
  8
1
 62
     7
 10
202.64887175696651
 20
-799.94591825818088
 30
0.0
 40
11.0
  0
CIRCLE
  5
171
  8
1
 62
     7
 10
161.51266507720561
 20
-871.19591825818088
 30
0.0
 40
6.9999999999999831
  0
CIRCLE
  5
172
  8
1
 62
     7
 10
161.51266507720561
 20
-871.19591825818088
 30
0.0
 40
11.00000000000002
  0
CIRCLE
  5
173
  8
1
 62
     7
 10
243.78507843672719
 20
-871.19591825818088
 30
0.0
 40
7.0000000000000817
  0
CIRCLE
  5
174
  8
1
 62
     7
 10
243.78507843672719
 20
-871.19591825818088
 30
0.0
 40
11.00000000000002
  0
CIRCLE
  5
175
  8
1
 62
     7
 10
171.6488717569664
 20
-847.445918258181
 30
0.0
 40
3.2999999999999821
  0
CIRCLE
  5
176
  8
1
 62
     7
 10
233.6488717569664
 20
-847.445918258181
 30
0.0
 40
2.5
  0
CIRCLE
  5
177
  8
1
 62
     3
 10
233.6488717569664
 20
-847.445918258181
 30
0.0
 40
3.0
  0
CIRCLE
  5
178
  8
1
 62
     7
 10
187.14887175696651
 20
-820.59913074086319
 30
0.0
 40
2.500000000000008
  0
CIRCLE
  5
179
  8
1
 62
     3
 10
187.14887175696651
 20
-820.59913074086319
 30
0.0
 40
2.9999999999998521
  0
CIRCLE
  5
17A
  8
1
 62
     7
 10
187.14887175696651
 20
-874.29270577549858
 30
0.0
 40
2.500000000000008
  0
CIRCLE
  5
17B
  8
1
 62
     3
 10
187.14887175696651
 20
-874.29270577549858
 30
0.0
 40
3.000000000000048
  0
CIRCLE
  5
17C
  8
1
 62
     7
 10
218.14887175696651
 20
-874.29270577549858
 30
0.0
 40
3.2999999999999581
  0
CIRCLE
  5
17D
  8
1
 62
     7
 10
218.14887175696651
 20
-820.59913074086319
 30
0.0
 40
3.3000000000001561
  0
CIRCLE
  5
17E
  8
1
 62
     7
 10
202.64887175696651
 20
-847.445918258181
 30
0.0
 40
22.0
  0
CIRCLE
  5
17F
  8
1
 62
     7
 10
202.64887175696651
 20
-847.445918258181
 30
0.0
 40
26.0
  0
CIRCLE
  5
180
  8
1
 62
     7
 10
202.64887175696651
 20
-847.445918258181
 30
0.0
 40
12.5
  0
CIRCLE
  5
181
  8
1
 62
     7
 10
202.64887175696651
 20
-847.445918258181
 30
0.0
 40
16.0
  0
CIRCLE
  5
182
  8
1
 62
     7
 10
202.64887175696651
 20
-847.445918258181
 30
0.0
 40
70.999999999999901
  0
CIRCLE
  5
183
  8
1
 62
     7
 10
202.64887175696651
 20
-769.445918258181
 30
0.0
 40
3.25
  0
CIRCLE
  5
184
  8
1
 62
     7
 10
255.04340868592499
 20
-817.195918258181
 30
0.0
 40
6.0
  0
CIRCLE
  5
185
  8
1
 62
     7
 10
150.25433482800801
 20
-817.195918258181
 30
0.0
 40
6.0
  0
CIRCLE
  5
186
  8
1
 62
     7
 10
202.64887175696651
 20
-907.945918258181
 30
0.0
 40
6.0
  0
CIRCLE
  5
187
  8
1
 62
     7
 10
202.64887175696651
 20
-799.94591825818088
 30
0.0
 40
3.0
  0
CIRCLE
  5
188
  8
1
 62
     3
 10
202.64887175696651
 20
-799.94591825818088
 30
0.0
 40
2.5
  0
CIRCLE
  5
189
  8
1
 62
     7
 10
161.51266507720561
 20
-871.19591825818088
 30
0.0
 40
2.9999999999999512
  0
CIRCLE
  5
18A
  8
1
 62
     3
 10
161.51266507720561
 20
-871.19591825818088
 30
0.0
 40
2.500000000000008
  0
CIRCLE
  5
18B
  8
1
 62
     7
 10
243.78507843672719
 20
-871.19591825818088
 30
0.0
 40
3.000000000000048
  0
CIRCLE
  5
18C
  8
1
 62
     3
 10
243.78507843672719
 20
-871.19591825818088
 30
0.0
 40
2.500000000000008
  0
CIRCLE
  5
18D
  8
1
 62
     7
 10
202.64887175696651
 20
-847.445918258181
 30
0.0
 40
68.0
  0
ARC
  5
18E
  8
1
 62
     7
 10
-37.016310072584567
 20
-887.94591825818088
 30
0.0
 40
3.0
 50
90.0
 51
180.0
  0
ARC
  5
18F
  8
1
 62
     7
 10
-43.016310072584588
 20
-889.05907591663129
 30
0.0
 40
3.0
 50
270.0
 51
0.0
  0
ARC
  5
190
  8
1
 62
     7
 10
-47.456310072584593
 20
-889.05907591663129
 30
0.0
 40
3.0
 50
180.0
 51
270.0
  0
ARC
  5
191
  8
1
 62
     7
 10
-53.456310072584593
 20
-887.94591825818088
 30
0.0
 40
3.0
 50
0.0
 51
90.0
  0
ARC
  5
192
  8
1
 62
     7
 10
86.458689927415236
 20
-887.94591825818088
 30
0.0
 40
3.0
 50
90.0
 51
180.0
  0
ARC
  5
193
  8
1
 62
     7
 10
80.458689927415236
 20
-889.05907591663129
 30
0.0
 40
3.0
 50
270.0
 51
0.0
  0
ARC
  5
194
  8
1
 62
     7
 10
76.018689927415195
 20
-889.05907591663129
 30
0.0
 40
3.0
 50
180.0
 51
270.0
  0
ARC
  5
195
  8
1
 62
     7
 10
70.018689927415195
 20
-887.94591825818088
 30
0.0
 40
3.0
 50
0.0
 51
90.0
  0
ARC
  5
196
  8
1
 62
     7
 10
196.64887175696651
 20
-765.445918258181
 30
0.0
 40
2.0
 50
90.0
 51
180.0
  0
ARC
  5
197
  8
1
 62
     7
 10
208.64887175696651
 20
-765.445918258181
 30
0.0
 40
2.0
 50
0.0
 51
90.0
  0
TEXT
  5
199
  8
1
 62
     7
 10
-284.05821333834211
 20
-709.54039362536503
 30
0.0
 40
8.0
  1
VCEHA 5
 41
0.9
  7
SIMPLEX
  0
ENDSEC
  0
EOF
