  0
SECTION
  2
HEADER
  9
$ACADVER
  1
AC1009
  9
$INSBASE
 10
0.0
 20
0.0
 30
0.0
  9
$EXTMIN
 10
-125.5596181128567
 20
-56.499999999999957
 30
0.0
  9
$EXTMAX
 10
197.13463227242519
 20
122.7459845498056
 30
0.0
  9
$LIMMIN
 10
-125.5596181128567
 20
-56.499999999999957
  9
$LIMMAX
 10
194.48528587185001
 20
122.7459845498056
  9
$ORTHOMODE
 70
     0
  9
$REGENMODE
 70
     1
  9
$FILLMODE
 70
     1
  9
$QTEXTMODE
 70
     0
  9
$MIRRTEXT
 70
     1
  9
$DRAGMODE
 70
     2
  9
$LTSCALE
 40
1.0
  9
$OSMODE
 70
    37
  9
$ATTMODE
 70
     1
  9
$TEXTSIZE
 40
3.5
  9
$TRACEWID
 40
0.5
  9
$TEXTSTYLE
  7
STANDARD
  9
$CLAYER
  8
0
  9
$CELTYPE
  6
BYLAYER
  9
$CECOLOR
 62
   256
  9
$DIMSCALE
 40
1.0
  9
$DIMASZ
 40
0.18
  9
$DIMEXO
 40
0.0625
  9
$DIMDLI
 40
0.38
  9
$DIMRND
 40
0.0
  9
$DIMDLE
 40
0.0
  9
$DIMEXE
 40
0.18
  9
$DIMTP
 40
0.0
  9
$DIMTM
 40
0.0
  9
$DIMTXT
 40
0.18
  9
$DIMCEN
 40
0.09
  9
$DIMTSZ
 40
0.0
  9
$DIMTOL
 70
     0
  9
$DIMLIM
 70
     0
  9
$DIMTIH
 70
     1
  9
$DIMTOH
 70
     1
  9
$DIMSE1
 70
     0
  9
$DIMSE2
 70
     0
  9
$DIMTAD
 70
     0
  9
$DIMZIN
 70
     0
  9
$DIMBLK
  1

  9
$DIMASO
 70
     1
  9
$DIMSHO
 70
     1
  9
$DIMPOST
  1

  9
$DIMAPOST
  1

  9
$DIMALT
 70
     0
  9
$DIMALTD
 70
     2
  9
$DIMALTF
 40
25.399999999999999
  9
$DIMLFAC
 40
1.0
  9
$DIMTOFL
 70
     0
  9
$DIMTVP
 40
0.0
  9
$DIMTIX
 70
     0
  9
$DIMSOXD
 70
     0
  9
$DIMSAH
 70
     0
  9
$DIMBLK1
  1

  9
$DIMBLK2
  1

  9
$DIMSTYLE
  2
STANDARD
  9
$DIMCLRD
 70
     0
  9
$DIMCLRE
 70
     0
  9
$DIMCLRT
 70
     0
  9
$DIMTFAC
 40
1.0
  9
$DIMGAP
 40
0.09
  9
$LUNITS
 70
     2
  9
$LUPREC
 70
     4
  9
$SKETCHINC
 40
0.1
  9
$FILLETRAD
 40
2.0
  9
$AUNITS
 70
     0
  9
$AUPREC
 70
     0
  9
$MENU
  1
ACAD
  9
$ELEVATION
 40
0.0
  9
$PELEVATION
 40
0.0
  9
$THICKNESS
 40
0.0
  9
$LIMCHECK
 70
     0
  9
$BLIPMODE
 70
     0
  9
$CHAMFERA
 40
0.0
  9
$CHAMFERB
 40
0.0
  9
$SKPOLY
 70
     0
  9
$TDCREATE
 40
2452095.4143098369
  9
$TDUPDATE
 40
2452095.4151844908
  9
$TDINDWG
 40
0.0008887731
  9
$TDUSRTIMER
 40
0.0008887731
  9
$USRTIMER
 70
     1
  9
$ANGBASE
 50
0.0
  9
$ANGDIR
 70
     0
  9
$PDMODE
 70
     0
  9
$PDSIZE
 40
0.0
  9
$PLINEWID
 40
0.0
  9
$COORDS
 70
     1
  9
$SPLFRAME
 70
     0
  9
$SPLINETYPE
 70
     6
  9
$SPLINESEGS
 70
     8
  9
$ATTDIA
 70
     0
  9
$ATTREQ
 70
     1
  9
$HANDLING
 70
 10241
  9
$HANDSEED
  5
198
  9
$SURFTAB1
 70
     6
  9
$SURFTAB2
 70
     6
  9
$SURFTYPE
 70
     6
  9
$SURFU
 70
     6
  9
$SURFV
 70
     6
  9
$UCSNAME
  2

  9
$UCSORG
 10
0.0
 20
0.0
 30
0.0
  9
$UCSXDIR
 10
1.0
 20
0.0
 30
0.0
  9
$UCSYDIR
 10
0.0
 20
1.0
 30
0.0
  9
$PUCSNAME
  2

  9
$PUCSORG
 10
0.0
 20
0.0
 30
0.0
  9
$PUCSXDIR
 10
1.0
 20
0.0
 30
0.0
  9
$PUCSYDIR
 10
0.0
 20
1.0
 30
0.0
  9
$USERI1
 70
     0
  9
$USERI2
 70
     0
  9
$USERI3
 70
     0
  9
$USERI4
 70
     0
  9
$USERI5
 70
     0
  9
$USERR1
 40
0.0
  9
$USERR2
 40
0.0
  9
$USERR3
 40
0.0
  9
$USERR4
 40
0.0
  9
$USERR5
 40
0.0
  9
$WORLDVIEW
 70
     1
  9
$SHADEDGE
 70
     3
  9
$SHADEDIF
 70
    70
  9
$TILEMODE
 70
     1
  9
$MAXACTVP
 70
    64
  9
$PLIMCHECK
 70
     0
  9
$PEXTMIN
 10
1.0000000000000000E+020
 20
1.0000000000000000E+020
 30
1.0000000000000000E+020
  9
$PEXTMAX
 10
-1.0000000000000000E+020
 20
-1.0000000000000000E+020
 30
-1.0000000000000000E+020
  9
$PLIMMIN
 10
0.0
 20
0.0
  9
$PLIMMAX
 10
12.0
 20
9.0
  9
$UNITMODE
 70
     0
  9
$VISRETAIN
 70
     1
  9
$PLINEGEN
 70
     0
  9
$PSLTSCALE
 70
     1
  0
ENDSEC
  0
SECTION
  2
TABLES
  0
TABLE
  2
VPORT
 70
     2
  0
VPORT
  2
*ACTIVE
 70
     0
 10
0.0
 20
0.0
 11
1.0
 21
1.0
 12
-114.70753862627809
 22
117.4457328215867
 13
0.0
 23
0.0
 14
1.0
 24
1.0
 15
0.0
 25
0.0
 16
0.0
 26
0.0
 36
1.0
 17
0.0
 27
0.0
 37
0.0
 40
9.0000002411470721
 41
3.0569948186528491
 42
50.0
 43
0.0
 44
0.0
 50
0.0
 51
0.0
 71
     0
 72
   100
 73
     1
 74
     1
 75
     0
 76
     0
 77
     0
 78
     0
  0
ENDTAB
  0
TABLE
  2
LTYPE
 70
     9
  0
LTYPE
  2
CONTINUOUS
 70
     0
  3
Solid line
 72
    65
 73
     0
 40
0.0
  0
LTYPE
  2
BORDER
 70
     0
  3
__ __ . __ __ .
 72
    65
 73
     6
 40
14.738910051927281
 49
4.2111171576935114
 49
-2.1055585788467548
 49
4.2111171576935114
 49
-2.1055585788467548
 49
0.0
 49
-2.1055585788467548
  0
LTYPE
  2
CENTER
 70
     0
  3
____ _ ____ _
 72
    65
 73
     4
 40
16.844468630774038
 49
10.52779289423377
 49
-2.1055585788467548
 49
2.1055585788467548
 49
-2.1055585788467548
  0
LTYPE
  2
DASHDOT
 70
     0
  3
__ . __ . __ .
 72
    65
 73
     4
 40
8.4222343153870192
 49
4.2111171576935114
 49
-2.1055585788467548
 49
0.0
 49
-2.1055585788467548
  0
LTYPE
  2
DASHED
 70
     0
  3
__ __ __ __ __
 72
    65
 73
     2
 40
6.3166757365402653
 49
4.2111171576935114
 49
-2.1055585788467548
  0
LTYPE
  2
DIVIDE
 70
     0
  3
__ . . __ . . 
 72
    65
 73
     6
 40
10.52779289423377
 49
4.2111171576935114
 49
-2.1055585788467548
 49
0.0
 49
-2.1055585788467548
 49
0.0
 49
-2.1055585788467548
  0
LTYPE
  2
DOT
 70
     0
  3
..............
 72
    65
 73
     4
 40
4.2111171576935114
 49
0.0
 49
-2.1055585788467548
 49
0.0
 49
-2.1055585788467548
  0
LTYPE
  2
HIDDEN
 70
     0
  3
_ _ _ _ _ _ _
 72
    65
 73
     2
 40
3.1583378682701331
 49
2.1055585788467548
 49
-1.0527792894233781
  0
LTYPE
  2
PHANTOM
 70
     0
  3
_____ _ _ _____ _ _ 
 72
    65
 73
     6
 40
21.05558578846755
 49
10.52779289423377
 49
-2.1055585788467548
 49
2.1055585788467548
 49
-2.1055585788467548
 49
2.1055585788467548
 49
-2.1055585788467548
  0
ENDTAB
  0
TABLE
  2
LAYER
 70
     2
  0
LAYER
  2
0
 70
     0
 62
     7
  6
CONTINUOUS
  0
LAYER
  2
1
 70
     0
 62
     7
  6
CONTINUOUS
  0
ENDTAB
  0
TABLE
  2
STYLE
 70
     4
  0
STYLE
  2
STANDARD
 70
     0
 40
0.0
 41
1.0
 50
0.0
 71
     0
 42
3.5
  3
txt
  4

  0
STYLE
  2
SIMPLEX
 70
     0
 40
0.0
 41
1.0
 50
0.0
 71
     0
 42
3.5
  3
simplex
  4

  0
STYLE
  2
COMPLEX
 70
     0
 40
0.0
 41
1.0
 50
0.0
 71
     0
 42
3.5
  3
complex
  4

  0
STYLE
  2
ITALIC
 70
     0
 40
0.0
 41
1.0
 50
0.0
 71
     0
 42
3.5
  3
italic
  4

  0
ENDTAB
  0
TABLE
  2
VIEW
 70
     0
  0
ENDTAB
  0
TABLE
  2
UCS
 70
     0
  0
ENDTAB
  0
TABLE
  2
APPID
 70
     1
  0
APPID
  2
ACAD
 70
     0
  0
ENDTAB
  0
TABLE
  2
DIMSTYLE
 70
     1
  0
DIMSTYLE
  2
STANDARD
 70
     0
  3

  4

  5

  6

  7

 40
1.0
 41
0.18
 42
0.0625
 43
0.38
 44
0.18
 45
0.0
 46
0.0
 47
0.0
 48
0.0
140
0.18
141
0.09
142
0.0
143
25.399999999999999
144
1.0
145
0.0
146
1.0
147
0.09
 71
     0
 72
     0
 73
     1
 74
     1
 75
     0
 76
     0
 77
     0
 78
     0
170
     0
171
     2
172
     0
173
     0
174
     0
175
     0
176
     0
177
     0
178
     0
  0
ENDTAB
  0
ENDSEC
  0
SECTION
  2
BLOCKS
  0
BLOCK
  8
0
  2
$MODEL_SPACE
 70
     0
 10
0.0
 20
0.0
 30
0.0
  3
$MODEL_SPACE
  1

  0
ENDBLK
  5
20
  8
0
  0
BLOCK
 67
     1
  8
0
  2
$PAPER_SPACE
 70
     0
 10
0.0
 20
0.0
 30
0.0
  3
$PAPER_SPACE
  1

  0
ENDBLK
  5
1C
 67
     1
  8
0
  0
ENDSEC
  0
SECTION
  2
ENTITIES
  0
LINE
  5
33
  8
1
 62
     7
 10
30.015000000000011
 20
-43.500000000000057
 30
0.0
 11
30.015000000000011
 21
-39.900000000000063
 31
0.0
  0
LINE
  5
34
  8
1
 62
     7
 10
30.015000000000011
 20
42.999999999999979
 30
0.0
 11
30.015000000000011
 21
23.499999999999979
 31
0.0
  0
LINE
  5
35
  8
1
 62
     7
 10
47.015000000000022
 20
-20.499999999999819
 30
0.0
 11
44.515000000000022
 21
-20.499999999999819
 31
0.0
  0
LINE
  5
36
  8
1
 62
     7
 10
39.015000000000022
 20
42.999999999999979
 30
0.0
 11
30.015000000000011
 21
42.999999999999979
 31
0.0
  0
LINE
  5
37
  8
1
 62
     7
 10
39.015000000000022
 20
26.999999999999901
 30
0.0
 11
39.015000000000022
 21
42.999999999999979
 31
0.0
  0
LINE
  5
38
  8
1
 62
     7
 10
47.015000000000022
 20
-26.999999999999901
 30
0.0
 11
47.015000000000022
 21
-19.499999999999961
 31
0.0
  0
LINE
  5
39
  8
1
 62
     7
 10
47.015000000000022
 20
26.999999999999901
 30
0.0
 11
39.015000000000022
 21
26.999999999999901
 31
0.0
  0
LINE
  5
3A
  8
1
 62
     7
 10
39.015000000000022
 20
-26.999999999999901
 30
0.0
 11
47.015000000000022
 21
-26.999999999999901
 31
0.0
  0
LINE
  5
3B
  8
1
 62
     7
 10
39.015000000000022
 20
-42.999999999999979
 30
0.0
 11
39.015000000000022
 21
-26.999999999999901
 31
0.0
  0
LINE
  5
3C
  8
1
 62
     7
 10
30.015000000000011
 20
-42.999999999999979
 30
0.0
 11
39.015000000000022
 21
-42.999999999999979
 31
0.0
  0
LINE
  5
3D
  8
1
  6
DASHDOT
 62
     3
 10
173.0593147251198
 20
-20.249999999999989
 30
0.0
 11
163.5330352834909
 21
-14.749999999999989
 31
0.0
  0
LINE
  5
3E
  8
1
  6
DASHDOT
 62
     3
 10
102.9112570185803
 20
-20.249999999999961
 30
0.0
 11
112.4375364602091
 21
-14.749999999999959
 31
0.0
  0
LINE
  5
3F
  8
1
  6
DASHDOT
 62
     3
 10
137.9852858718501
 20
40.500000000000028
 30
0.0
 11
137.9852858718501
 21
29.500000000000039
 31
0.0
  0
LINE
  5
40
  8
1
 62
     7
 10
-79.984999999999985
 20
54.0
 30
0.0
 11
-79.984999999999985
 21
-54.000000000000057
 31
0.0
  0
LINE
  5
41
  8
1
 62
     7
 10
-8.0099999999999891
 20
-25.203125
 30
0.0
 11
-8.0099999999999891
 21
-17.296875
 31
0.0
  0
LINE
  5
42
  8
1
 62
     7
 10
2.2400000000000091
 20
-25.203125
 30
0.0
 11
2.2400000000000091
 21
-17.296875
 31
0.0
  0
LINE
  5
43
  8
1
 62
     7
 10
-0.9095649213400918
 20
-24.4375
 30
0.0
 11
3.6150000000000091
 21
-24.4375
 31
0.0
  0
LINE
  5
44
  8
1
 62
     7
 10
-4.8604350786598891
 20
-24.4375
 30
0.0
 11
-9.3849999999999891
 21
-24.4375
 31
0.0
  0
LINE
  5
45
  8
1
 62
     7
 10
-0.9095649213400918
 20
-18.0625
 30
0.0
 11
3.6150000000000091
 21
-18.0625
 31
0.0
  0
LINE
  5
46
  8
1
 62
     7
 10
-4.8604350786598891
 20
-18.0625
 30
0.0
 11
-9.3849999999999891
 21
-18.0625
 31
0.0
  0
LINE
  5
47
  8
1
 62
     7
 10
-8.0099999999999891
 20
25.203125
 30
0.0
 11
-8.0099999999999891
 21
17.296875
 31
0.0
  0
LINE
  5
48
  8
1
 62
     7
 10
2.2400000000000091
 20
25.203125
 30
0.0
 11
2.2400000000000091
 21
17.296875
 31
0.0
  0
LINE
  5
49
  8
1
 62
     7
 10
-0.9095649213400918
 20
24.4375
 30
0.0
 11
3.6150000000000091
 21
24.4375
 31
0.0
  0
LINE
  5
4A
  8
1
 62
     7
 10
-4.8604350786598891
 20
24.4375
 30
0.0
 11
-9.3849999999999891
 21
24.4375
 31
0.0
  0
LINE
  5
4B
  8
1
 62
     7
 10
-0.9095649213400918
 20
18.0625
 30
0.0
 11
3.6150000000000091
 21
18.0625
 31
0.0
  0
LINE
  5
4C
  8
1
 62
     7
 10
-4.8604350786598891
 20
18.0625
 30
0.0
 11
-9.3849999999999891
 21
18.0625
 31
0.0
  0
LINE
  5
4D
  8
1
 62
     7
 10
49.615000000000009
 20
9.9999999999999876
 30
0.0
 11
34.615000000000009
 21
9.9999999999999876
 31
0.0
  0
LINE
  5
4E
  8
1
 62
     7
 10
3.6150000000000091
 20
-15.0
 30
0.0
 11
-9.3849999999999891
 21
-15.0
 31
0.0
  0
LINE
  5
4F
  8
1
 62
     7
 10
-9.3849999999999891
 20
-27.499999999999961
 30
0.0
 11
3.6150000000000091
 21
-27.499999999999961
 31
0.0
  0
LINE
  5
50
  8
1
 62
     7
 10
3.6150000000000091
 20
-15.0
 30
0.0
 11
3.6150000000000091
 21
-28.999999999999961
 31
0.0
  0
LINE
  5
51
  8
1
 62
     7
 10
30.015000000000011
 20
-23.499999999999769
 30
0.0
 11
30.015000000000011
 21
-36.100000000000058
 31
0.0
  0
LINE
  5
52
  8
1
 62
     7
 10
0.2998811958904071
 20
77.995907876153098
 30
0.0
 11
0.2998811958904071
 21
80.191124841229893
 31
0.0
  0
LINE
  5
53
  8
1
 62
     7
 10
-0.0725487168054997
 20
77.995907876153098
 30
0.0
 11
-0.0725487168054997
 21
80.191124841229893
 31
0.0
  0
LINE
  5
54
  8
1
 62
     7
 10
-1.069881195890402
 20
80.191124841229893
 30
0.0
 11
-1.069881195890402
 21
77.995907876153098
 31
0.0
  0
LINE
  5
55
  8
1
 62
     7
 10
-0.6974512831944965
 20
80.191124841229893
 30
0.0
 11
-0.6974512831944965
 21
77.995907876153098
 31
0.0
  0
LINE
  5
56
  8
1
 62
     7
 10
-1.6349999999999909
 20
77.995907876153098
 30
0.0
 11
0.865000000000009
 21
77.995907876153098
 31
0.0
  0
LINE
  5
57
  8
1
 62
     7
 10
0.865000000000009
 20
77.995907876153098
 30
0.0
 11
0.865000000000009
 21
53.350000000000001
 31
0.0
  0
LINE
  5
58
  8
1
 62
     7
 10
-1.6349999999999909
 20
77.995907876153098
 30
0.0
 11
-1.6349999999999909
 21
53.350000000000001
 31
0.0
  0
LINE
  5
59
  8
1
 62
     7
 10
18.715
 20
23.5
 30
0.0
 11
20.615000000000009
 21
23.5
 31
0.0
  0
LINE
  5
5A
  8
1
 62
     7
 10
-9.378594436441503
 20
-9.9999999999999876
 30
0.0
 11
5.6150000000000082
 21
-9.9999999999999876
 31
0.0
  0
LINE
  5
5B
  8
1
 62
     7
 10
20.615000000000009
 20
23.5
 30
0.0
 11
20.615000000000009
 21
19.0
 31
0.0
  0
LINE
  5
5C
  8
1
 62
     7
 10
-9.378594436441503
 20
12.80000000000005
 30
0.0
 11
49.615000000000002
 21
12.80000000000005
 31
0.0
  0
LINE
  5
5D
  8
1
 62
     7
 10
5.1150000000000091
 20
-21.936999999999991
 30
0.0
 11
5.1150000000000091
 21
-28.999999999999961
 31
0.0
  0
LINE
  5
5E
  8
1
 62
     7
 10
5.1150000000000091
 20
29.000000000000011
 30
0.0
 11
3.6150000000000091
 21
29.000000000000011
 31
0.0
  0
LINE
  5
5F
  8
1
 62
     7
 10
5.1150000000000091
 20
29.000000000000011
 30
0.0
 11
5.1150000000000091
 21
23.311000000000071
 31
0.0
  0
LINE
  5
60
  8
1
 62
     7
 10
3.6150000000000091
 20
-22.499999999999989
 30
0.0
 11
5.1150000000000091
 21
-22.499999999999989
 31
0.0
  0
LINE
  5
61
  8
1
 62
     7
 10
3.6150000000000091
 20
23.899999999999981
 30
0.0
 11
5.1150000000000091
 21
23.899999999999981
 31
0.0
  0
LINE
  5
62
  8
1
 62
     7
 10
3.6150000000000091
 20
-28.999999999999961
 30
0.0
 11
5.1150000000000091
 21
-28.999999999999961
 31
0.0
  0
LINE
  5
63
  8
1
 62
     7
 10
-11.384999999999989
 20
-42.499999999999957
 30
0.0
 11
-11.384999999999989
 21
71.0
 31
0.0
  0
LINE
  5
64
  8
1
 62
     7
 10
12.615
 20
-27.499999999999961
 30
0.0
 11
12.615
 21
-53.350000000000108
 31
0.0
  0
LINE
  5
65
  8
1
 62
     7
 10
5.6150000000000082
 20
-20.499999999999979
 30
0.0
 11
3.6150000000000091
 21
-20.499999999999979
 31
0.0
  0
LINE
  5
66
  8
1
 62
     7
 10
15.115
 20
-26.999999999999961
 30
0.0
 11
5.6150000000000082
 21
-26.999999999999961
 31
0.0
  0
LINE
  5
67
  8
1
 62
     7
 10
5.6150000000000082
 20
-53.850000000000087
 30
0.0
 11
15.115
 21
-53.850000000000087
 31
0.0
  0
LINE
  5
68
  8
1
 62
     7
 10
5.6150000000000082
 20
-56.499999999999957
 30
0.0
 11
5.6150000000000082
 21
-53.850000000000087
 31
0.0
  0
LINE
  5
69
  8
1
 62
     7
 10
17.78294919243109
 20
-56.499999999999957
 30
0.0
 11
5.6150000000000082
 21
-56.499999999999957
 31
0.0
  0
LINE
  5
6A
  8
1
 62
     7
 10
19.515000000000018
 20
-53.499999999999957
 30
0.0
 11
17.78294919243109
 21
-56.499999999999957
 31
0.0
  0
LINE
  5
6B
  8
1
 62
     7
 10
21.015000000000011
 20
-53.500000000000057
 30
0.0
 11
19.515000000000018
 21
-53.499999999999957
 31
0.0
  0
LINE
  5
6C
  8
1
 62
     7
 10
18.715
 20
-26.999999999999989
 30
0.0
 11
21.015000000000011
 21
-26.999999999999989
 31
0.0
  0
LINE
  5
6D
  8
1
 62
     7
 10
18.715
 20
-23.499999999999989
 30
0.0
 11
18.715
 21
-26.999999999999989
 31
0.0
  0
LINE
  5
6E
  8
1
 62
     7
 10
20.615000000000009
 20
-23.499999999999989
 30
0.0
 11
18.715
 21
-23.499999999999989
 31
0.0
  0
LINE
  5
6F
  8
1
 62
     7
 10
18.715
 20
27.000000000000011
 30
0.0
 11
18.715
 21
23.5
 31
0.0
  0
LINE
  5
70
  8
1
 62
     7
 10
21.015000000000011
 20
27.000000000000011
 30
0.0
 11
18.715
 21
27.000000000000011
 31
0.0
  0
LINE
  5
71
  8
1
 62
     7
 10
21.015000000000011
 20
53.500000000000007
 30
0.0
 11
21.015000000000011
 21
24.500000000000242
 31
0.0
  0
LINE
  5
72
  8
1
 62
     7
 10
19.515000000000018
 20
53.500000000000007
 30
0.0
 11
21.015000000000011
 21
53.500000000000007
 31
0.0
  0
LINE
  5
73
  8
1
 62
     7
 10
17.78294919243109
 20
56.499999999999993
 30
0.0
 11
19.515000000000018
 21
53.500000000000007
 31
0.0
  0
LINE
  5
74
  8
1
 62
     7
 10
5.6150000000000082
 20
56.500000000000007
 30
0.0
 11
17.78294919243109
 21
56.499999999999993
 31
0.0
  0
LINE
  5
75
  8
1
 62
     7
 10
15.115
 20
53.849999999999902
 30
0.0
 11
5.6150000000000082
 21
53.849999999999902
 31
0.0
  0
LINE
  5
76
  8
1
 62
     7
 10
5.6150000000000082
 20
27.000000000000011
 30
0.0
 11
15.115
 21
27.000000000000011
 31
0.0
  0
LINE
  5
77
  8
1
 62
     7
 10
5.6150000000000082
 20
20.500000000000011
 30
0.0
 11
5.6150000000000082
 21
27.000000000000011
 31
0.0
  0
LINE
  5
78
  8
1
 62
     7
 10
3.6150000000000091
 20
20.500000000000011
 30
0.0
 11
5.6150000000000082
 21
20.500000000000011
 31
0.0
  0
LINE
  5
79
  8
1
 62
     7
 10
-11.384999999999989
 20
-42.499999999999957
 30
0.0
 11
-9.3849999999999891
 21
-42.499999999999957
 31
0.0
  0
LINE
  5
7A
  8
1
 62
     7
 10
-11.384999999999989
 20
-24.499999999999989
 30
0.0
 11
-9.3849999999999891
 21
-24.499999999999989
 31
0.0
  0
LINE
  5
7B
  8
1
 62
     7
 10
-11.384999999999989
 20
24.500000000000011
 30
0.0
 11
-9.3850000000000886
 21
24.5
 31
0.0
  0
LINE
  5
7C
  8
1
  6
DASHDOT
 62
     3
 10
-12.437268476900201
 20
65.0
 30
0.0
 11
-8.3365390001765984
 21
65.0
 31
0.0
  0
LINE
  5
7D
  8
1
 62
     7
 10
-9.3849999999999891
 20
71.0
 30
0.0
 11
-11.384999999999989
 21
71.0
 31
0.0
  0
LINE
  5
7E
  8
1
 62
     7
 10
12.615
 20
-53.350000000000108
 30
0.0
 11
-3.38499999999999
 21
-53.350000000000001
 31
0.0
  0
LINE
  5
7F
  8
1
 62
     7
 10
-3.38499999999999
 20
53.350000000000037
 30
0.0
 11
12.615
 21
53.350000000000037
 31
0.0
  0
LINE
  5
80
  8
1
 62
     7
 10
5.1150000000000091
 20
-27.499999999999961
 30
0.0
 11
12.615
 21
-27.499999999999961
 31
0.0
  0
LINE
  5
81
  8
1
 62
     7
 10
12.615
 20
27.500000000000011
 30
0.0
 11
12.615
 21
53.350000000000037
 31
0.0
  0
LINE
  5
82
  8
1
 62
     7
 10
5.1150000000000091
 20
27.500000000000011
 30
0.0
 11
12.615
 21
27.500000000000011
 31
0.0
  0
LINE
  5
83
  8
1
 62
     7
 10
143.98528587185001
 20
71.0
 30
0.0
 11
131.98528587185001
 21
71.0
 31
0.0
  0
LINE
  5
84
  8
1
 62
     7
 10
157.07691478055349
 20
77.550663785679603
 30
0.0
 11
157.8553062898674
 21
80.447922950594005
 31
0.0
  0
LINE
  5
85
  8
1
 62
     7
 10
157.568732009737
 20
77.418881756296202
 30
0.0
 11
158.33449808558461
 21
80.319523895911885
 31
0.0
  0
LINE
  5
86
  8
1
 62
     7
 10
158.04161108872111
 20
77.292174188964793
 30
0.0
 11
158.813689881302
 21
80.191124841229893
 31
0.0
  0
LINE
  5
87
  8
1
 62
     7
 10
161.0013048914285
 20
79.604955165916195
 30
0.0
 11
160.2267821301273
 21
76.706659373096201
 31
0.0
  0
LINE
  5
88
  8
1
 62
     7
 10
160.52211309571129
 20
79.733354220598301
 30
0.0
 11
159.73496490094391
 21
76.838441402479589
 31
0.0
  0
LINE
  5
89
  8
1
 62
     7
 10
160.04292129999399
 20
79.861753275280407
 30
0.0
 11
159.2620858219596
 21
76.965148969810997
 31
0.0
  0
LINE
  5
8A
  8
1
 62
     7
 10
21.215
 20
54.0
 30
0.0
 11
21.215
 21
24.500000000000242
 31
0.0
  0
LINE
  5
8B
  8
1
 62
     7
 10
21.215
 20
54.0
 30
0.0
 11
26.215
 21
54.0
 31
0.0
  0
LINE
  5
8C
  8
1
 62
     7
 10
26.815000000000001
 20
38.0
 30
0.0
 11
26.815000000000001
 21
24.500000000000242
 31
0.0
  0
LINE
  5
8D
  8
1
 62
     7
 10
21.215
 20
26.5
 30
0.0
 11
26.215
 21
26.5
 31
0.0
  0
LINE
  5
8E
  8
1
 62
     7
 10
26.215
 20
53.0
 30
0.0
 11
26.815000000000001
 21
53.0
 31
0.0
  0
LINE
  5
8F
  8
1
 62
     7
 10
26.815000000000001
 20
53.0
 30
0.0
 11
26.815000000000001
 21
40.54136836602153
 31
0.0
  0
LINE
  5
90
  8
1
 62
     7
 10
26.815000000000001
 20
40.54136836602153
 30
0.0
 11
27.414999999999988
 21
38.0
 31
0.0
  0
LINE
  5
91
  8
1
 62
     7
 10
26.215
 20
40.612435565298227
 30
0.0
 11
26.815000000000001
 21
38.0
 31
0.0
  0
LINE
  5
92
  8
1
 62
     7
 10
26.815000000000001
 20
43.0
 30
0.0
 11
28.615000000000009
 21
43.0
 31
0.0
  0
LINE
  5
93
  8
1
 62
     7
 10
26.815000000000001
 20
52.0
 30
0.0
 11
28.615000000000009
 21
52.0
 31
0.0
  0
LINE
  5
94
  8
1
 62
     7
 10
27.515000000000011
 20
52.0
 30
0.0
 11
27.515000000000011
 21
43.0
 31
0.0
  0
LINE
  5
95
  8
1
 62
     7
 10
26.215
 20
42.0
 30
0.0
 11
26.815000000000001
 21
42.0
 31
0.0
  0
LINE
  5
96
  8
1
 62
     7
 10
27.414999999999988
 20
38.0
 30
0.0
 11
27.41500000000001
 21
24.500000000000242
 31
0.0
  0
LINE
  5
97
  8
1
 62
     7
 10
26.215
 20
-54.000000000000057
 30
0.0
 11
21.215
 21
-54.000000000000057
 31
0.0
  0
LINE
  5
98
  8
1
 62
     7
 10
26.815000000000001
 20
-53.000000000000057
 30
0.0
 11
27.414999999999988
 21
-53.000000000000057
 31
0.0
  0
LINE
  5
99
  8
1
 62
     7
 10
21.215
 20
-32.75000000000005
 30
0.0
 11
26.215
 21
-32.75000000000005
 31
0.0
  0
LINE
  5
9A
  8
1
 62
     7
 10
21.215
 20
-43.250000000000057
 30
0.0
 11
26.215
 21
-43.250000000000057
 31
0.0
  0
LINE
  5
9B
  8
1
 62
     7
 10
27.415000000000099
 20
-40.500000000000057
 30
0.0
 11
27.414999999999988
 21
-53.000000000000057
 31
0.0
  0
LINE
  5
9C
  8
1
 62
     7
 10
27.415000000000099
 20
-32.50000000000005
 30
0.0
 11
30.015000000000011
 21
-32.50000000000005
 31
0.0
  0
LINE
  5
9D
  8
1
 62
     7
 10
27.415000000000099
 20
-43.500000000000057
 30
0.0
 11
30.015000000000011
 21
-43.500000000000057
 31
0.0
  0
LINE
  5
9E
  8
1
 62
     7
 10
26.815000000000001
 20
-30.00000000000005
 30
0.0
 11
27.414999999999988
 21
-30.00000000000005
 31
0.0
  0
LINE
  5
9F
  8
1
 62
     7
 10
156.23703388961781
 20
77.775709192144205
 30
0.0
 11
161.06666302106311
 21
76.481613966631599
 31
0.0
  0
LINE
  5
A0
  8
1
 62
     7
 10
161.06666302106311
 20
76.481613966631599
 30
0.0
 11
155.00905425950631
 21
53.874310296127589
 31
0.0
  0
LINE
  5
A1
  8
1
 62
     7
 10
156.23703388961781
 20
77.775709192144205
 30
0.0
 11
150.1794251280611
 21
55.168405521640167
 31
0.0
  0
LINE
  5
A2
  8
1
 62
     7
 10
145.98528587185001
 20
55.930760767220079
 30
0.0
 11
145.98528587185001
 21
69.0
 31
0.0
  0
LINE
  5
A3
  8
1
 62
     7
 10
129.98528587185001
 20
55.930760767220079
 30
0.0
 11
129.98528587185001
 21
69.0
 31
0.0
  0
LINE
  5
A4
  8
1
 62
     7
 10
134.9852858718501
 20
12.80000000000005
 30
0.0
 11
140.9852858718501
 21
12.80000000000005
 31
0.0
  0
LINE
  5
A5
  8
1
 62
     7
 10
140.9852858718501
 20
12.80000000000005
 30
0.0
 11
140.9852858718501
 21
9.5393920141694935
 31
0.0
  0
LINE
  5
A6
  8
1
 62
     7
 10
134.9852858718501
 20
12.80000000000005
 30
0.0
 11
134.9852858718501
 21
9.5393920141694935
 31
0.0
  0
LINE
  5
A7
  8
1
  6
DASHDOT
 62
     3
 10
143.85764477177281
 20
0.0000000000000426
 30
0.0
 11
132.11292697192741
 21
0.0000000000000426
 31
0.0
  0
LINE
  5
A8
  8
1
  6
DASHDOT
 62
     3
 10
137.9852858718501
 20
5.8723588999228014
 30
0.0
 11
137.9852858718501
 21
-5.8723588999227223
 31
0.0
  0
LINE
  5
A9
  8
1
  6
DASHDOT
 62
     3
 10
142.1813133285811
 20
65.0
 30
0.0
 11
133.78925841511921
 21
65.0
 31
0.0
  0
LINE
  5
AA
  8
1
  6
DASHDOT
 62
     3
 10
137.9852858718501
 20
69.196027456731002
 30
0.0
 11
137.9852858718501
 21
60.803972543269097
 31
0.0
  0
LINE
  5
AB
  8
1
 62
     7
 10
158.65184845534051
 20
77.128661579387895
 30
0.0
 11
152.60856192014259
 21
54.574809185332398
 31
0.0
  0
LINE
  5
AC
  8
1
  6
DASHDOT
 62
     3
 10
54.615000000000038
 20
0.0000000000000426
 30
0.0
 11
49.615000000000009
 21
0.0000000000001671
 31
0.0
  0
LINE
  5
AD
  8
1
  6
DASHDOT
 62
     3
 10
-11.384999999999989
 20
0.0
 30
0.0
 11
-16.384999999999991
 21
0.0
 31
0.0
  0
LINE
  5
AE
  8
1
 62
     7
 10
-104.6001188041095
 20
77.995907876153098
 30
0.0
 11
-104.6001188041095
 21
80.191124841229893
 31
0.0
  0
LINE
  5
AF
  8
1
 62
     7
 10
-104.97254871680551
 20
77.995907876153098
 30
0.0
 11
-104.97254871680551
 21
80.191124841229893
 31
0.0
  0
LINE
  5
B0
  8
1
 62
     7
 10
-105.96988119589039
 20
80.191124841229893
 30
0.0
 11
-105.96988119589039
 21
77.995907876153098
 31
0.0
  0
LINE
  5
B1
  8
1
 62
     7
 10
-105.5974512831943
 20
80.191124841229893
 30
0.0
 11
-105.5974512831943
 21
77.995907876153098
 31
0.0
  0
LINE
  5
B2
  8
1
 62
     7
 10
-106.535
 20
77.995907876153098
 30
0.0
 11
-104.0349999999999
 21
77.995907876153098
 31
0.0
  0
LINE
  5
B3
  8
1
 62
     7
 10
-104.0349999999999
 20
77.995907876153098
 30
0.0
 11
-104.0349999999999
 21
53.350000000000037
 31
0.0
  0
LINE
  5
B4
  8
1
 62
     7
 10
-106.535
 20
77.995907876153098
 30
0.0
 11
-106.535
 21
53.350000000000037
 31
0.0
  0
LINE
  5
B5
  8
1
 62
     7
 10
-87.117050807568916
 20
-56.499999999999957
 30
0.0
 11
-99.284999999999997
 21
-56.499999999999957
 31
0.0
  0
LINE
  5
B6
  8
1
 62
     7
 10
-85.384999999999977
 20
-53.499999999999957
 30
0.0
 11
-87.117050807568916
 21
-56.499999999999957
 31
0.0
  0
LINE
  5
B7
  8
1
 62
     7
 10
-83.884999999999977
 20
-53.500000000000057
 30
0.0
 11
-85.384999999999977
 21
-53.499999999999957
 31
0.0
  0
LINE
  5
B8
  8
1
 62
     7
 10
-83.884999999999977
 20
53.500000000000007
 30
0.0
 11
-83.884999999999977
 21
-53.500000000000057
 31
0.0
  0
LINE
  5
B9
  8
1
 62
     7
 10
-85.384999999999977
 20
53.500000000000007
 30
0.0
 11
-83.884999999999977
 21
53.500000000000007
 31
0.0
  0
LINE
  5
BA
  8
1
 62
     7
 10
-87.117050807568916
 20
56.499999999999993
 30
0.0
 11
-85.384999999999977
 21
53.500000000000007
 31
0.0
  0
LINE
  5
BB
  8
1
 62
     7
 10
-99.284999999999997
 20
56.500000000000007
 30
0.0
 11
-87.117050807568916
 21
56.499999999999993
 31
0.0
  0
LINE
  5
BC
  8
1
 62
     7
 10
-116.2849999999999
 20
-42.499999999999957
 30
0.0
 11
-114.2849999999999
 21
-42.499999999999957
 31
0.0
  0
LINE
  5
BD
  8
1
 62
     7
 10
-114.2729871096782
 20
71.0
 30
0.0
 11
-116.2849999999999
 21
71.0
 31
0.0
  0
LINE
  5
BE
  8
1
 62
     7
 10
-108.285
 20
53.350000000000037
 30
0.0
 11
-99.284999999999997
 21
53.350000000000037
 31
0.0
  0
LINE
  5
BF
  8
1
 62
     7
 10
-83.685000000000002
 20
54.0
 30
0.0
 11
-83.685000000000002
 21
-54.000000000000057
 31
0.0
  0
LINE
  5
C0
  8
1
 62
     7
 10
-83.685000000000002
 20
54.0
 30
0.0
 11
-78.685000000000002
 21
54.0
 31
0.0
  0
LINE
  5
C1
  8
1
 62
     7
 10
-78.08499999999998
 20
38.0
 30
0.0
 11
-78.08499999999998
 21
-53.000000000000057
 31
0.0
  0
LINE
  5
C2
  8
1
 62
     7
 10
-78.685000000000002
 20
53.0
 30
0.0
 11
-78.08499999999998
 21
53.0
 31
0.0
  0
LINE
  5
C3
  8
1
 62
     7
 10
-78.08499999999998
 20
53.0
 30
0.0
 11
-78.08499999999998
 21
40.54136836602153
 31
0.0
  0
LINE
  5
C4
  8
1
 62
     7
 10
-78.08499999999998
 20
40.54136836602153
 30
0.0
 11
-77.4849999999999
 21
38.0
 31
0.0
  0
LINE
  5
C5
  8
1
 62
     7
 10
-78.685000000000002
 20
40.612435565298227
 30
0.0
 11
-78.08499999999998
 21
38.0
 31
0.0
  0
LINE
  5
C6
  8
1
 62
     7
 10
-75.784999999999997
 20
51.5
 30
0.0
 11
-75.784999999999997
 21
43.5
 31
0.0
  0
LINE
  5
C7
  8
1
 62
     7
 10
-78.08499999999998
 20
43.0
 30
0.0
 11
-76.284999999999997
 21
43.0
 31
0.0
  0
LINE
  5
C8
  8
1
 62
     7
 10
-78.08499999999998
 20
52.0
 30
0.0
 11
-76.284999999999997
 21
52.0
 31
0.0
  0
LINE
  5
C9
  8
1
 62
     7
 10
-77.384999999999863
 20
52.0
 30
0.0
 11
-77.384999999999863
 21
43.0
 31
0.0
  0
LINE
  5
CA
  8
1
 62
     7
 10
-75.784999999999997
 20
51.5
 30
0.0
 11
-76.284999999999997
 21
52.0
 31
0.0
  0
LINE
  5
CB
  8
1
 62
     7
 10
-75.784999999999997
 20
43.5
 30
0.0
 11
-76.284999999999997
 21
43.0
 31
0.0
  0
LINE
  5
CC
  8
1
 62
     7
 10
-78.685000000000002
 20
-54.000000000000057
 30
0.0
 11
-83.685000000000002
 21
-54.000000000000057
 31
0.0
  0
LINE
  5
CD
  8
1
 62
     7
 10
-78.08499999999998
 20
-53.000000000000057
 30
0.0
 11
-77.4849999999999
 21
-53.000000000000057
 31
0.0
  0
LINE
  5
CE
  8
1
 62
     7
 10
-78.685000000000002
 20
54.0
 30
0.0
 11
-78.685000000000002
 21
-54.000000000000057
 31
0.0
  0
LINE
  5
CF
  8
1
 62
     7
 10
-77.4849999999999
 20
-32.50000000000005
 30
0.0
 11
-74.885000000000005
 21
-32.50000000000005
 31
0.0
  0
LINE
  5
D0
  8
1
 62
     7
 10
-77.4849999999999
 20
-43.500000000000057
 30
0.0
 11
-74.885000000000005
 21
-43.500000000000057
 31
0.0
  0
LINE
  5
D1
  8
1
 62
     7
 10
-77.4849999999999
 20
38.0
 30
0.0
 11
-77.4849999999999
 21
-53.000000000000057
 31
0.0
  0
LINE
  5
D2
  8
1
  6
DASHDOT
 62
     3
 10
-50.185000000000002
 20
0.0000000000000426
 30
0.0
 11
-55.185000000000002
 21
0.0
 31
0.0
  0
LINE
  5
D3
  8
1
  6
DASHDOT
 62
     3
 10
-116.2849999999999
 20
0.0
 30
0.0
 11
-121.2849999999999
 21
0.0
 31
0.0
  0
LINE
  5
D4
  8
1
 62
     7
 10
-99.284999999999997
 20
-53.349999999999973
 30
0.0
 11
-108.285
 21
-53.349999999999973
 31
0.0
  0
LINE
  5
D5
  8
1
 62
     7
 10
-85.384999999999977
 20
-53.499999999999957
 30
0.0
 11
-85.384999999999977
 21
53.500000000000007
 31
0.0
  0
LINE
  5
D6
  8
1
 62
     7
 10
-87.117050807568916
 20
56.499999999999993
 30
0.0
 11
-87.117050807568916
 21
-56.499999999999957
 31
0.0
  0
LINE
  5
D7
  8
1
 62
     7
 10
-99.284999999999997
 20
56.500000000000007
 30
0.0
 11
-99.284999999999997
 21
-56.499999999999957
 31
0.0
  0
LINE
  5
D8
  8
1
 62
     7
 10
29.115000000000009
 20
43.5
 30
0.0
 11
29.115000000000009
 21
51.5
 31
0.0
  0
LINE
  5
D9
  8
1
 62
     7
 10
29.115000000000009
 20
51.5
 30
0.0
 11
28.615000000000009
 21
52.0
 31
0.0
  0
LINE
  5
DA
  8
1
 62
     7
 10
29.115000000000009
 20
51.0
 30
0.0
 11
29.115000000000009
 21
51.5
 31
0.0
  0
LINE
  5
DB
  8
1
 62
     7
 10
29.115000000000009
 20
51.5
 30
0.0
 11
28.615000000000009
 21
52.0
 31
0.0
  0
LINE
  5
DC
  8
1
 62
     7
 10
29.115000000000009
 20
43.5
 30
0.0
 11
28.615000000000009
 21
43.0
 31
0.0
  0
LINE
  5
DD
  8
1
 62
     7
 10
29.115000000000009
 20
43.5
 30
0.0
 11
28.615000000000009
 21
43.0
 31
0.0
  0
LINE
  5
DE
  8
1
  6
DASHDOT
 62
     3
 10
-117.7663117259484
 20
65.0
 30
0.0
 11
-112.1916888863864
 21
65.0
 31
0.0
  0
LINE
  5
DF
  8
1
 62
     7
 10
15.115
 20
27.000000000000011
 30
0.0
 11
15.115
 21
53.849999999999902
 31
0.0
  0
LINE
  5
E0
  8
1
 62
     7
 10
5.6150000000000082
 20
53.849999999999902
 30
0.0
 11
5.6150000000000082
 21
56.500000000000007
 31
0.0
  0
LINE
  5
E1
  8
1
 62
     7
 10
5.6150000000000082
 20
-26.999999999999961
 30
0.0
 11
5.6150000000000082
 21
-20.499999999999979
 31
0.0
  0
LINE
  5
E2
  8
1
 62
     7
 10
15.115
 20
-26.999999999999961
 30
0.0
 11
15.115
 21
-53.850000000000087
 31
0.0
  0
LINE
  5
E3
  8
1
 62
     7
 10
26.215000000000121
 20
-42.500000000000057
 30
0.0
 11
25.615000000000091
 21
-42.500000000000057
 31
0.0
  0
LINE
  5
E4
  8
1
 62
     7
 10
25.615000000000091
 20
-33.50000000000005
 30
0.0
 11
26.215000000000121
 21
-33.50000000000005
 31
0.0
  0
LINE
  5
E5
  8
1
 62
     7
 10
25.615000000000091
 20
-33.25000000000005
 30
0.0
 11
25.115000000000091
 21
-33.25000000000005
 31
0.0
  0
LINE
  5
E6
  8
1
 62
     7
 10
25.115000000000091
 20
-33.25000000000005
 30
0.0
 11
25.115000000000091
 21
-42.750000000000057
 31
0.0
  0
LINE
  5
E7
  8
1
 62
     7
 10
25.115000000000091
 20
-42.750000000000057
 30
0.0
 11
25.615000000000091
 21
-42.750000000000057
 31
0.0
  0
LINE
  5
E8
  8
1
 62
     7
 10
25.615000000000091
 20
-42.750000000000057
 30
0.0
 11
25.615000000000091
 21
-33.25000000000005
 31
0.0
  0
LINE
  5
E9
  8
1
 62
     7
 10
22.065000000000001
 20
-35.500000000000057
 30
0.0
 11
22.065000000000001
 21
-40.500000000000057
 31
0.0
  0
LINE
  5
EA
  8
1
 62
     7
 10
37.0150000000001
 20
-35.500000000000057
 30
0.0
 11
37.615000000000087
 21
-36.100000000000058
 31
0.0
  0
LINE
  5
EB
  8
1
 62
     7
 10
37.615000000000087
 20
-36.100000000000058
 30
0.0
 11
37.615000000000087
 21
-39.900000000000063
 31
0.0
  0
LINE
  5
EC
  8
1
 62
     7
 10
37.615000000000087
 20
-39.900000000000063
 30
0.0
 11
37.0150000000001
 21
-40.500000000000057
 31
0.0
  0
LINE
  5
ED
  8
1
 62
     7
 10
37.0150000000001
 20
-40.500000000000057
 30
0.0
 11
26.215000000000121
 21
-40.500000000000057
 31
0.0
  0
LINE
  5
EE
  8
1
 62
     7
 10
37.0150000000001
 20
-35.500000000000057
 30
0.0
 11
37.0150000000001
 21
-40.500000000000057
 31
0.0
  0
LINE
  5
EF
  8
1
 62
     3
 10
37.615000000000087
 20
-36.100000000000058
 30
0.0
 11
27.154230484541419
 21
-36.100000000000058
 31
0.0
  0
LINE
  5
F0
  8
1
 62
     3
 10
27.154230484541419
 20
-36.100000000000058
 30
0.0
 11
26.215000000000121
 21
-35.557735026919019
 31
0.0
  0
LINE
  5
F1
  8
1
 62
     3
 10
37.615000000000087
 20
-39.900000000000063
 30
0.0
 11
27.154230484541419
 21
-39.900000000000063
 31
0.0
  0
LINE
  5
F2
  8
1
 62
     3
 10
27.154230484541419
 20
-39.900000000000063
 30
0.0
 11
26.215000000000121
 21
-40.442264973081102
 31
0.0
  0
LINE
  5
F3
  8
1
 62
     3
 10
27.154230484541419
 20
-35.500000000000057
 30
0.0
 11
27.154230484541419
 21
-40.500000000000057
 31
0.0
  0
LINE
  5
F4
  8
1
 62
     7
 10
26.215000000000121
 20
-35.500000000000057
 30
0.0
 11
37.0150000000001
 21
-35.500000000000057
 31
0.0
  0
LINE
  5
F5
  8
1
 62
     7
 10
3.6150000000000091
 20
15.0
 30
0.0
 11
-9.3849999999999891
 21
15.0
 31
0.0
  0
LINE
  5
F6
  8
1
 62
     7
 10
3.6150000000000091
 20
29.000000000000011
 30
0.0
 11
3.6150000000000091
 21
15.0
 31
0.0
  0
LINE
  5
F7
  8
1
 62
     7
 10
3.6150000000000091
 20
27.500000000000011
 30
0.0
 11
-9.3850000000000886
 21
27.500000000000011
 31
0.0
  0
LINE
  5
F8
  8
1
 62
     7
 10
-116.2849999999999
 20
-42.499999999999957
 30
0.0
 11
-116.2849999999999
 21
71.0
 31
0.0
  0
LINE
  5
F9
  8
1
 62
     7
 10
-114.2849999999999
 20
-47.349999999999973
 30
0.0
 11
-114.2849999999999
 21
71.0
 31
0.0
  0
LINE
  5
FA
  8
1
 62
     7
 10
13.115
 20
53.849999999999902
 30
0.0
 11
13.115
 21
27.000000000000011
 31
0.0
  0
LINE
  5
FB
  8
1
 62
     7
 10
13.115
 20
-53.85000000000008
 30
0.0
 11
13.115
 21
-26.999999999999961
 31
0.0
  0
LINE
  5
FC
  8
1
 62
     7
 10
24.914999999999988
 20
54.0
 30
0.0
 11
24.914999999999988
 21
24.500000000000242
 31
0.0
  0
LINE
  5
FD
  8
1
 62
     7
 10
24.914999999999988
 20
-43.250000000000057
 30
0.0
 11
24.914999999999988
 21
-54.000000000000057
 31
0.0
  0
LINE
  5
FE
  8
1
 62
     7
 10
26.215
 20
-26.500000000000011
 30
0.0
 11
21.215
 21
-26.500000000000011
 31
0.0
  0
LINE
  5
FF
  8
1
 62
     7
 10
26.815000000000001
 20
-29.00000000000005
 30
0.0
 11
26.215
 21
-29.00000000000005
 31
0.0
  0
LINE
  5
100
  8
1
 62
     7
 10
26.815000000000001
 20
-47.000000000000057
 30
0.0
 11
26.215
 21
-47.000000000000057
 31
0.0
  0
LINE
  5
101
  8
1
 62
     7
 10
26.215
 20
54.0
 30
0.0
 11
26.215
 21
24.500000000000242
 31
0.0
  0
LINE
  5
102
  8
1
 62
     7
 10
-9.3849999999999891
 20
71.0
 30
0.0
 11
-9.3849999999999891
 21
-47.350000000000001
 31
0.0
  0
LINE
  5
103
  8
1
 62
     7
 10
-11.384999999999989
 20
68.25
 30
0.0
 11
-9.3849999999999891
 21
68.25
 31
0.0
  0
LINE
  5
104
  8
1
 62
     7
 10
-11.384999999999989
 20
61.75
 30
0.0
 11
-9.3849999999999891
 21
61.75
 31
0.0
  0
LINE
  5
105
  8
1
 62
     7
 10
26.815000000000001
 20
-40.500000000000057
 30
0.0
 11
26.815000000000001
 21
-53.000000000000057
 31
0.0
  0
LINE
  5
106
  8
1
 62
     7
 10
43.615000000000023
 20
-17.499999999999758
 30
0.0
 11
43.615000000000023
 21
-21.999999999999769
 31
0.0
  0
LINE
  5
107
  8
1
 62
     7
 10
38.890000000000022
 20
-17.801442841484761
 30
0.0
 11
35.51500000000005
 21
-17.801442841484761
 31
0.0
  0
LINE
  5
108
  8
1
 62
     7
 10
41.140000000000022
 20
-17.801442841484761
 30
0.0
 11
44.515000000000022
 21
-17.801442841484761
 31
0.0
  0
LINE
  5
109
  8
1
 62
     7
 10
41.140000000000022
 20
-21.69855715851477
 30
0.0
 11
44.515000000000022
 21
-21.69855715851477
 31
0.0
  0
LINE
  5
10A
  8
1
 62
     7
 10
38.890000000000022
 20
-21.69855715851477
 30
0.0
 11
35.51500000000005
 21
-21.69855715851477
 31
0.0
  0
LINE
  5
10B
  8
1
 62
     7
 10
27.415000000000049
 20
-21.999999999999769
 30
0.0
 11
27.415000000000049
 21
-17.499999999999758
 31
0.0
  0
LINE
  5
10C
  8
1
 62
     7
 10
35.51500000000005
 20
-17.801442841484761
 30
0.0
 11
32.14000000000005
 21
-17.801442841484761
 31
0.0
  0
LINE
  5
10D
  8
1
 62
     7
 10
26.51500000000005
 20
-17.801442841484761
 30
0.0
 11
29.89000000000005
 21
-17.801442841484761
 31
0.0
  0
LINE
  5
10E
  8
1
 62
     7
 10
26.51500000000005
 20
-21.69855715851477
 30
0.0
 11
29.89000000000005
 21
-21.69855715851477
 31
0.0
  0
LINE
  5
10F
  8
1
 62
     7
 10
35.51500000000005
 20
-21.69855715851477
 30
0.0
 11
32.14000000000005
 21
-21.69855715851477
 31
0.0
  0
LINE
  5
110
  8
1
 62
     7
 10
26.51500000000005
 20
-15.99999999999976
 30
0.0
 11
26.51500000000005
 21
-23.499999999999769
 31
0.0
  0
LINE
  5
111
  8
1
 62
     7
 10
26.51500000000005
 20
-23.499999999999769
 30
0.0
 11
44.515000000000022
 21
-23.499999999999769
 31
0.0
  0
LINE
  5
112
  8
1
 62
     7
 10
21.015000000000011
 20
-24.500000000000011
 30
0.0
 11
21.015000000000011
 21
-53.500000000000057
 31
0.0
  0
LINE
  5
113
  8
1
 62
     7
 10
21.215
 20
-24.500000000000011
 30
0.0
 11
21.215
 21
-54.000000000000057
 31
0.0
  0
LINE
  5
114
  8
1
 62
     7
 10
24.914999999999988
 20
-24.500000000000011
 30
0.0
 11
24.914999999999988
 21
-32.75000000000005
 31
0.0
  0
LINE
  5
115
  8
1
 62
     7
 10
26.215
 20
-24.500000000000011
 30
0.0
 11
26.215
 21
-54.000000000000057
 31
0.0
  0
LINE
  5
116
  8
1
 62
     7
 10
26.815000000000001
 20
-24.500000000000011
 30
0.0
 11
26.815000000000001
 21
-35.500000000000057
 31
0.0
  0
LINE
  5
117
  8
1
 62
     7
 10
27.415000000000092
 20
-24.500000000000011
 30
0.0
 11
27.415000000000099
 21
-35.500000000000057
 31
0.0
  0
LINE
  5
118
  8
1
 62
     7
 10
44.515000000000022
 20
15.99999999999997
 30
0.0
 11
44.515000000000022
 21
23.499999999999979
 31
0.0
  0
LINE
  5
119
  8
1
 62
     7
 10
43.615000000000023
 20
21.999999999999972
 30
0.0
 11
43.615000000000023
 21
17.499999999999972
 31
0.0
  0
LINE
  5
11A
  8
1
 62
     7
 10
35.51500000000005
 20
17.80144284148497
 30
0.0
 11
38.890000000000022
 21
17.80144284148497
 31
0.0
  0
LINE
  5
11B
  8
1
 62
     7
 10
44.515000000000022
 20
17.80144284148497
 30
0.0
 11
41.140000000000022
 21
17.80144284148497
 31
0.0
  0
LINE
  5
11C
  8
1
 62
     7
 10
44.515000000000022
 20
21.698557158514959
 30
0.0
 11
41.140000000000022
 21
21.698557158514959
 31
0.0
  0
LINE
  5
11D
  8
1
 62
     7
 10
35.51500000000005
 20
21.698557158514959
 30
0.0
 11
38.890000000000022
 21
21.698557158514959
 31
0.0
  0
LINE
  5
11E
  8
1
 62
     7
 10
44.515000000000022
 20
15.99999999999997
 30
0.0
 11
44.515000000000022
 21
23.499999999999979
 31
0.0
  0
LINE
  5
11F
  8
1
 62
     7
 10
27.415000000000049
 20
17.499999999999972
 30
0.0
 11
27.415000000000049
 21
21.999999999999972
 31
0.0
  0
LINE
  5
120
  8
1
 62
     7
 10
32.14000000000005
 20
17.80144284148497
 30
0.0
 11
35.51500000000005
 21
17.80144284148497
 31
0.0
  0
LINE
  5
121
  8
1
 62
     7
 10
29.89000000000005
 20
17.80144284148497
 30
0.0
 11
26.51500000000005
 21
17.80144284148497
 31
0.0
  0
LINE
  5
122
  8
1
 62
     7
 10
29.89000000000005
 20
21.698557158514959
 30
0.0
 11
26.51500000000005
 21
21.698557158514959
 31
0.0
  0
LINE
  5
123
  8
1
 62
     7
 10
32.14000000000005
 20
21.698557158514959
 30
0.0
 11
35.51500000000005
 21
21.698557158514959
 31
0.0
  0
LINE
  5
124
  8
1
 62
     7
 10
26.51500000000005
 20
23.499999999999961
 30
0.0
 11
26.51500000000005
 21
15.99999999999997
 31
0.0
  0
LINE
  5
125
  8
1
 62
     7
 10
44.515000000000022
 20
23.499999999999979
 30
0.0
 11
26.51500000000005
 21
23.499999999999961
 31
0.0
  0
LINE
  5
126
  8
1
 62
     7
 10
44.515000000000022
 20
20.50000000000016
 30
0.0
 11
47.015000000000022
 21
20.50000000000016
 31
0.0
  0
LINE
  5
127
  8
1
 62
     7
 10
20.615000000000009
 20
19.0
 30
0.0
 11
26.51500000000005
 21
19.0
 31
0.0
  0
LINE
  5
128
  8
1
 62
     7
 10
26.51500000000005
 20
15.99999999999997
 30
0.0
 11
46.315000000000012
 21
15.99999999999997
 31
0.0
  0
LINE
  5
129
  8
1
 62
     7
 10
47.015000000000022
 20
19.500000000000028
 30
0.0
 11
47.015000000000022
 21
26.999999999999901
 31
0.0
  0
LINE
  5
12A
  8
1
 62
     7
 10
26.51500000000005
 20
-18.999999999999869
 30
0.0
 11
20.615000000000009
 21
-18.999999999999869
 31
0.0
  0
LINE
  5
12B
  8
1
 62
     7
 10
49.615000000000009
 20
-15.99999999999984
 30
0.0
 11
47.815000000000012
 21
-15.99999999999984
 31
0.0
  0
LINE
  5
12C
  8
1
 62
     7
 10
49.615000000000009
 20
15.99999999999997
 30
0.0
 11
49.615000000000009
 21
-15.99999999999984
 31
0.0
  0
LINE
  5
12D
  8
1
 62
     7
 10
20.615000000000009
 20
-18.999999999999869
 30
0.0
 11
20.615000000000009
 21
-23.499999999999989
 31
0.0
  0
LINE
  5
12E
  8
1
 62
     7
 10
47.815000000000012
 20
-15.149999999999981
 30
0.0
 11
46.315000000000012
 21
-15.149999999999981
 31
0.0
  0
LINE
  5
12F
  8
1
 62
     7
 10
47.815000000000012
 20
-19.049999999999969
 30
0.0
 11
47.815000000000012
 21
-15.149999999999981
 31
0.0
  0
LINE
  5
130
  8
1
 62
     7
 10
46.315000000000012
 20
-19.049999999999969
 30
0.0
 11
47.815000000000012
 21
-19.049999999999969
 31
0.0
  0
LINE
  5
131
  8
1
 62
     7
 10
46.315000000000012
 20
-15.149999999999981
 30
0.0
 11
46.315000000000012
 21
-19.499999999999961
 31
0.0
  0
LINE
  5
132
  8
1
 62
     7
 10
47.815000000000012
 20
15.150000000000031
 30
0.0
 11
46.315000000000012
 21
15.150000000000031
 31
0.0
  0
LINE
  5
133
  8
1
 62
     7
 10
47.815000000000012
 20
19.050000000000029
 30
0.0
 11
47.815000000000012
 21
15.150000000000031
 31
0.0
  0
LINE
  5
134
  8
1
 62
     7
 10
46.315000000000012
 20
19.050000000000029
 30
0.0
 11
47.815000000000012
 21
19.050000000000029
 31
0.0
  0
LINE
  5
135
  8
1
 62
     7
 10
46.315000000000012
 20
15.150000000000031
 30
0.0
 11
46.315000000000012
 21
19.500000000000028
 31
0.0
  0
LINE
  5
136
  8
1
 62
     7
 10
44.515000000000001
 20
-19.499999999999961
 30
0.0
 11
46.315000000000012
 21
-19.499999999999961
 31
0.0
  0
LINE
  5
137
  8
1
 62
     7
 10
46.315000000000012
 20
19.500000000000028
 30
0.0
 11
44.515000000000001
 21
19.500000000000028
 31
0.0
  0
LINE
  5
138
  8
1
 62
     7
 10
44.515000000000022
 20
-23.499999999999769
 30
0.0
 11
44.515000000000022
 21
-15.99999999999984
 31
0.0
  0
LINE
  5
139
  8
1
 62
     7
 10
46.315000000000012
 20
-15.99999999999984
 30
0.0
 11
26.51500000000005
 21
-15.99999999999976
 31
0.0
  0
LINE
  5
13A
  8
1
 62
     7
 10
47.815000000000012
 20
15.99999999999997
 30
0.0
 11
49.615000000000009
 21
15.99999999999997
 31
0.0
  0
LINE
  5
13B
  8
1
 62
     7
 10
5.6150000000000082
 20
10.50000000000127
 30
0.0
 11
5.6150000000000082
 21
-10.499999999998741
 31
0.0
  0
LINE
  5
13C
  8
1
 62
     7
 10
5.6150000000000082
 20
-10.499999999998741
 30
0.0
 11
34.615000000000009
 21
-10.49999999999946
 31
0.0
  0
LINE
  5
13D
  8
1
 62
     7
 10
34.615000000000009
 20
-10.49999999999946
 30
0.0
 11
34.615000000000542
 21
10.500000000000529
 31
0.0
  0
LINE
  5
13E
  8
1
 62
     7
 10
34.615000000000542
 20
10.500000000000529
 30
0.0
 11
5.6150000000000082
 21
10.50000000000127
 31
0.0
  0
LINE
  5
13F
  8
1
 62
     7
 10
5.6150000000000082
 20
9.9999999999999876
 30
0.0
 11
-9.378594436441503
 21
9.9999999999999876
 31
0.0
  0
LINE
  5
140
  8
1
 62
     7
 10
34.615000000000009
 20
-9.9999999999999876
 30
0.0
 11
49.615000000000002
 21
-9.9999999999999876
 31
0.0
  0
LINE
  5
141
  8
1
 62
     7
 10
-65.885000000000019
 20
-26.999999999999901
 30
0.0
 11
-57.885000000000012
 21
-26.999999999999901
 31
0.0
  0
LINE
  5
142
  8
1
 62
     7
 10
-65.885000000000019
 20
-42.999999999999979
 30
0.0
 11
-65.885000000000019
 21
-26.999999999999901
 31
0.0
  0
LINE
  5
143
  8
1
 62
     7
 10
-74.885000000000005
 20
-42.999999999999979
 30
0.0
 11
-65.885000000000019
 21
-42.999999999999979
 31
0.0
  0
LINE
  5
144
  8
1
 62
     7
 10
-65.885000000000019
 20
42.999999999999979
 30
0.0
 11
-74.885000000000005
 21
42.999999999999979
 31
0.0
  0
LINE
  5
145
  8
1
 62
     7
 10
-65.885000000000019
 20
26.999999999999901
 30
0.0
 11
-65.885000000000019
 21
42.999999999999979
 31
0.0
  0
LINE
  5
146
  8
1
 62
     7
 10
-57.885000000000012
 20
26.999999999999901
 30
0.0
 11
-65.885000000000019
 21
26.999999999999901
 31
0.0
  0
LINE
  5
147
  8
1
 62
     7
 10
-57.885000000000012
 20
-26.999999999999901
 30
0.0
 11
-57.885000000000012
 21
26.999999999999901
 31
0.0
  0
LINE
  5
148
  8
1
 62
     7
 10
-74.885000000000005
 20
-43.500000000000057
 30
0.0
 11
-74.885000000000005
 21
42.999999999999979
 31
0.0
  0
LINE
  5
149
  8
1
 62
     7
 10
-65.885000000000019
 20
-26.999999999999901
 30
0.0
 11
-65.885000000000019
 21
26.999999999999901
 31
0.0
  0
LINE
  5
14A
  8
1
 62
     7
 10
-55.285000000000011
 20
15.99999999999997
 30
0.0
 11
-55.285000000000011
 21
-15.99999999999984
 31
0.0
  0
LINE
  5
14B
  8
1
 62
     7
 10
-57.085000000000022
 20
19.050000000000029
 30
0.0
 11
-57.085000000000022
 21
-19.049999999999969
 31
0.0
  0
LINE
  5
14C
  8
1
 62
     7
 10
-57.885000000000012
 20
19.050000000000029
 30
0.0
 11
-57.085000000000022
 21
19.050000000000029
 31
0.0
  0
LINE
  5
14D
  8
1
 62
     7
 10
-57.085000000000022
 20
15.99999999999997
 30
0.0
 11
-55.285000000000011
 21
15.99999999999997
 31
0.0
  0
LINE
  5
14E
  8
1
 62
     7
 10
-55.285000000000011
 20
-15.99999999999984
 30
0.0
 11
-57.085000000000022
 21
-15.99999999999984
 31
0.0
  0
LINE
  5
14F
  8
1
 62
     7
 10
-57.885000000000012
 20
-19.049999999999969
 30
0.0
 11
-57.085000000000022
 21
-19.049999999999969
 31
0.0
  0
LINE
  5
150
  8
1
 62
     3
 10
39.015000000000022
 20
32.500000000000028
 30
0.0
 11
30.015000000000011
 21
32.500000000000028
 31
0.0
  0
LINE
  5
151
  8
1
 62
     3
 10
30.015000000000011
 20
37.500000000000028
 30
0.0
 11
39.015000000000022
 21
37.500000000000028
 31
0.0
  0
LINE
  5
152
  8
1
 62
     7
 10
39.015000000000022
 20
33.100000000000037
 30
0.0
 11
30.015000000000011
 21
33.100000000000037
 31
0.0
  0
LINE
  5
153
  8
1
 62
     7
 10
30.015000000000011
 20
36.900000000000041
 30
0.0
 11
39.015000000000022
 21
36.900000000000041
 31
0.0
  0
LINE
  5
154
  8
1
  6
DASHDOT
 62
     3
 10
42.015000000000022
 20
35.000000000000028
 30
0.0
 11
27.015000000000018
 21
35.000000000000028
 31
0.0
  0
ARC
  5
155
  8
1
 62
     7
 10
105.07632052804151
 20
19.000000000000028
 30
0.0
 40
5.5000000000000409
 50
123.7057771055219
 51
176.29422289447871
  0
ARC
  5
156
  8
1
 62
     7
 10
170.89425121565881
 20
19.0
 30
0.0
 40
5.4999999999999121
 50
3.705777105521721
 51
56.294222894479297
  0
ARC
  5
157
  8
1
 62
     7
 10
137.9852858718501
 20
-37.999999999999957
 30
0.0
 40
5.4999999999999734
 50
243.70577710552169
 51
296.29422289447859
  0
ARC
  5
158
  8
1
  6
DASHDOT
 62
     3
 10
137.9852858718501
 20
0.0000000000000426
 30
0.0
 40
34.999999999999993
 50
320.95890385142462
 51
339.04109614857509
  0
ARC
  5
159
  8
1
  6
DASHDOT
 62
     3
 10
137.9852858718501
 20
0.0000000000000426
 30
0.0
 40
35.000000000000028
 50
200.95890385142491
 51
219.04109614857509
  0
ARC
  5
15A
  8
1
  6
DASHDOT
 62
     3
 10
137.9852858718501
 20
0.0000000000000426
 30
0.0
 40
34.999999999999993
 50
80.95890385142485
 51
99.041096148575164
  0
ARC
  5
15B
  8
1
 62
     7
 10
123.98528587185
 20
-24.24871130596426
 30
0.0
 40
25.000000000000028
 50
239.99999999999989
 51
291.61827242215691
  0
ARC
  5
15C
  8
1
 62
     7
 10
137.9852858718501
 20
-59.575754771275633
 30
0.0
 40
13.00000000000002
 50
68.381727577842071
 51
111.6182724221604
  0
ARC
  5
15D
  8
1
 62
     7
 10
151.9852858718501
 20
-24.248711305964228
 30
0.0
 40
25.000000000000028
 50
248.38172757784139
 51
299.99999999999977
  0
ARC
  5
15E
  8
1
 62
     7
 10
123.98528587185
 20
24.248711305964321
 30
0.0
 40
25.000000000000028
 50
119.9999999999999
 51
171.6182724221571
  0
ARC
  5
15F
  8
1
 62
     7
 10
86.391168790293392
 20
29.787877385637842
 30
0.0
 40
13.00000000000006
 50
308.38172757784213
 51
351.61827242216032
  0
ARC
  5
160
  8
1
 62
     7
 10
109.9852858718501
 20
0.0000000000000071
 30
0.0
 40
24.99999999999994
 50
128.38172757784159
 51
179.99999999999989
  0
ARC
  5
161
  8
1
 62
     7
 10
189.5794029534068
 20
29.787877385637842
 30
0.0
 40
12.99999999999997
 50
188.3817275778396
 51
231.61827242215799
  0
ARC
  5
162
  8
1
 62
     7
 10
165.9852858718501
 20
0.0000000000000071
 30
0.0
 40
25.00000000000011
 50
359.99999999999972
 51
51.618272422158242
  0
ARC
  5
163
  8
1
 62
     7
 10
-3.38499999999999
 20
33.0
 30
0.0
 40
6.0
 50
180.0
 51
246.44353569089921
  0
ARC
  5
164
  8
1
 62
     7
 10
-3.38499999999999
 20
47.34999999999998
 30
0.0
 40
6.0000000000000488
 50
90.0
 51
180.0
  0
ARC
  5
165
  8
1
 62
     7
 10
-3.38499999999999
 20
-32.999999999999957
 30
0.0
 40
6.0000000000000142
 50
113.5564643091017
 51
180.0
  0
ARC
  5
166
  8
1
 62
     7
 10
-3.38499999999999
 20
-47.350000000000009
 30
0.0
 40
6.0
 50
180.0
 51
270.0
  0
ARC
  5
167
  8
1
 62
     7
 10
-108.285
 20
47.35000000000003
 30
0.0
 40
6.0
 50
90.0
 51
180.0
  0
ARC
  5
168
  8
1
 62
     7
 10
-108.285
 20
-47.349999999999973
 30
0.0
 40
6.0
 50
180.0
 51
270.0
  0
ARC
  5
169
  8
1
 62
     7
 10
137.9852858718501
 20
0.0000000000000426
 30
0.0
 40
53.0
 50
60.0
 51
119.9999999999999
  0
ARC
  5
16A
  8
1
 62
     7
 10
151.98528587185001
 20
24.248711305964321
 30
0.0
 40
25.000000000000028
 50
8.3817275778429376
 51
60.0
  0
ARC
  5
16B
  8
1
 62
     7
 10
137.9852858718501
 20
0.0000000000000426
 30
0.0
 40
53.0
 50
180.0
 51
239.99999999999989
  0
ARC
  5
16C
  8
1
 62
     7
 10
137.9852858718501
 20
0.0000000000000426
 30
0.0
 40
52.999999999999972
 50
300.00000000000011
 51
359.99999999999977
  0
ARC
  5
16D
  8
1
 62
     7
 10
131.98528587185001
 20
69.0
 30
0.0
 40
2.0
 50
90.0
 51
180.0
  0
ARC
  5
16E
  8
1
 62
     7
 10
143.98528587185001
 20
69.0
 30
0.0
 40
2.0
 50
0.0
 51
90.0
  0
ARC
  5
16F
  8
1
 62
     7
 10
26.46468028912901
 20
-38.271788836374853
 30
0.0
 40
5.2000000000001583
 50
105.0435939075581
 51
147.7891631322141
  0
ARC
  5
170
  8
1
 62
     7
 10
26.46468028912901
 20
-37.728211163625261
 30
0.0
 40
5.2000000000002169
 50
212.2108368677859
 51
254.95640609244191
  0
ARC
  5
171
  8
1
 62
     7
 10
137.9852858718501
 20
0.0000000000000426
 30
0.0
 40
9.9999999999999911
 50
107.45760312372209
 51
72.542396876277905
  0
CIRCLE
  5
172
  8
1
 62
     7
 10
137.9852858718501
 20
0.0000000000000426
 30
0.0
 40
20.499999999999918
  0
CIRCLE
  5
173
  8
1
 62
     7
 10
137.9852858718501
 20
0.0000000000000426
 30
0.0
 40
16.0
  0
CIRCLE
  5
174
  8
1
 62
     3
 10
168.29617500430541
 20
-17.499999999999989
 30
0.0
 40
2.5000000000000022
  0
CIRCLE
  5
175
  8
1
 62
     7
 10
168.29617500430541
 20
-17.499999999999989
 30
0.0
 40
1.9000000000000059
  0
CIRCLE
  5
176
  8
1
 62
     3
 10
107.67439673939469
 20
-17.499999999999961
 30
0.0
 40
2.5000000000000129
  0
CIRCLE
  5
177
  8
1
 62
     7
 10
107.67439673939469
 20
-17.499999999999961
 30
0.0
 40
1.9000000000000099
  0
CIRCLE
  5
178
  8
1
 62
     3
 10
137.9852858718501
 20
35.000000000000028
 30
0.0
 40
2.5
  0
CIRCLE
  5
179
  8
1
 62
     7
 10
137.9852858718501
 20
35.000000000000028
 30
0.0
 40
1.900000000000005
  0
CIRCLE
  5
17A
  8
1
 62
     7
 10
137.9852858718501
 20
0.0000000000000426
 30
0.0
 40
43.0
  0
CIRCLE
  5
17B
  8
1
 62
     7
 10
137.9852858718501
 20
0.0000000000000426
 30
0.0
 40
27.0
  0
CIRCLE
  5
17C
  8
1
 62
     7
 10
-2.88499999999999
 20
-21.25
 30
0.0
 40
3.75
  0
CIRCLE
  5
17D
  8
1
 62
     7
 10
-2.88499999999999
 20
21.25
 30
0.0
 40
3.75
  0
CIRCLE
  5
17E
  8
1
 62
     7
 10
137.9852858718501
 20
0.0000000000000426
 30
0.0
 40
56.5
  0
CIRCLE
  5
17F
  8
1
 62
     7
 10
137.9852858718501
 20
47.500000000000021
 30
0.0
 40
4.5
  0
CIRCLE
  5
180
  8
1
 62
     7
 10
137.9852858718501
 20
-37.999999999999957
 30
0.0
 40
2.5
  0
CIRCLE
  5
181
  8
1
 62
     7
 10
137.9852858718501
 20
-37.999999999999957
 30
0.0
 40
2.0000000000001141
  0
CIRCLE
  5
182
  8
1
 62
     7
 10
96.84907919208932
 20
-23.749999999999989
 30
0.0
 40
4.5
  0
CIRCLE
  5
183
  8
1
 62
     7
 10
179.121492551611
 20
-23.75
 30
0.0
 40
4.5
  0
CIRCLE
  5
184
  8
1
 62
     7
 10
170.89425121565881
 20
19.0
 30
0.0
 40
2.5
  0
CIRCLE
  5
185
  8
1
 62
     7
 10
170.89425121565881
 20
19.0
 30
0.0
 40
2.0
  0
CIRCLE
  5
186
  8
1
 62
     7
 10
105.07632052804151
 20
19.000000000000028
 30
0.0
 40
2.5
  0
CIRCLE
  5
187
  8
1
 62
     7
 10
105.07632052804151
 20
19.000000000000028
 30
0.0
 40
2.0
  0
CIRCLE
  5
188
  8
1
 62
     7
 10
96.84907919208932
 20
-23.749999999999989
 30
0.0
 40
4.5
  0
CIRCLE
  5
189
  8
1
 62
     7
 10
137.9852858718501
 20
0.0000000000000426
 30
0.0
 40
54.0
  0
CIRCLE
  5
18A
  8
1
 62
     7
 10
137.9852858718501
 20
65.0
 30
0.0
 40
3.25
  0
CIRCLE
  5
18B
  8
1
 62
     7
 10
40.015000000000022
 20
-19.749999999999758
 30
0.0
 40
2.25
  0
CIRCLE
  5
18C
  8
1
 62
     7
 10
31.01500000000005
 20
-19.749999999999758
 30
0.0
 40
2.25
  0
CIRCLE
  5
18D
  8
1
 62
     7
 10
40.015000000000022
 20
19.749999999999961
 30
0.0
 40
2.25
  0
CIRCLE
  5
18E
  8
1
 62
     7
 10
31.01500000000005
 20
19.749999999999961
 30
0.0
 40
2.25
  0
TEXT
  5
190
  8
1
 62
     7
 10
-125.2272872160337
 20
118.7459845498056
 30
0.0
 40
4.0
  1
VCS 2.5P
 41
0.9
  7
SIMPLEX
  0
ENDSEC
  0
EOF
