  0
SECTION
  2
HEADER
  9
$ACADVER
  1
AC1009
  9
$INSBASE
 10
0.0
 20
0.0
 30
0.0
  9
$EXTMIN
 10
-87.240516575553997
 20
-35.0
 30
0.0
  9
$EXTMAX
 10
186.71140224891019
 20
88.821942446043224
 30
0.0
  9
$LIMMIN
 10
-87.240516575553968
 20
-35.0
  9
$LIMMAX
 10
185.16157027496979
 20
88.821942446043195
  9
$ORTHOMODE
 70
     0
  9
$REGENMODE
 70
     1
  9
$FILLMODE
 70
     1
  9
$QTEXTMODE
 70
     0
  9
$MIRRTEXT
 70
     1
  9
$DRAGMODE
 70
     2
  9
$LTSCALE
 40
1.0
  9
$OSMODE
 70
    37
  9
$ATTMODE
 70
     1
  9
$TEXTSIZE
 40
3.5
  9
$TRACEWID
 40
0.5
  9
$TEXTSTYLE
  7
STANDARD
  9
$CLAYER
  8
0
  9
$CELTYPE
  6
BYLAYER
  9
$CECOLOR
 62
   256
  9
$DIMSCALE
 40
1.0
  9
$DIMASZ
 40
0.18
  9
$DIMEXO
 40
0.0625
  9
$DIMDLI
 40
0.38
  9
$DIMRND
 40
0.0
  9
$DIMDLE
 40
0.0
  9
$DIMEXE
 40
0.18
  9
$DIMTP
 40
0.0
  9
$DIMTM
 40
0.0
  9
$DIMTXT
 40
0.18
  9
$DIMCEN
 40
0.09
  9
$DIMTSZ
 40
0.0
  9
$DIMTOL
 70
     0
  9
$DIMLIM
 70
     0
  9
$DIMTIH
 70
     1
  9
$DIMTOH
 70
     1
  9
$DIMSE1
 70
     0
  9
$DIMSE2
 70
     0
  9
$DIMTAD
 70
     0
  9
$DIMZIN
 70
     0
  9
$DIMBLK
  1

  9
$DIMASO
 70
     1
  9
$DIMSHO
 70
     1
  9
$DIMPOST
  1

  9
$DIMAPOST
  1

  9
$DIMALT
 70
     0
  9
$DIMALTD
 70
     2
  9
$DIMALTF
 40
25.399999999999999
  9
$DIMLFAC
 40
1.0
  9
$DIMTOFL
 70
     0
  9
$DIMTVP
 40
0.0
  9
$DIMTIX
 70
     0
  9
$DIMSOXD
 70
     0
  9
$DIMSAH
 70
     0
  9
$DIMBLK1
  1

  9
$DIMBLK2
  1

  9
$DIMSTYLE
  2
STANDARD
  9
$DIMCLRD
 70
     0
  9
$DIMCLRE
 70
     0
  9
$DIMCLRT
 70
     0
  9
$DIMTFAC
 40
1.0
  9
$DIMGAP
 40
0.09
  9
$LUNITS
 70
     2
  9
$LUPREC
 70
     4
  9
$SKETCHINC
 40
0.1
  9
$FILLETRAD
 40
2.0
  9
$AUNITS
 70
     0
  9
$AUPREC
 70
     0
  9
$MENU
  1
ACAD
  9
$ELEVATION
 40
0.0
  9
$PELEVATION
 40
0.0
  9
$THICKNESS
 40
0.0
  9
$LIMCHECK
 70
     0
  9
$BLIPMODE
 70
     0
  9
$CHAMFERA
 40
0.0
  9
$CHAMFERB
 40
0.0
  9
$SKPOLY
 70
     0
  9
$TDCREATE
 40
2452095.367783912
  9
$TDUPDATE
 40
2452095.3690496529
  9
$TDINDWG
 40
0.0012759259
  9
$TDUSRTIMER
 40
0.0012759259
  9
$USRTIMER
 70
     1
  9
$ANGBASE
 50
0.0
  9
$ANGDIR
 70
     0
  9
$PDMODE
 70
     0
  9
$PDSIZE
 40
0.0
  9
$PLINEWID
 40
0.0
  9
$COORDS
 70
     1
  9
$SPLFRAME
 70
     0
  9
$SPLINETYPE
 70
     6
  9
$SPLINESEGS
 70
     8
  9
$ATTDIA
 70
     0
  9
$ATTREQ
 70
     1
  9
$HANDLING
 70
 10241
  9
$HANDSEED
  5
17F
  9
$SURFTAB1
 70
     6
  9
$SURFTAB2
 70
     6
  9
$SURFTYPE
 70
     6
  9
$SURFU
 70
     6
  9
$SURFV
 70
     6
  9
$UCSNAME
  2

  9
$UCSORG
 10
0.0
 20
0.0
 30
0.0
  9
$UCSXDIR
 10
1.0
 20
0.0
 30
0.0
  9
$UCSYDIR
 10
0.0
 20
1.0
 30
0.0
  9
$PUCSNAME
  2

  9
$PUCSORG
 10
0.0
 20
0.0
 30
0.0
  9
$PUCSXDIR
 10
1.0
 20
0.0
 30
0.0
  9
$PUCSYDIR
 10
0.0
 20
1.0
 30
0.0
  9
$USERI1
 70
     0
  9
$USERI2
 70
     0
  9
$USERI3
 70
     0
  9
$USERI4
 70
     0
  9
$USERI5
 70
     0
  9
$USERR1
 40
0.0
  9
$USERR2
 40
0.0
  9
$USERR3
 40
0.0
  9
$USERR4
 40
0.0
  9
$USERR5
 40
0.0
  9
$WORLDVIEW
 70
     1
  9
$SHADEDGE
 70
     3
  9
$SHADEDIF
 70
    70
  9
$TILEMODE
 70
     1
  9
$MAXACTVP
 70
    64
  9
$PLIMCHECK
 70
     0
  9
$PEXTMIN
 10
1.0000000000000000E+020
 20
1.0000000000000000E+020
 30
1.0000000000000000E+020
  9
$PEXTMAX
 10
-1.0000000000000000E+020
 20
-1.0000000000000000E+020
 30
-1.0000000000000000E+020
  9
$PLIMMIN
 10
0.0
 20
0.0
  9
$PLIMMAX
 10
12.0
 20
9.0
  9
$UNITMODE
 70
     0
  9
$VISRETAIN
 70
     1
  9
$PLINEGEN
 70
     0
  9
$PSLTSCALE
 70
     1
  0
ENDSEC
  0
SECTION
  2
TABLES
  0
TABLE
  2
VPORT
 70
     2
  0
VPORT
  2
*ACTIVE
 70
     0
 10
0.0
 20
0.0
 11
1.0
 21
1.0
 12
-48.977686588387783
 22
84.56409473197894
 13
0.0
 23
0.0
 14
1.0
 24
1.0
 15
0.0
 25
0.0
 16
0.0
 26
0.0
 36
1.0
 17
0.0
 27
0.0
 37
0.0
 40
8.9999999734012022
 41
2.4144144144144142
 42
50.0
 43
0.0
 44
0.0
 50
0.0
 51
0.0
 71
     0
 72
   100
 73
     1
 74
     1
 75
     0
 76
     0
 77
     0
 78
     0
  0
ENDTAB
  0
TABLE
  2
LTYPE
 70
     9
  0
LTYPE
  2
CONTINUOUS
 70
     0
  3
Solid line
 72
    65
 73
     0
 40
0.0
  0
LTYPE
  2
BORDER
 70
     0
  3
__ __ . __ __ .
 72
    65
 73
     6
 40
12.54483294706359
 49
3.5842379848753132
 49
-1.7921189924376559
 49
3.5842379848753132
 49
-1.7921189924376559
 49
0.0
 49
-1.7921189924376559
  0
LTYPE
  2
CENTER
 70
     0
  3
____ _ ____ _
 72
    65
 73
     4
 40
14.336951939501249
 49
8.9605949621882832
 49
-1.7921189924376559
 49
1.7921189924376559
 49
-1.7921189924376559
  0
LTYPE
  2
DASHDOT
 70
     0
  3
__ . __ . __ .
 72
    65
 73
     4
 40
7.1684759697506264
 49
3.5842379848753132
 49
-1.7921189924376559
 49
0.0
 49
-1.7921189924376559
  0
LTYPE
  2
DASHED
 70
     0
  3
__ __ __ __ __
 72
    65
 73
     2
 40
5.3763569773129696
 49
3.5842379848753132
 49
-1.7921189924376559
  0
LTYPE
  2
DIVIDE
 70
     0
  3
__ . . __ . . 
 72
    65
 73
     6
 40
8.9605949621882832
 49
3.5842379848753132
 49
-1.7921189924376559
 49
0.0
 49
-1.7921189924376559
 49
0.0
 49
-1.7921189924376559
  0
LTYPE
  2
DOT
 70
     0
  3
..............
 72
    65
 73
     4
 40
3.5842379848753132
 49
0.0
 49
-1.7921189924376559
 49
0.0
 49
-1.7921189924376559
  0
LTYPE
  2
HIDDEN
 70
     0
  3
_ _ _ _ _ _ _
 72
    65
 73
     2
 40
2.6881784886564848
 49
1.7921189924376559
 49
-0.8960594962188283
  0
LTYPE
  2
PHANTOM
 70
     0
  3
_____ _ _ _____ _ _ 
 72
    65
 73
     6
 40
17.921189924376559
 49
8.9605949621882832
 49
-1.7921189924376559
 49
1.7921189924376559
 49
-1.7921189924376559
 49
1.7921189924376559
 49
-1.7921189924376559
  0
ENDTAB
  0
TABLE
  2
LAYER
 70
     2
  0
LAYER
  2
0
 70
     0
 62
     7
  6
CONTINUOUS
  0
LAYER
  2
1
 70
     0
 62
     7
  6
CONTINUOUS
  0
ENDTAB
  0
TABLE
  2
STYLE
 70
     4
  0
STYLE
  2
STANDARD
 70
     0
 40
0.0
 41
1.0
 50
0.0
 71
     0
 42
3.5
  3
txt
  4

  0
STYLE
  2
SIMPLEX
 70
     0
 40
0.0
 41
1.0
 50
0.0
 71
     0
 42
3.5
  3
simplex
  4

  0
STYLE
  2
COMPLEX
 70
     0
 40
0.0
 41
1.0
 50
0.0
 71
     0
 42
3.5
  3
complex
  4

  0
STYLE
  2
ITALIC
 70
     0
 40
0.0
 41
1.0
 50
0.0
 71
     0
 42
3.5
  3
italic
  4

  0
ENDTAB
  0
TABLE
  2
VIEW
 70
     0
  0
ENDTAB
  0
TABLE
  2
UCS
 70
     0
  0
ENDTAB
  0
TABLE
  2
APPID
 70
     1
  0
APPID
  2
ACAD
 70
     0
  0
ENDTAB
  0
TABLE
  2
DIMSTYLE
 70
     1
  0
DIMSTYLE
  2
STANDARD
 70
     0
  3

  4

  5

  6

  7

 40
1.0
 41
0.18
 42
0.0625
 43
0.38
 44
0.18
 45
0.0
 46
0.0
 47
0.0
 48
0.0
140
0.18
141
0.09
142
0.0
143
25.399999999999999
144
1.0
145
0.0
146
1.0
147
0.09
 71
     0
 72
     0
 73
     1
 74
     1
 75
     0
 76
     0
 77
     0
 78
     0
170
     0
171
     2
172
     0
173
     0
174
     0
175
     0
176
     0
177
     0
178
     0
  0
ENDTAB
  0
ENDSEC
  0
SECTION
  2
BLOCKS
  0
BLOCK
  8
0
  2
$MODEL_SPACE
 70
     0
 10
0.0
 20
0.0
 30
0.0
  3
$MODEL_SPACE
  1

  0
ENDBLK
  5
20
  8
0
  0
BLOCK
 67
     1
  8
0
  2
$PAPER_SPACE
 70
     0
 10
0.0
 20
0.0
 30
0.0
  3
$PAPER_SPACE
  1

  0
ENDBLK
  5
1C
 67
     1
  8
0
  0
ENDSEC
  0
SECTION
  2
ENTITIES
  0
LINE
  5
33
  8
1
 62
     7
 10
3.7099999999999871
 20
32.900000000000013
 30
0.0
 11
3.7099999999999871
 21
-32.900000000000013
 31
0.0
  0
LINE
  5
34
  8
1
 62
     7
 10
3.7099999999999871
 20
-32.900000000000013
 30
0.0
 11
1.71
 21
-30.900000000000031
 31
0.0
  0
LINE
  5
35
  8
1
 62
     7
 10
1.71
 20
30.900000000000031
 30
0.0
 11
3.7099999999999871
 21
32.900000000000013
 31
0.0
  0
LINE
  5
36
  8
1
 62
     7
 10
0.1099999999999994
 20
45.999999999999993
 30
0.0
 11
0.1099999999999994
 21
-28.0
 31
0.0
  0
LINE
  5
37
  8
1
 62
     7
 10
0.1099999999999994
 20
45.999999999999993
 30
0.0
 11
1.71
 21
45.999999999999993
 31
0.0
  0
LINE
  5
38
  8
1
 62
     7
 10
0.1099999999999994
 20
-28.0
 30
0.0
 11
1.71
 21
-28.0
 31
0.0
  0
LINE
  5
39
  8
1
  6
DASHDOT
 62
     3
 10
-1.1715205823506949
 20
40.999999999999993
 30
0.0
 11
2.5995057571413791
 21
40.999999999999993
 31
0.0
  0
LINE
  5
3A
  8
1
  6
DASHDOT
 62
     3
 10
0.1099999999999994
 20
0.0
 30
0.0
 11
-2.8783966457205059
 21
0.0
 31
0.0
  0
LINE
  5
3B
  8
1
 62
     7
 10
1.71
 20
-30.900000000000031
 30
0.0
 11
1.71
 21
45.999999999999993
 31
0.0
  0
LINE
  5
3C
  8
1
 62
     7
 10
69.536569474524498
 20
-10.0
 30
0.0
 11
69.536569474524498
 21
-18.500000000000011
 31
0.0
  0
LINE
  5
3D
  8
1
 62
     7
 10
69.536569474524498
 20
-17.0
 30
0.0
 11
62.536569474524498
 21
-17.0
 31
0.0
  0
LINE
  5
3E
  8
1
 62
     7
 10
64.536569474524498
 20
-32.900000000000013
 30
0.0
 11
62.536569474524498
 21
-30.900000000000031
 31
0.0
  0
LINE
  5
3F
  8
1
 62
     7
 10
69.536569474524498
 20
18.499999999999979
 30
0.0
 11
69.536569474524498
 21
10.0
 31
0.0
  0
LINE
  5
40
  8
1
 62
     7
 10
62.536569474524498
 20
17.0
 30
0.0
 11
69.536569474524498
 21
17.0
 31
0.0
  0
LINE
  5
41
  8
1
 62
     7
 10
62.536569474524498
 20
30.900000000000031
 30
0.0
 11
64.536569474524498
 21
32.900000000000013
 31
0.0
  0
LINE
  5
42
  8
1
 62
     7
 10
87.576569474524476
 20
-33.399999999999991
 30
0.0
 11
87.576569474524476
 21
-17.999999999999979
 31
0.0
  0
LINE
  5
43
  8
1
 62
     7
 10
87.576569474524476
 20
17.999999999999979
 30
0.0
 11
87.576569474524476
 21
33.399999999999991
 31
0.0
  0
LINE
  5
44
  8
1
 62
     7
 10
60.936569474524497
 20
46.0
 30
0.0
 11
60.936569474524497
 21
-28.0
 31
0.0
  0
LINE
  5
45
  8
1
 62
     7
 10
92.436569474524504
 20
6.0
 30
0.0
 11
68.436569474524475
 21
6.0
 31
0.0
  0
LINE
  5
46
  8
1
 62
     7
 10
88.836569474524495
 20
-18.000000000000011
 30
0.0
 11
88.836569474524495
 21
-33.399999999999991
 31
0.0
  0
LINE
  5
47
  8
1
 62
     7
 10
80.136569474524492
 20
17.999999999999979
 30
0.0
 11
80.136569474524492
 21
12.5
 31
0.0
  0
LINE
  5
48
  8
1
 62
     7
 10
88.836569474524495
 20
17.999999999999979
 30
0.0
 11
88.836569474524495
 21
33.399999999999991
 31
0.0
  0
LINE
  5
49
  8
1
 62
     3
 10
37.609999999999999
 20
-24.0
 30
0.0
 11
43.00999999999997
 21
-24.0
 31
0.0
  0
LINE
  5
4A
  8
1
 62
     7
 10
37.609999999999999
 20
-19.5
 30
0.0
 11
37.609999999999999
 21
-26.5
 31
0.0
  0
LINE
  5
4B
  8
1
  6
DASHDOT
 62
     3
 10
-52.24051657555399
 20
-2.3412589875415151
 30
0.0
 11
-52.24051657555399
 21
2.3412589875415222
 31
0.0
  0
LINE
  5
4C
  8
1
  6
DASHDOT
 62
     3
 10
-49.899257588012503
 20
0.0
 30
0.0
 11
-54.581775563095597
 21
0.0
 31
0.0
  0
LINE
  5
4D
  8
1
 62
     7
 10
-54.24051657555399
 20
7.799999999999998
 30
0.0
 11
-50.240516575553997
 21
7.799999999999998
 31
0.0
  0
LINE
  5
4E
  8
1
 62
     7
 10
-54.24051657555399
 20
5.6568542494923832
 30
0.0
 11
-54.24051657555399
 21
7.799999999999998
 31
0.0
  0
LINE
  5
4F
  8
1
 62
     7
 10
-50.240516575553997
 20
5.6568542494923832
 30
0.0
 11
-50.240516575553997
 21
7.799999999999998
 31
0.0
  0
LINE
  5
50
  8
1
  6
DASHDOT
 62
     3
 10
150.16157027496979
 20
2.3412589875415222
 30
0.0
 11
150.16157027496979
 21
-2.3412589875415151
 31
0.0
  0
LINE
  5
51
  8
1
  6
DASHDOT
 62
     3
 10
152.50282926251131
 20
0.0
 30
0.0
 11
147.8203112874283
 21
0.0
 31
0.0
  0
LINE
  5
52
  8
1
 62
     7
 10
164.3206779778485
 20
52.842509336983419
 30
0.0
 11
159.22023685355791
 21
33.807403920117387
 31
0.0
  0
LINE
  5
53
  8
1
 62
     7
 10
78.536569474524484
 20
-18.500000000000011
 30
0.0
 11
69.536569474524498
 21
-18.500000000000011
 31
0.0
  0
LINE
  5
54
  8
1
 62
     7
 10
31.809999999999999
 20
32.999999999999993
 30
0.0
 11
31.809999999999999
 21
-33.0
 31
0.0
  0
LINE
  5
55
  8
1
 62
     7
 10
3.7099999999999871
 20
32.900000000000013
 30
0.0
 11
19.309999999999999
 21
32.900000000000013
 31
0.0
  0
LINE
  5
56
  8
1
 62
     7
 10
31.109999999999999
 20
32.999999999999993
 30
0.0
 11
31.109999999999999
 21
-33.0
 31
0.0
  0
LINE
  5
57
  8
1
 62
     7
 10
29.95529946162069
 20
34.999999999999993
 30
0.0
 11
29.95529946162069
 21
-35.0
 31
0.0
  0
LINE
  5
58
  8
1
 62
     7
 10
71.058661896878846
 20
51.739806101269153
 30
0.0
 11
71.058661896878846
 21
49.558896810737238
 31
0.0
  0
LINE
  5
59
  8
1
 62
     7
 10
71.353889219511814
 20
51.739806101269153
 30
0.0
 11
71.353889219511814
 21
49.558896810737238
 31
0.0
  0
LINE
  5
5A
  8
1
 62
     7
 10
72.042752972322106
 20
51.739806101269153
 30
0.0
 11
72.042752972322106
 21
49.558896810737238
 31
0.0
  0
LINE
  5
5B
  8
1
 62
     7
 10
71.813131721385346
 20
51.739806101269153
 30
0.0
 11
71.813131721385346
 21
49.558896810737238
 31
0.0
  0
LINE
  5
5C
  8
1
 62
     7
 10
72.336569474524495
 20
49.558896810737238
 30
0.0
 11
72.336569474524495
 21
32.900000000000013
 31
0.0
  0
LINE
  5
5D
  8
1
 62
     7
 10
70.736569474524501
 20
49.558896810737238
 30
0.0
 11
72.336569474524495
 21
49.558896810737238
 31
0.0
  0
LINE
  5
5E
  8
1
 62
     7
 10
35.909999999999989
 20
31.999999999999989
 30
0.0
 11
37.210000000000001
 21
31.999999999999989
 31
0.0
  0
LINE
  5
5F
  8
1
 62
     7
 10
37.210000000000001
 20
25.999999999999989
 30
0.0
 11
37.509999999999991
 21
26.300000000000001
 31
0.0
  0
LINE
  5
60
  8
1
 62
     7
 10
37.210000000000001
 20
31.999999999999989
 30
0.0
 11
37.509999999999991
 21
31.700000000000021
 31
0.0
  0
LINE
  5
61
  8
1
 62
     7
 10
36.409999999999997
 20
25.999999999999989
 30
0.0
 11
36.409999999999997
 21
31.999999999999989
 31
0.0
  0
LINE
  5
62
  8
1
 62
     7
 10
35.909999999999989
 20
25.999999999999989
 30
0.0
 11
37.210000000000001
 21
25.999999999999989
 31
0.0
  0
LINE
  5
63
  8
1
 62
     7
 10
37.509999999999991
 20
31.700000000000021
 30
0.0
 11
37.509999999999991
 21
26.300000000000001
 31
0.0
  0
LINE
  5
64
  8
1
 62
     7
 10
92.836569474524467
 20
-17.5
 30
0.0
 11
96.336569474524495
 21
-17.5
 31
0.0
  0
LINE
  5
65
  8
1
 62
     7
 10
96.736569474524487
 20
22.999999999999979
 30
0.0
 11
96.736569474524487
 21
-21.499999999999989
 31
0.0
  0
LINE
  5
66
  8
1
 62
     7
 10
92.836569474524467
 20
-33.5
 30
0.0
 11
96.336569474524495
 21
-33.5
 31
0.0
  0
LINE
  5
67
  8
1
 62
     7
 10
35.909999999999989
 20
23.000000000000011
 30
0.0
 11
35.909999999999989
 21
-32.75
 31
0.0
  0
LINE
  5
68
  8
1
 62
     7
 10
32.009999999999998
 20
33.499999999999993
 30
0.0
 11
35.509999999999998
 21
33.499999999999993
 31
0.0
  0
LINE
  5
69
  8
1
  6
DASHDOT
 62
     3
 10
36.310000000000009
 20
0.0
 30
0.0
 11
39.206127324603003
 21
0.0
 31
0.0
  0
LINE
  5
6A
  8
1
 62
     7
 10
35.909999999999989
 20
32.749999999999993
 30
0.0
 11
35.909999999999989
 21
24.545481322062521
 31
0.0
  0
LINE
  5
6B
  8
1
 62
     7
 10
35.909999999999989
 20
24.545481322062521
 30
0.0
 11
36.310000000000009
 21
23.10352761804101
 31
0.0
  0
LINE
  5
6C
  8
1
 62
     7
 10
35.909999999999989
 20
24.545481322062521
 30
0.0
 11
36.310000000000009
 21
23.10352761804101
 31
0.0
  0
LINE
  5
6D
  8
1
 62
     7
 10
35.909999999999989
 20
23.000000000000011
 30
0.0
 11
35.509999999999998
 21
24.492820323027541
 31
0.0
  0
LINE
  5
6E
  8
1
 62
     7
 10
35.509999999999998
 20
25.249999999999989
 30
0.0
 11
35.909999999999989
 21
25.249999999999989
 31
0.0
  0
LINE
  5
6F
  8
1
 62
     7
 10
92.836569474524467
 20
-19.75
 30
0.0
 11
96.336569474524495
 21
-19.75
 31
0.0
  0
LINE
  5
70
  8
1
 62
     7
 10
92.836569474524467
 20
-26.25
 30
0.0
 11
96.336569474524495
 21
-26.25
 31
0.0
  0
LINE
  5
71
  8
1
 62
     7
 10
96.736569474524487
 20
-32.75
 30
0.0
 11
97.136569474524492
 21
-32.75
 31
0.0
  0
LINE
  5
72
  8
1
 62
     7
 10
96.736569474524487
 20
-18.0
 30
0.0
 11
97.136569474524492
 21
-18.0
 31
0.0
  0
LINE
  5
73
  8
1
  6
DASHDOT
 62
     3
 10
93.047941076935217
 20
-23.0
 30
0.0
 11
105.7498870504275
 21
-23.0
 31
0.0
  0
LINE
  5
74
  8
1
 62
     7
 10
97.136569474524492
 20
-24.5
 30
0.0
 11
97.136569474524492
 21
-32.75
 31
0.0
  0
LINE
  5
75
  8
1
 62
     7
 10
32.009999999999998
 20
-33.5
 30
0.0
 11
32.009999999999998
 21
33.499999999999993
 31
0.0
  0
LINE
  5
76
  8
1
 62
     7
 10
162.775196655786
 20
53.25661980914753
 30
0.0
 11
165.86615929991089
 21
52.4283988648194
 31
0.0
  0
LINE
  5
77
  8
1
 62
     7
 10
162.775196655786
 20
53.25661980914753
 30
0.0
 11
157.66528519892131
 21
34.186170629950162
 31
0.0
  0
LINE
  5
78
  8
1
 62
     7
 10
165.86615929991089
 20
52.4283988648194
 30
0.0
 11
160.75624784304631
 21
33.35794968562211
 31
0.0
  0
LINE
  5
79
  8
1
 62
     7
 10
163.69359124954599
 20
55.138633772394222
 30
0.0
 11
163.16156698630149
 21
53.153092191106531
 31
0.0
  0
LINE
  5
7A
  8
1
 62
     7
 10
164.07996158006179
 20
55.03510615435323
 30
0.0
 11
163.5479373168173
 21
53.049564573065517
 31
0.0
  0
LINE
  5
7B
  8
1
 62
     7
 10
164.4663319105774
 20
54.93157853631223
 30
0.0
 11
163.9343076473329
 21
52.946036955024532
 31
0.0
  0
LINE
  5
7C
  8
1
 62
     7
 10
164.70704830836411
 20
52.738981718942419
 30
0.0
 11
165.2390725716086
 21
54.724523300230132
 31
0.0
  0
LINE
  5
7D
  8
1
 62
     7
 10
165.0934186388798
 20
52.635454100901413
 30
0.0
 11
165.62544290212429
 21
54.620995682189132
 31
0.0
  0
LINE
  5
7E
  8
1
 62
     7
 10
165.4797889693954
 20
52.53192648286042
 30
0.0
 11
166.01181323263981
 21
54.51746806414814
 31
0.0
  0
LINE
  5
7F
  8
1
 62
     7
 10
143.16157027496979
 20
34.292856398964481
 30
0.0
 11
143.16157027496979
 21
43.999999999999993
 31
0.0
  0
LINE
  5
80
  8
1
 62
     7
 10
148.16157027496979
 20
7.799999999999998
 30
0.0
 11
152.16157027496979
 21
7.799999999999998
 31
0.0
  0
LINE
  5
81
  8
1
 62
     7
 10
152.16157027496979
 20
7.799999999999998
 30
0.0
 11
152.16157027496979
 21
5.6568542494923832
 31
0.0
  0
LINE
  5
82
  8
1
 62
     7
 10
148.16157027496979
 20
7.799999999999998
 30
0.0
 11
148.16157027496979
 21
5.6568542494923832
 31
0.0
  0
LINE
  5
83
  8
1
 62
     7
 10
60.936569474524497
 20
46.0
 30
0.0
 11
62.536569474524498
 21
45.999999999999993
 31
0.0
  0
LINE
  5
84
  8
1
 62
     7
 10
68.436569474524475
 20
-10.0
 30
0.0
 11
68.436569474524504
 21
10.0
 31
0.0
  0
LINE
  5
85
  8
1
 62
     7
 10
79.036569474524498
 20
-12.5
 30
0.0
 11
80.136569474524492
 21
-12.5
 31
0.0
  0
LINE
  5
86
  8
1
 62
     7
 10
62.536569474524498
 20
-16.574279511302219
 30
0.0
 11
60.936569474524497
 21
-16.574279511302219
 31
0.0
  0
LINE
  5
87
  8
1
 62
     7
 10
60.936569474524497
 20
-28.0
 30
0.0
 11
62.536569474524498
 21
-28.0
 31
0.0
  0
LINE
  5
88
  8
1
  6
DASHDOT
 62
     3
 10
59.655048892173788
 20
40.999999999999993
 30
0.0
 11
63.426075231665877
 21
40.999999999999993
 31
0.0
  0
LINE
  5
89
  8
1
 62
     7
 10
60.936569474524497
 20
43.249999999999993
 30
0.0
 11
62.53656947452447
 21
43.249999999999993
 31
0.0
  0
LINE
  5
8A
  8
1
 62
     7
 10
60.936569474524497
 20
38.749999999999993
 30
0.0
 11
62.53656947452447
 21
38.749999999999993
 31
0.0
  0
LINE
  5
8B
  8
1
 62
     7
 10
145.16157027496979
 20
45.999999999999993
 30
0.0
 11
155.16157027496979
 21
45.999999999999993
 31
0.0
  0
LINE
  5
8C
  8
1
 62
     7
 10
157.16157027496979
 20
43.999999999999993
 30
0.0
 11
157.16157027496979
 21
34.300881832350989
 31
0.0
  0
LINE
  5
8D
  8
1
 62
     7
 10
29.95529946162069
 20
34.999999999999993
 30
0.0
 11
31.109999999999999
 21
32.999999999999993
 31
0.0
  0
LINE
  5
8E
  8
1
 62
     7
 10
31.109999999999999
 20
32.999999999999993
 30
0.0
 11
31.809999999999999
 21
32.999999999999993
 31
0.0
  0
LINE
  5
8F
  8
1
 62
     7
 10
29.95529946162069
 20
34.999999999999993
 30
0.0
 11
19.309999999999999
 21
34.999999999999993
 31
0.0
  0
LINE
  5
90
  8
1
 62
     7
 10
92.636569474524478
 20
-18.000000000000011
 30
0.0
 11
91.936569474524475
 21
-18.000000000000011
 31
0.0
  0
LINE
  5
91
  8
1
 62
     7
 10
91.936569474524475
 20
-15.0
 30
0.0
 11
92.436569474524504
 21
-15.0
 31
0.0
  0
LINE
  5
92
  8
1
 62
     7
 10
91.936569474524475
 20
-15.0
 30
0.0
 11
91.936569474524475
 21
-18.000000000000011
 31
0.0
  0
LINE
  5
93
  8
1
 62
     7
 10
80.136569474524492
 20
-35.0
 30
0.0
 11
90.781868936145216
 21
-35.0
 31
0.0
  0
LINE
  5
94
  8
1
 62
     7
 10
92.636569474524478
 20
-33.0
 30
0.0
 11
91.936569474524475
 21
-33.0
 31
0.0
  0
LINE
  5
95
  8
1
 62
     7
 10
91.936569474524475
 20
-33.0
 30
0.0
 11
90.781868936145216
 21
-35.0
 31
0.0
  0
LINE
  5
96
  8
1
 62
     7
 10
88.836569474524495
 20
-18.000000000000011
 30
0.0
 11
80.136569474524492
 21
-18.000000000000011
 31
0.0
  0
LINE
  5
97
  8
1
 62
     7
 10
88.836569474524495
 20
-33.399999999999991
 30
0.0
 11
80.136569474524492
 21
-33.399999999999991
 31
0.0
  0
LINE
  5
98
  8
1
 62
     7
 10
87.036569474524484
 20
-18.500000000000011
 30
0.0
 11
79.636569474524492
 21
-18.500000000000011
 31
0.0
  0
LINE
  5
99
  8
1
 62
     7
 10
78.536569474524484
 20
-16.574279511302219
 30
0.0
 11
79.636569474524492
 21
-16.574279511302219
 31
0.0
  0
LINE
  5
9A
  8
1
 62
     7
 10
79.636569474524492
 20
-19.500000000000011
 30
0.0
 11
78.536569474524484
 21
-19.500000000000011
 31
0.0
  0
LINE
  5
9B
  8
1
 62
     7
 10
70.436569474524489
 20
-16.800000000000001
 30
0.0
 11
70.436569474524489
 21
-11.69999999999999
 31
0.0
  0
LINE
  5
9C
  8
1
 62
     7
 10
77.636569474524492
 20
-16.800000000000001
 30
0.0
 11
77.636569474524492
 21
-11.69999999999999
 31
0.0
  0
LINE
  5
9D
  8
1
 62
     7
 10
78.536569474524484
 20
-12.041635220349701
 30
0.0
 11
75.311569474524489
 21
-12.041635220349679
 31
0.0
  0
LINE
  5
9E
  8
1
 62
     7
 10
69.536569474524498
 20
-12.041635220349701
 30
0.0
 11
72.761569474524492
 21
-12.041635220349679
 31
0.0
  0
LINE
  5
9F
  8
1
 62
     7
 10
69.536569474524498
 20
-16.458364779650321
 30
0.0
 11
72.761569474524492
 21
-16.458364779650331
 31
0.0
  0
LINE
  5
A0
  8
1
 62
     7
 10
78.536569474524484
 20
-16.458364779650321
 30
0.0
 11
75.311569474524489
 21
-16.458364779650331
 31
0.0
  0
LINE
  5
A1
  8
1
 62
     7
 10
87.036569474524484
 20
-18.500000000000011
 30
0.0
 11
87.036569474524484
 21
-32.899999999999999
 31
0.0
  0
LINE
  5
A2
  8
1
 62
     7
 10
87.036569474524484
 20
-32.899999999999999
 30
0.0
 11
64.536569474524498
 21
-32.900000000000013
 31
0.0
  0
LINE
  5
A3
  8
1
 62
     7
 10
78.536569474524484
 20
-12.000000000000011
 30
0.0
 11
79.036569474524498
 21
-12.5
 31
0.0
  0
LINE
  5
A4
  8
1
 62
     7
 10
80.136569474524492
 20
-35.0
 30
0.0
 11
80.136569474524492
 21
-33.399999999999991
 31
0.0
  0
LINE
  5
A5
  8
1
 62
     7
 10
79.036569474524498
 20
-12.5
 30
0.0
 11
80.136569474524492
 21
-12.5
 31
0.0
  0
LINE
  5
A6
  8
1
 62
     7
 10
68.436569474524475
 20
-10.0
 30
0.0
 11
69.536569474524498
 21
-10.0
 31
0.0
  0
LINE
  5
A7
  8
1
 62
     7
 10
80.136569474524492
 20
-12.5
 30
0.0
 11
80.136569474524492
 21
-18.000000000000011
 31
0.0
  0
LINE
  5
A8
  8
1
 62
     7
 10
19.309999999999999
 20
-32.900000000000013
 30
0.0
 11
3.7099999999999871
 21
-32.900000000000013
 31
0.0
  0
LINE
  5
A9
  8
1
 62
     7
 10
35.509999999999998
 20
-33.5
 30
0.0
 11
32.009999999999998
 21
-33.5
 31
0.0
  0
LINE
  5
AA
  8
1
 62
     7
 10
31.109999999999999
 20
-33.0
 30
0.0
 11
29.95529946162069
 21
-35.0
 31
0.0
  0
LINE
  5
AB
  8
1
 62
     7
 10
31.809999999999999
 20
-33.0
 30
0.0
 11
31.109999999999999
 21
-33.0
 31
0.0
  0
LINE
  5
AC
  8
1
 62
     7
 10
19.309999999999999
 20
-35.0
 30
0.0
 11
29.95529946162069
 21
-35.0
 31
0.0
  0
LINE
  5
AD
  8
1
 62
     7
 10
69.536569474524498
 20
18.499999999999979
 30
0.0
 11
78.536569474524484
 21
18.499999999999979
 31
0.0
  0
LINE
  5
AE
  8
1
 62
     7
 10
92.836569474524467
 20
33.499999999999993
 30
0.0
 11
92.836569474524467
 21
-33.5
 31
0.0
  0
LINE
  5
AF
  8
1
 62
     7
 10
96.236569474524472
 20
17.499999999999989
 30
0.0
 11
92.836569474524467
 21
17.499999999999989
 31
0.0
  0
LINE
  5
B0
  8
1
 62
     7
 10
96.336569474524495
 20
33.499999999999993
 30
0.0
 11
92.836569474524467
 21
33.499999999999993
 31
0.0
  0
LINE
  5
B1
  8
1
 62
     7
 10
68.436569474524475
 20
7.7999999999999909
 30
0.0
 11
92.436569474524504
 21
7.7999999999999901
 31
0.0
  0
LINE
  5
B2
  8
1
 62
     7
 10
79.036569474524498
 20
12.5
 30
0.0
 11
78.536569474524484
 21
12.0
 31
0.0
  0
LINE
  5
B3
  8
1
 62
     7
 10
80.136569474524492
 20
12.5
 30
0.0
 11
79.036569474524498
 21
12.5
 31
0.0
  0
LINE
  5
B4
  8
1
 62
     7
 10
91.936569474524475
 20
17.999999999999979
 30
0.0
 11
92.636569474524478
 21
18.0
 31
0.0
  0
LINE
  5
B5
  8
1
 62
     7
 10
91.936569474524475
 20
14.999999999999989
 30
0.0
 11
92.236569474524472
 21
14.999999999999989
 31
0.0
  0
LINE
  5
B6
  8
1
 62
     7
 10
91.936569474524475
 20
17.999999999999979
 30
0.0
 11
91.936569474524475
 21
14.999999999999989
 31
0.0
  0
LINE
  5
B7
  8
1
 62
     7
 10
90.78186893614523
 20
34.999999999999993
 30
0.0
 11
80.136569474524492
 21
34.999999999999993
 31
0.0
  0
LINE
  5
B8
  8
1
 62
     7
 10
91.936569474524475
 20
32.999999999999993
 30
0.0
 11
92.636569474524478
 21
32.999999999999993
 31
0.0
  0
LINE
  5
B9
  8
1
 62
     7
 10
90.78186893614523
 20
34.999999999999993
 30
0.0
 11
91.936569474524475
 21
32.999999999999993
 31
0.0
  0
LINE
  5
BA
  8
1
 62
     7
 10
80.136569474524492
 20
17.999999999999979
 30
0.0
 11
88.836569474524495
 21
17.999999999999979
 31
0.0
  0
LINE
  5
BB
  8
1
 62
     7
 10
80.136569474524492
 20
33.399999999999991
 30
0.0
 11
88.836569474524495
 21
33.399999999999991
 31
0.0
  0
LINE
  5
BC
  8
1
 62
     7
 10
79.636569474524492
 20
18.499999999999979
 30
0.0
 11
87.036569474524484
 21
18.499999999999979
 31
0.0
  0
LINE
  5
BD
  8
1
 62
     7
 10
79.636569474524492
 20
16.574279511302219
 30
0.0
 11
78.536569474524484
 21
16.574279511302219
 31
0.0
  0
LINE
  5
BE
  8
1
 62
     7
 10
79.636569474524492
 20
19.499999999999989
 30
0.0
 11
79.636569474524492
 21
14.51527951130223
 31
0.0
  0
LINE
  5
BF
  8
1
 62
     7
 10
78.536569474524484
 20
19.499999999999989
 30
0.0
 11
79.636569474524492
 21
19.499999999999989
 31
0.0
  0
LINE
  5
C0
  8
1
 62
     7
 10
70.436569474524489
 20
11.69999999999999
 30
0.0
 11
70.436569474524489
 21
16.79999999999999
 31
0.0
  0
LINE
  5
C1
  8
1
 62
     7
 10
77.636569474524492
 20
11.69999999999999
 30
0.0
 11
77.636569474524492
 21
16.79999999999999
 31
0.0
  0
LINE
  5
C2
  8
1
 62
     7
 10
75.311569474524489
 20
12.041635220349679
 30
0.0
 11
78.536569474524484
 21
12.041635220349679
 31
0.0
  0
LINE
  5
C3
  8
1
 62
     7
 10
72.761569474524492
 20
12.041635220349679
 30
0.0
 11
69.536569474524498
 21
12.041635220349679
 31
0.0
  0
LINE
  5
C4
  8
1
 62
     7
 10
72.761569474524492
 20
16.45836477965031
 30
0.0
 11
69.536569474524498
 21
16.458364779650299
 31
0.0
  0
LINE
  5
C5
  8
1
 62
     7
 10
75.311569474524489
 20
16.45836477965031
 30
0.0
 11
78.536569474524484
 21
16.458364779650299
 31
0.0
  0
LINE
  5
C6
  8
1
 62
     7
 10
87.036569474524484
 20
32.899999999999999
 30
0.0
 11
87.036569474524484
 21
18.499999999999979
 31
0.0
  0
LINE
  5
C7
  8
1
 62
     7
 10
64.536569474524498
 20
32.900000000000013
 30
0.0
 11
87.036569474524484
 21
32.899999999999999
 31
0.0
  0
LINE
  5
C8
  8
1
 62
     7
 10
79.036569474524498
 20
12.5
 30
0.0
 11
78.536569474524484
 21
12.0
 31
0.0
  0
LINE
  5
C9
  8
1
 62
     7
 10
80.136569474524492
 20
33.399999999999991
 30
0.0
 11
80.136569474524492
 21
34.999999999999993
 31
0.0
  0
LINE
  5
CA
  8
1
 62
     7
 10
80.136569474524492
 20
12.5
 30
0.0
 11
79.036569474524498
 21
12.5
 31
0.0
  0
LINE
  5
CB
  8
1
 62
     7
 10
69.536569474524498
 20
10.0
 30
0.0
 11
68.436569474524504
 21
10.0
 31
0.0
  0
LINE
  5
CC
  8
1
 62
     7
 10
60.936569474524497
 20
16.574279511302219
 30
0.0
 11
62.536569474524498
 21
16.574279511302219
 31
0.0
  0
LINE
  5
CD
  8
1
 62
     7
 10
92.636569474524478
 20
32.999999999999993
 30
0.0
 11
92.636569474524478
 21
16.763970959752999
 31
0.0
  0
LINE
  5
CE
  8
1
 62
     7
 10
9.9100000000000055
 20
32.900000000000013
 30
0.0
 11
9.9100000000000055
 21
49.558896810737238
 31
0.0
  0
LINE
  5
CF
  8
1
 62
     7
 10
11.51
 20
32.900000000000013
 30
0.0
 11
11.51
 21
49.558896810737238
 31
0.0
  0
LINE
  5
D0
  8
1
 62
     7
 10
96.736569474524487
 20
32.749999999999993
 30
0.0
 11
96.736569474524487
 21
24.545481322062521
 31
0.0
  0
LINE
  5
D1
  8
1
 62
     7
 10
97.236569474524472
 20
25.999999999999989
 30
0.0
 11
97.236569474524472
 21
31.999999999999989
 31
0.0
  0
LINE
  5
D2
  8
1
 62
     7
 10
98.336569474524481
 20
31.700000000000021
 30
0.0
 11
98.336569474524481
 21
26.300000000000001
 31
0.0
  0
LINE
  5
D3
  8
1
 62
     7
 10
98.036569474524484
 20
31.999999999999989
 30
0.0
 11
98.336569474524481
 21
31.700000000000021
 31
0.0
  0
LINE
  5
D4
  8
1
 62
     7
 10
98.036569474524484
 20
31.999999999999989
 30
0.0
 11
96.736569474524487
 21
31.999999999999989
 31
0.0
  0
LINE
  5
D5
  8
1
 62
     7
 10
98.036569474524484
 20
25.999999999999989
 30
0.0
 11
98.336569474524481
 21
26.300000000000001
 31
0.0
  0
LINE
  5
D6
  8
1
 62
     7
 10
98.036569474524484
 20
25.999999999999989
 30
0.0
 11
96.736569474524487
 21
25.999999999999989
 31
0.0
  0
LINE
  5
D7
  8
1
 62
     7
 10
96.736569474524487
 20
32.749999999999993
 30
0.0
 11
96.736569474524487
 21
24.545481322062521
 31
0.0
  0
LINE
  5
D8
  8
1
 62
     7
 10
96.736569474524487
 20
22.999999999999979
 30
0.0
 11
96.336569474524495
 21
24.492820323027541
 31
0.0
  0
LINE
  5
D9
  8
1
  6
DASHDOT
 62
     3
 10
153.98646518304781
 20
40.999999999999993
 30
0.0
 11
146.33667536689171
 21
40.999999999999993
 31
0.0
  0
LINE
  5
DA
  8
1
  6
DASHDOT
 62
     3
 10
150.16157027496979
 20
44.824894908077987
 30
0.0
 11
150.16157027496979
 21
37.175105091921999
 31
0.0
  0
LINE
  5
DB
  8
1
  6
DASHDOT
 62
     3
 10
-48.573691238267713
 20
40.999999999999993
 30
0.0
 11
-55.90734191284028
 21
40.999999999999993
 31
0.0
  0
LINE
  5
DC
  8
1
  6
DASHDOT
 62
     3
 10
-52.24051657555399
 20
44.666825337286276
 30
0.0
 11
-52.24051657555399
 21
37.333174662713709
 31
0.0
  0
LINE
  5
DD
  8
1
  6
DASHDOT
 62
     3
 10
97.136569474524492
 20
0.0
 30
0.0
 11
100.5315290669642
 21
0.0
 31
0.0
  0
LINE
  5
DE
  8
1
  6
DASHDOT
 62
     3
 10
60.936569474524497
 20
0.0
 30
0.0
 11
57.94817282880399
 21
0.0
 31
0.0
  0
LINE
  5
DF
  8
1
 62
     7
 10
97.136569474524492
 20
-19.5
 30
0.0
 11
98.436569474524475
 21
-19.5
 31
0.0
  0
LINE
  5
E0
  8
1
 62
     7
 10
98.436569474524475
 20
-19.5
 30
0.0
 11
98.436569474524475
 21
-21.499999999999989
 31
0.0
  0
LINE
  5
E1
  8
1
 62
     7
 10
98.436569474524475
 20
-24.5
 30
0.0
 11
98.436569474524475
 21
-26.5
 31
0.0
  0
LINE
  5
E2
  8
1
 62
     7
 10
97.136569474524492
 20
-26.5
 30
0.0
 11
98.436569474524475
 21
-26.5
 31
0.0
  0
LINE
  5
E3
  8
1
 62
     7
 10
42.509999999999998
 20
-21.499999999999989
 30
0.0
 11
37.609999999999999
 21
-21.499999999999989
 31
0.0
  0
LINE
  5
E4
  8
1
 62
     3
 10
37.609999999999999
 20
-22.0
 30
0.0
 11
43.009999999999998
 21
-22.0
 31
0.0
  0
LINE
  5
E5
  8
1
 62
     7
 10
42.509999999999991
 20
-24.5
 30
0.0
 11
37.609999999999999
 21
-24.5
 31
0.0
  0
LINE
  5
E6
  8
1
  6
DASHDOT
 62
     3
 10
32.216679827739512
 20
-23.0
 30
0.0
 11
44.518625801231892
 21
-23.0
 31
0.0
  0
LINE
  5
E7
  8
1
 62
     7
 10
43.00999999999997
 20
-24.0
 30
0.0
 11
43.009999999999998
 21
-22.0
 31
0.0
  0
LINE
  5
E8
  8
1
 62
     7
 10
42.509999999999991
 20
-24.5
 30
0.0
 11
43.00999999999997
 21
-24.0
 31
0.0
  0
LINE
  5
E9
  8
1
 62
     7
 10
43.00999999999997
 20
-24.0
 30
0.0
 11
43.009999999999998
 21
-22.0
 31
0.0
  0
LINE
  5
EA
  8
1
 62
     7
 10
43.009999999999998
 20
-22.0
 30
0.0
 11
42.509999999999998
 21
-21.499999999999989
 31
0.0
  0
LINE
  5
EB
  8
1
 62
     7
 10
42.509999999999991
 20
-24.5
 30
0.0
 11
42.509999999999998
 21
-21.499999999999989
 31
0.0
  0
LINE
  5
EC
  8
1
 62
     7
 10
35.909999999999989
 20
-32.75
 30
0.0
 11
36.310000000000009
 21
-32.75
 31
0.0
  0
LINE
  5
ED
  8
1
  6
DASHDOT
 62
     3
 10
166.5928256729344
 20
9.486589727138373
 30
0.0
 11
173.70796156243111
 21
13.59451534826003
 31
0.0
  0
LINE
  5
EE
  8
1
  6
DASHDOT
 62
     3
 10
126.39714891611059
 20
13.720395068673
 30
0.0
 11
133.9968621244339
 21
9.3326986020836031
 31
0.0
  0
LINE
  5
EF
  8
1
  6
DASHDOT
 62
     3
 10
150.16157027496979
 20
-18.741071911514101
 30
0.0
 11
150.16157027496979
 21
-27.309776361525891
 31
0.0
  0
LINE
  5
F0
  8
1
 62
     7
 10
92.236569474524472
 20
14.999999999999989
 30
0.0
 11
92.436569474524504
 21
14.999999999999989
 31
0.0
  0
LINE
  5
F1
  8
1
 62
     7
 10
92.636569474524478
 20
-33.0
 30
0.0
 11
92.636569474524478
 21
-16.763970959752999
 31
0.0
  0
LINE
  5
F2
  8
1
 62
     7
 10
96.336569474524495
 20
33.499999999999993
 30
0.0
 11
96.336569474524495
 21
-33.5
 31
0.0
  0
LINE
  5
F3
  8
1
 62
     7
 10
97.136569474524492
 20
-21.499999999999989
 30
0.0
 11
97.136569474524492
 21
23.10352761804101
 31
0.0
  0
LINE
  5
F4
  8
1
 62
     7
 10
97.136569474524492
 20
23.10352761804101
 30
0.0
 11
96.736569474524487
 21
24.545481322062521
 31
0.0
  0
LINE
  5
F5
  8
1
 62
     7
 10
96.736569474524487
 20
32.749999999999993
 30
0.0
 11
96.336569474524495
 21
32.749999999999993
 31
0.0
  0
LINE
  5
F6
  8
1
 62
     7
 10
96.336569474524495
 20
-25.75
 30
0.0
 11
95.836569474524481
 21
-25.75
 31
0.0
  0
LINE
  5
F7
  8
1
 62
     7
 10
95.836569474524481
 20
-20.249999999999989
 30
0.0
 11
96.336569474524495
 21
-20.249999999999989
 31
0.0
  0
LINE
  5
F8
  8
1
 62
     7
 10
95.836569474524481
 20
-20.249999999999989
 30
0.0
 11
95.436569474524447
 21
-20.249999999999989
 31
0.0
  0
LINE
  5
F9
  8
1
 62
     7
 10
95.436569474524447
 20
-20.249999999999989
 30
0.0
 11
95.436569474524447
 21
-25.75
 31
0.0
  0
LINE
  5
FA
  8
1
 62
     7
 10
95.436569474524447
 20
-25.75
 30
0.0
 11
95.836569474524481
 21
-25.75
 31
0.0
  0
LINE
  5
FB
  8
1
 62
     7
 10
95.836569474524481
 20
-25.75
 30
0.0
 11
95.836569474524481
 21
-20.249999999999989
 31
0.0
  0
LINE
  5
FC
  8
1
 62
     7
 10
93.686569474524461
 20
-21.499999999999989
 30
0.0
 11
93.686569474524461
 21
-24.5
 31
0.0
  0
LINE
  5
FD
  8
1
 62
     7
 10
96.336569474524495
 20
-21.499999999999989
 30
0.0
 11
103.2365694745245
 21
-21.499999999999989
 31
0.0
  0
LINE
  5
FE
  8
1
 62
     7
 10
103.2365694745245
 20
-21.499999999999989
 30
0.0
 11
103.8365694745244
 21
-22.100000000000001
 31
0.0
  0
LINE
  5
FF
  8
1
 62
     7
 10
103.8365694745244
 20
-22.100000000000001
 30
0.0
 11
103.8365694745244
 21
-23.899999999999999
 31
0.0
  0
LINE
  5
100
  8
1
 62
     7
 10
103.8365694745244
 20
-23.899999999999999
 30
0.0
 11
103.2365694745245
 21
-24.5
 31
0.0
  0
LINE
  5
101
  8
1
 62
     7
 10
103.2365694745245
 20
-24.5
 30
0.0
 11
96.336569474524495
 21
-24.5
 31
0.0
  0
LINE
  5
102
  8
1
 62
     7
 10
103.2365694745245
 20
-21.499999999999989
 30
0.0
 11
103.2365694745245
 21
-24.5
 31
0.0
  0
LINE
  5
103
  8
1
 62
     3
 10
103.8365694745244
 20
-22.100000000000001
 30
0.0
 11
97.375799959065802
 21
-22.100000000000001
 31
0.0
  0
LINE
  5
104
  8
1
 62
     3
 10
97.375799959065802
 20
-22.100000000000001
 30
0.0
 11
96.336569474524495
 21
-21.499999999999989
 31
0.0
  0
LINE
  5
105
  8
1
 62
     3
 10
103.8365694745244
 20
-23.899999999999999
 30
0.0
 11
97.375799959065802
 21
-23.899999999999999
 31
0.0
  0
LINE
  5
106
  8
1
 62
     3
 10
97.375799959065802
 20
-23.899999999999999
 30
0.0
 11
96.336569474524495
 21
-24.5
 31
0.0
  0
LINE
  5
107
  8
1
 62
     3
 10
97.375799959065802
 20
-21.499999999999989
 30
0.0
 11
97.375799959065802
 21
-24.5
 31
0.0
  0
LINE
  5
108
  8
1
 62
     7
 10
78.536569474524484
 20
19.499999999999989
 30
0.0
 11
78.536569474524484
 21
10.0
 31
0.0
  0
LINE
  5
109
  8
1
 62
     7
 10
78.536569474524484
 20
10.0
 30
0.0
 11
69.536569474524498
 21
10.0
 31
0.0
  0
LINE
  5
10A
  8
1
 62
     7
 10
62.536569474524498
 20
-30.900000000000031
 30
0.0
 11
62.536569474524498
 21
45.999999999999993
 31
0.0
  0
LINE
  5
10B
  8
1
 62
     7
 10
70.736569474524501
 20
32.90000000000002
 30
0.0
 11
70.736569474524501
 21
49.558896810737238
 31
0.0
  0
LINE
  5
10C
  8
1
 62
     7
 10
68.436569474524475
 20
-6.0
 30
0.0
 11
92.436569474524504
 21
-6.0
 31
0.0
  0
LINE
  5
10D
  8
1
 62
     7
 10
78.536569474524484
 20
-19.500000000000011
 30
0.0
 11
78.536569474524484
 21
-10.0
 31
0.0
  0
LINE
  5
10E
  8
1
 62
     7
 10
78.536569474524484
 20
-10.0
 30
0.0
 11
69.536569474524498
 21
-10.0
 31
0.0
  0
LINE
  5
10F
  8
1
 62
     7
 10
79.636569474524492
 20
-19.500000000000011
 30
0.0
 11
79.636569474524492
 21
-14.51527951130223
 31
0.0
  0
LINE
  5
110
  8
1
 62
     7
 10
36.310000000000009
 20
23.10352761804101
 30
0.0
 11
36.310000000000009
 21
-32.75
 31
0.0
  0
LINE
  5
111
  8
1
 62
     7
 10
37.609999999999999
 20
-26.5
 30
0.0
 11
36.310000000000009
 21
-26.5
 31
0.0
  0
LINE
  5
112
  8
1
 62
     7
 10
37.609999999999999
 20
-19.5
 30
0.0
 11
36.310000000000009
 21
-19.5
 31
0.0
  0
LINE
  5
113
  8
1
 62
     7
 10
35.509999999999998
 20
-33.5
 30
0.0
 11
35.509999999999998
 21
33.499999999999993
 31
0.0
  0
LINE
  5
114
  8
1
 62
     7
 10
35.909999999999989
 20
32.749999999999993
 30
0.0
 11
35.509999999999998
 21
32.749999999999993
 31
0.0
  0
LINE
  5
115
  8
1
 62
     7
 10
10.232092422354309
 20
51.739806101269153
 30
0.0
 11
10.23209242235435
 21
49.558896810737238
 31
0.0
  0
LINE
  5
116
  8
1
 62
     7
 10
10.527319744987331
 20
51.739806101269153
 30
0.0
 11
10.527319744987331
 21
49.558896810737238
 31
0.0
  0
LINE
  5
117
  8
1
 62
     7
 10
11.2161834977976
 20
51.739806101269153
 30
0.0
 11
11.2161834977976
 21
49.558896810737238
 31
0.0
  0
LINE
  5
118
  8
1
 62
     7
 10
10.98656224686084
 20
51.739806101269153
 30
0.0
 11
10.98656224686084
 21
49.558896810737238
 31
0.0
  0
LINE
  5
119
  8
1
 62
     7
 10
9.9100000000000055
 20
49.558896810737238
 30
0.0
 11
11.51
 21
49.558896810737238
 31
0.0
  0
LINE
  5
11A
  8
1
 62
     7
 10
19.309999999999999
 20
34.999999999999993
 30
0.0
 11
19.309999999999999
 21
-35.0
 31
0.0
  0
LINE
  5
11B
  8
1
 62
     7
 10
-45.24051657555399
 20
32.727365970360189
 30
0.0
 11
-45.24051657555399
 21
43.999999999999993
 31
0.0
  0
LINE
  5
11C
  8
1
 62
     7
 10
-59.240516575554103
 20
43.999999999999993
 30
0.0
 11
-59.240516575554011
 21
32.727365970360189
 31
0.0
  0
LINE
  5
11D
  8
1
 62
     7
 10
-45.24051657555399
 20
32.727365970360189
 30
0.0
 11
-45.24051657555399
 21
32.726136343907143
 31
0.0
  0
LINE
  5
11E
  8
1
 62
     7
 10
-59.240516575554011
 20
32.727365970360189
 30
0.0
 11
-59.240516575554011
 21
32.726136343907143
 31
0.0
  0
LINE
  5
11F
  8
1
 62
     7
 10
-57.240516575554103
 20
45.999999999999993
 30
0.0
 11
-47.240516575554103
 21
45.999999999999993
 31
0.0
  0
LINE
  5
120
  8
1
 62
     7
 10
92.436569474524504
 20
-15.0
 30
0.0
 11
92.436569474524504
 21
14.999999999999989
 31
0.0
  0
LINE
  5
121
  8
1
 62
     7
 10
-67.945105600495211
 20
52.4283988648194
 30
0.0
 11
-64.854142956370211
 21
53.25661980914753
 31
0.0
  0
LINE
  5
122
  8
1
 62
     7
 10
-65.240513286885829
 20
53.153092191106531
 30
0.0
 11
-65.772537550130309
 21
55.138633772394222
 31
0.0
  0
LINE
  5
123
  8
1
 62
     7
 10
-65.626883617401504
 20
53.049564573065517
 30
0.0
 11
-66.158907880646026
 21
55.03510615435323
 31
0.0
  0
LINE
  5
124
  8
1
 62
     7
 10
-66.013253947917107
 20
52.946036955024532
 30
0.0
 11
-66.545278211161602
 21
54.93157853631223
 31
0.0
  0
LINE
  5
125
  8
1
 62
     7
 10
-67.318018872192809
 20
54.724523300230132
 30
0.0
 11
-66.785994608948428
 21
52.738981718942419
 31
0.0
  0
LINE
  5
126
  8
1
 62
     7
 10
-67.704389202708526
 20
54.620995682189132
 30
0.0
 11
-67.172364939464003
 21
52.635454100901413
 31
0.0
  0
LINE
  5
127
  8
1
 62
     7
 10
-68.090759533224102
 20
54.51746806414814
 30
0.0
 11
-67.558735269979607
 21
52.53192648286042
 31
0.0
  0
LINE
  5
128
  8
1
 62
     7
 10
-62.291068965025978
 20
31.327246873392479
 30
0.0
 11
-67.945105600495211
 21
52.4283988648194
 31
0.0
  0
LINE
  5
129
  8
1
 62
     7
 10
-60.755663159426959
 20
31.778959684910351
 30
0.0
 11
-66.399624278432711
 21
52.842509336983419
 31
0.0
  0
LINE
  5
12A
  8
1
 62
     7
 10
-59.249796686149807
 20
32.34091478547586
 30
0.0
 11
-64.854142956370211
 21
53.25661980914753
 31
0.0
  0
LINE
  5
12B
  8
1
 62
     7
 10
96.736569474524487
 20
-29.0
 30
0.0
 11
96.336569474524495
 21
-29.0
 31
0.0
  0
LINE
  5
12C
  8
1
 62
     7
 10
96.736569474524487
 20
-17.0
 30
0.0
 11
96.336569474524495
 21
-17.0
 31
0.0
  0
LINE
  5
12D
  8
1
 62
     7
 10
95.536569474524484
 20
33.499999999999993
 30
0.0
 11
95.536569474524484
 21
-19.75
 31
0.0
  0
LINE
  5
12E
  8
1
 62
     7
 10
95.536569474524484
 20
-33.5
 30
0.0
 11
95.536569474524484
 21
-26.25
 31
0.0
  0
LINE
  5
12F
  8
1
 62
     7
 10
35.909999999999989
 20
-17.0
 30
0.0
 11
35.509999999999998
 21
-17.0
 31
0.0
  0
LINE
  5
130
  8
1
 62
     7
 10
35.909999999999989
 20
-29.0
 30
0.0
 11
35.509999999999998
 21
-29.0
 31
0.0
  0
LINE
  5
131
  8
1
 62
     7
 10
34.710000000000001
 20
-33.5
 30
0.0
 11
34.710000000000001
 21
33.499999999999993
 31
0.0
  0
LINE
  5
132
  8
1
 62
     7
 10
96.736569474524487
 20
-24.5
 30
0.0
 11
96.736569474524487
 21
-32.75
 31
0.0
  0
ARC
  5
133
  8
1
 62
     7
 10
-52.24051657555399
 20
0.0
 30
0.0
 40
6.0000000000000018
 50
109.47122063449071
 51
70.528779365509308
  0
ARC
  5
134
  8
1
 62
     7
 10
-47.240516575554103
 20
43.999999999999993
 30
0.0
 40
2.000000000000107
 50
0.0
 51
90.0
  0
ARC
  5
135
  8
1
 62
     7
 10
-57.240516575554103
 20
43.999999999999993
 30
0.0
 40
2.0
 50
90.0
 51
180.0
  0
ARC
  5
136
  8
1
 62
     7
 10
132.4115702749697
 20
-0.0000000000000071
 30
0.0
 40
15.000000000000011
 50
124.4120724133555
 51
180.0
  0
ARC
  5
137
  8
1
 62
     7
 10
119.5673721562964
 20
17.663568519456749
 30
0.0
 40
6.8586641895494109
 50
309.54806916653212
 51
350.45193083346783
  0
ARC
  5
138
  8
1
 62
     7
 10
132.4115702749697
 20
-0.0000000000000071
 30
0.0
 40
15.000000000000011
 50
124.4120724133555
 51
180.0
  0
ARC
  5
139
  8
1
 62
     7
 10
159.03657027496979
 20
15.371950917173811
 30
0.0
 40
14.99999999999997
 50
4.4120724133554026
 51
59.999999999999503
  0
ARC
  5
13A
  8
1
 62
     7
 10
180.75576839364311
 20
17.663568519456749
 30
0.0
 40
6.8586641895494926
 50
189.54806916653189
 51
230.4519308334682
  0
ARC
  5
13B
  8
1
 62
     7
 10
150.16157027496979
 20
-35.327137038913563
 30
0.0
 40
6.85866418954945
 50
69.548069166532287
 51
110.4519308334674
  0
ARC
  5
13C
  8
1
 62
     7
 10
150.16157027496979
 20
0.0
 30
0.0
 40
17.999999999999979
 50
21.123609612617141
 51
38.876390387382727
  0
ARC
  5
13D
  8
1
 62
     7
 10
150.16157027496979
 20
0.0
 30
0.0
 40
18.0
 50
261.12360961261732
 51
278.87639038738303
  0
ARC
  5
13E
  8
1
 62
     7
 10
150.16157027496979
 20
0.0
 30
0.0
 40
18.0
 50
141.123609612617
 51
158.8763903873826
  0
ARC
  5
13F
  8
1
 62
     7
 10
150.16157027496979
 20
0.0
 30
0.0
 40
32.750000000000092
 50
300.00000000000011
 51
359.99999999999977
  0
ARC
  5
140
  8
1
 62
     7
 10
150.16157027496979
 20
0.0
 30
0.0
 40
32.749999999999993
 50
180.0
 51
239.99999999999989
  0
ARC
  5
141
  8
1
 62
     7
 10
150.16157027496979
 20
0.0
 30
0.0
 40
25.250000000000021
 50
304.99999999999977
 51
354.99999999999977
  0
ARC
  5
142
  8
1
 62
     7
 10
150.16157027496979
 20
0.0
 30
0.0
 40
25.250000000000021
 50
185.0
 51
235.0
  0
ARC
  5
143
  8
1
 62
     7
 10
150.16157027496979
 20
0.0
 30
0.0
 40
25.250000000000028
 50
64.999999999999901
 51
115.0
  0
ARC
  5
144
  8
1
 62
     7
 10
150.16157027496979
 20
0.0
 30
0.0
 40
32.75
 50
59.999999999999787
 51
119.9999999999999
  0
ARC
  5
145
  8
1
 62
     7
 10
159.03657027496979
 20
15.371950917173811
 30
0.0
 40
14.99999999999997
 50
4.4120724133554026
 51
59.999999999999503
  0
ARC
  5
146
  8
1
 62
     7
 10
167.91157027496979
 20
0.0
 30
0.0
 40
15.00000000000011
 50
359.99999999999972
 51
55.587927586644227
  0
ARC
  5
147
  8
1
 62
     7
 10
167.34592881705231
 20
-1.5034365623971191
 30
0.0
 40
8.0000000000000302
 50
354.99999999999977
 51
92.822001862898205
  0
ARC
  5
148
  8
1
 62
     7
 10
157.45173528999689
 20
15.63380932638222
 30
0.0
 40
8.0000000000000124
 50
327.17799813710161
 51
64.999999999999872
  0
ARC
  5
149
  8
1
 62
     7
 10
141.28657027496979
 20
-15.37195091717378
 30
0.0
 40
15.0
 50
239.99999999999989
 51
295.58792758664458
  0
ARC
  5
14A
  8
1
 62
     7
 10
140.2673767479142
 20
-14.130372763985109
 30
0.0
 40
8.0000000000000426
 50
234.99999999999989
 51
332.82200186289799
  0
ARC
  5
14B
  8
1
 62
     7
 10
159.03657027496979
 20
-15.3719509171738
 30
0.0
 40
15.0
 50
244.41207241335539
 51
300.00000000000028
  0
ARC
  5
14C
  8
1
 62
     7
 10
160.05576380202541
 20
-14.130372763985109
 30
0.0
 40
7.9999999999999929
 50
207.17799813710181
 51
304.99999999999932
  0
ARC
  5
14D
  8
1
 62
     7
 10
132.4115702749697
 20
-0.0000000000000071
 30
0.0
 40
15.000000000000011
 50
124.4120724133555
 51
180.0
  0
ARC
  5
14E
  8
1
 62
     7
 10
132.97721173288721
 20
-1.503436562397098
 30
0.0
 40
8.0000000000000142
 50
87.177998137101824
 51
185.0
  0
ARC
  5
14F
  8
1
 62
     7
 10
142.87140525994261
 20
15.63380932638219
 30
0.0
 40
8.0000000000000053
 50
114.9999999999999
 51
212.82200186289819
  0
ARC
  5
150
  8
1
 62
     7
 10
141.28657027496979
 20
15.37195091717377
 30
0.0
 40
15.00000000000005
 50
119.9999999999999
 51
175.5879275866445
  0
ARC
  5
151
  8
1
 62
     7
 10
150.16157027496979
 20
0.0
 30
0.0
 40
6.0000000000000018
 50
109.47122063449071
 51
70.528779365509308
  0
ARC
  5
152
  8
1
 62
     7
 10
145.16157027496979
 20
43.999999999999993
 30
0.0
 40
2.0
 50
90.0
 51
180.0
  0
ARC
  5
153
  8
1
 62
     7
 10
155.16157027496979
 20
43.999999999999993
 30
0.0
 40
2.0
 50
0.0
 51
90.0
  0
ARC
  5
154
  8
1
  6
DASHDOT
 62
     3
 10
150.16157027496979
 20
0.0
 30
0.0
 40
23.000000000000028
 50
17.586285373399129
 51
42.394535575940843
  0
ARC
  5
155
  8
1
  6
DASHDOT
 62
     3
 10
150.16157027496979
 20
0.0
 30
0.0
 40
22.999999999999979
 50
138.12273877663739
 51
161.0269122177541
  0
ARC
  5
156
  8
1
  6
DASHDOT
 62
     3
 10
150.16157027496979
 20
0.0
 30
0.0
 40
23.000000000000011
 50
258.57772273864339
 51
281.82803437619611
  0
ARC
  5
157
  8
1
 62
     7
 10
96.189425592410998
 20
-23.153998565041181
 30
0.0
 40
3.0000000000000751
 50
104.53385610839371
 51
146.5414994755549
  0
ARC
  5
158
  8
1
 62
     7
 10
96.189425592410998
 20
-22.846001434958819
 30
0.0
 40
3.0000000000000711
 50
213.45850052444499
 51
255.46614389160641
  0
ARC
  5
159
  8
1
 62
     7
 10
-52.24051657555399
 20
0.0
 30
0.0
 40
35.0
 50
107.6201487718559
 51
78.463040967184497
  0
ARC
  5
15A
  8
1
 62
     7
 10
-52.24051657555399
 20
0.0
 30
0.0
 40
28.0
 50
114.624318352164
 51
65.375681647835933
  0
ARC
  5
15B
  8
1
 62
     7
 10
-52.24051657555399
 20
0.0
 30
0.0
 40
32.900000000000013
 50
102.32255215134499
 51
77.677447848654921
  0
ARC
  5
15C
  8
1
 62
     7
 10
-52.24051657555399
 20
0.0
 30
0.0
 40
34.999999999999993
 50
101.5369590328155
 51
102.37985122814391
  0
CIRCLE
  5
15D
  8
1
 62
     7
 10
-52.24051657555399
 20
40.999999999999993
 30
0.0
 40
2.25
  0
CIRCLE
  5
15E
  8
1
 62
     7
 10
150.16157027496979
 20
-23.0
 30
0.0
 40
3.5
  0
CIRCLE
  5
15F
  8
1
 62
     7
 10
130.24298598792771
 20
11.5
 30
0.0
 40
3.5
  0
CIRCLE
  5
160
  8
1
 62
     7
 10
170.0801545620119
 20
11.500000000000011
 30
0.0
 40
3.5
  0
CIRCLE
  5
161
  8
1
 62
     7
 10
170.0801545620119
 20
11.500000000000011
 30
0.0
 40
3.5
  0
CIRCLE
  5
162
  8
1
 62
     7
 10
150.16157027496979
 20
28.999999999999961
 30
0.0
 40
3.0
  0
CIRCLE
  5
163
  8
1
 62
     7
 10
125.04683356522111
 20
-14.499999999999989
 30
0.0
 40
3.0
  0
CIRCLE
  5
164
  8
1
 62
     7
 10
150.16157027496979
 20
-23.0
 30
0.0
 40
1.5
  0
CIRCLE
  5
165
  8
1
 62
     7
 10
150.16157027496979
 20
-23.0
 30
0.0
 40
1.1000000000000221
  0
CIRCLE
  5
166
  8
1
 62
     7
 10
175.27630698471839
 20
-14.5
 30
0.0
 40
3.0
  0
CIRCLE
  5
167
  8
1
 62
     7
 10
170.0801545620119
 20
11.500000000000011
 30
0.0
 40
1.0999999999999941
  0
CIRCLE
  5
168
  8
1
 62
     7
 10
170.0801545620119
 20
11.500000000000011
 30
0.0
 40
1.5
  0
CIRCLE
  5
169
  8
1
 62
     7
 10
130.24298598792771
 20
11.5
 30
0.0
 40
1.0999999999999941
  0
CIRCLE
  5
16A
  8
1
 62
     7
 10
130.24298598792771
 20
11.5
 30
0.0
 40
1.5
  0
CIRCLE
  5
16B
  8
1
 62
     7
 10
150.16157027496979
 20
0.0
 30
0.0
 40
35.0
  0
CIRCLE
  5
16C
  8
1
 62
     7
 10
150.16157027496979
 20
40.999999999999993
 30
0.0
 40
2.25
  0
CIRCLE
  5
16D
  8
1
 62
     7
 10
74.036569474524484
 20
-14.25
 30
0.0
 40
2.5499999999999821
  0
CIRCLE
  5
16E
  8
1
 62
     7
 10
74.036569474524484
 20
14.249999999999989
 30
0.0
 40
2.5499999999999821
  0
CIRCLE
  5
16F
  8
1
 62
     7
 10
150.16157027496979
 20
0.0
 30
0.0
 40
15.5
  0
CIRCLE
  5
170
  8
1
 62
     7
 10
150.16157027496979
 20
0.0
 30
0.0
 40
17.500000000000011
  0
CIRCLE
  5
171
  8
1
 62
     7
 10
150.16157027496979
 20
0.0
 30
0.0
 40
33.0
  0
CIRCLE
  5
172
  8
1
 62
     7
 10
-52.24051657555399
 20
0.0
 30
0.0
 40
16.575412330271231
  0
CIRCLE
  5
173
  8
1
 62
     7
 10
-52.24051657555399
 20
0.0
 30
0.0
 40
10.0
  0
ARC
  5
174
  8
1
 62
     7
 10
-37.24051657555399
 20
32.726136343907143
 30
0.0
 40
8.0
 50
180.0
 51
245.3756816478359
  0
ARC
  5
175
  8
1
 62
     7
 10
-67.240516575554011
 20
32.726136343907143
 30
0.0
 40
8.0000000000000053
 50
294.62431835216398
 51
0.0
  0
TEXT
  5
176
  8
1
 62
     7
 10
-63.265516575553988
 20
85.321942446043209
 30
0.0
 40
3.5
  1
VCSH 0.6
 41
0.9
  7
SIMPLEX
  0
ENDSEC
  0
EOF
