  0
SECTION
  2
HEADER
  9
$ACADVER
  1
AC1009
  9
$INSBASE
 10
0.0
 20
0.0
 30
0.0
  9
$EXTMIN
 10
-138.92443987888231
 20
-45.0
 30
0.0
  9
$EXTMAX
 10
239.28752582265139
 20
121.37109585186479
 30
0.0
  9
$LIMMIN
 10
-138.92443987888231
 20
-45.0
  9
$LIMMAX
 10
237.41445886370499
 20
121.37109585186479
  9
$ORTHOMODE
 70
     0
  9
$REGENMODE
 70
     1
  9
$FILLMODE
 70
     1
  9
$QTEXTMODE
 70
     0
  9
$MIRRTEXT
 70
     1
  9
$DRAGMODE
 70
     2
  9
$LTSCALE
 40
1.0
  9
$OSMODE
 70
    37
  9
$ATTMODE
 70
     1
  9
$TEXTSIZE
 40
3.5
  9
$TRACEWID
 40
0.5
  9
$TEXTSTYLE
  7
STANDARD
  9
$CLAYER
  8
0
  9
$CELTYPE
  6
BYLAYER
  9
$CECOLOR
 62
   256
  9
$DIMSCALE
 40
1.0
  9
$DIMASZ
 40
0.18
  9
$DIMEXO
 40
0.0625
  9
$DIMDLI
 40
0.38
  9
$DIMRND
 40
0.0
  9
$DIMDLE
 40
0.0
  9
$DIMEXE
 40
0.18
  9
$DIMTP
 40
0.0
  9
$DIMTM
 40
0.0
  9
$DIMTXT
 40
0.18
  9
$DIMCEN
 40
0.09
  9
$DIMTSZ
 40
0.0
  9
$DIMTOL
 70
     0
  9
$DIMLIM
 70
     0
  9
$DIMTIH
 70
     1
  9
$DIMTOH
 70
     1
  9
$DIMSE1
 70
     0
  9
$DIMSE2
 70
     0
  9
$DIMTAD
 70
     0
  9
$DIMZIN
 70
     0
  9
$DIMBLK
  1

  9
$DIMASO
 70
     1
  9
$DIMSHO
 70
     1
  9
$DIMPOST
  1

  9
$DIMAPOST
  1

  9
$DIMALT
 70
     0
  9
$DIMALTD
 70
     2
  9
$DIMALTF
 40
25.399999999999999
  9
$DIMLFAC
 40
1.0
  9
$DIMTOFL
 70
     0
  9
$DIMTVP
 40
0.0
  9
$DIMTIX
 70
     0
  9
$DIMSOXD
 70
     0
  9
$DIMSAH
 70
     0
  9
$DIMBLK1
  1

  9
$DIMBLK2
  1

  9
$DIMSTYLE
  2
STANDARD
  9
$DIMCLRD
 70
     0
  9
$DIMCLRE
 70
     0
  9
$DIMCLRT
 70
     0
  9
$DIMTFAC
 40
1.0
  9
$DIMGAP
 40
0.09
  9
$LUNITS
 70
     2
  9
$LUPREC
 70
     4
  9
$SKETCHINC
 40
0.1
  9
$FILLETRAD
 40
2.0
  9
$AUNITS
 70
     0
  9
$AUPREC
 70
     0
  9
$MENU
  1
ACAD
  9
$ELEVATION
 40
0.0
  9
$PELEVATION
 40
0.0
  9
$THICKNESS
 40
0.0
  9
$LIMCHECK
 70
     0
  9
$BLIPMODE
 70
     0
  9
$CHAMFERA
 40
0.0
  9
$CHAMFERB
 40
0.0
  9
$SKPOLY
 70
     0
  9
$TDCREATE
 40
2452095.369364351
  9
$TDUPDATE
 40
2452095.369854514
  9
$TDINDWG
 40
0.0005028935
  9
$TDUSRTIMER
 40
0.0005028935
  9
$USRTIMER
 70
     1
  9
$ANGBASE
 50
0.0
  9
$ANGDIR
 70
     0
  9
$PDMODE
 70
     0
  9
$PDSIZE
 40
0.0
  9
$PLINEWID
 40
0.0
  9
$COORDS
 70
     1
  9
$SPLFRAME
 70
     0
  9
$SPLINETYPE
 70
     6
  9
$SPLINESEGS
 70
     8
  9
$ATTDIA
 70
     0
  9
$ATTREQ
 70
     1
  9
$HANDLING
 70
 10241
  9
$HANDSEED
  5
174
  9
$SURFTAB1
 70
     6
  9
$SURFTAB2
 70
     6
  9
$SURFTYPE
 70
     6
  9
$SURFU
 70
     6
  9
$SURFV
 70
     6
  9
$UCSNAME
  2

  9
$UCSORG
 10
0.0
 20
0.0
 30
0.0
  9
$UCSXDIR
 10
1.0
 20
0.0
 30
0.0
  9
$UCSYDIR
 10
0.0
 20
1.0
 30
0.0
  9
$PUCSNAME
  2

  9
$PUCSORG
 10
0.0
 20
0.0
 30
0.0
  9
$PUCSXDIR
 10
1.0
 20
0.0
 30
0.0
  9
$PUCSYDIR
 10
0.0
 20
1.0
 30
0.0
  9
$USERI1
 70
     0
  9
$USERI2
 70
     0
  9
$USERI3
 70
     0
  9
$USERI4
 70
     0
  9
$USERI5
 70
     0
  9
$USERR1
 40
0.0
  9
$USERR2
 40
0.0
  9
$USERR3
 40
0.0
  9
$USERR4
 40
0.0
  9
$USERR5
 40
0.0
  9
$WORLDVIEW
 70
     1
  9
$SHADEDGE
 70
     3
  9
$SHADEDIF
 70
    70
  9
$TILEMODE
 70
     1
  9
$MAXACTVP
 70
    64
  9
$PLIMCHECK
 70
     0
  9
$PEXTMIN
 10
1.0000000000000000E+020
 20
1.0000000000000000E+020
 30
1.0000000000000000E+020
  9
$PEXTMAX
 10
-1.0000000000000000E+020
 20
-1.0000000000000000E+020
 30
-1.0000000000000000E+020
  9
$PLIMMIN
 10
0.0
 20
0.0
  9
$PLIMMAX
 10
12.0
 20
9.0
  9
$UNITMODE
 70
     0
  9
$VISRETAIN
 70
     1
  9
$PLINEGEN
 70
     0
  9
$PSLTSCALE
 70
     1
  0
ENDSEC
  0
SECTION
  2
TABLES
  0
TABLE
  2
VPORT
 70
     2
  0
VPORT
  2
*ACTIVE
 70
     0
 10
0.0
 20
0.0
 11
1.0
 21
1.0
 12
-100.4134038961661
 22
111.7031828951166
 13
0.0
 23
0.0
 14
1.0
 24
1.0
 15
0.0
 25
0.0
 16
0.0
 26
0.0
 36
1.0
 17
0.0
 27
0.0
 37
0.0
 40
8.9999999307138605
 41
2.4144144144144142
 42
50.0
 43
0.0
 44
0.0
 50
0.0
 51
0.0
 71
     0
 72
   100
 73
     1
 74
     1
 75
     0
 76
     0
 77
     0
 78
     0
  0
ENDTAB
  0
TABLE
  2
LTYPE
 70
     9
  0
LTYPE
  2
CONTINUOUS
 70
     0
  3
Solid line
 72
    65
 73
     0
 40
0.0
  0
LTYPE
  2
BORDER
 70
     0
  3
__ __ . __ __ .
 72
    65
 73
     6
 40
17.331396652619159
 49
4.9518276150340439
 49
-2.4759138075170211
 49
4.9518276150340439
 49
-2.4759138075170211
 49
0.0
 49
-2.4759138075170211
  0
LTYPE
  2
CENTER
 70
     0
  3
____ _ ____ _
 72
    65
 73
     4
 40
19.807310460136179
 49
12.3795690375851
 49
-2.4759138075170211
 49
2.4759138075170211
 49
-2.4759138075170211
  0
LTYPE
  2
DASHDOT
 70
     0
  3
__ . __ . __ .
 72
    65
 73
     4
 40
9.9036552300680896
 49
4.9518276150340439
 49
-2.4759138075170211
 49
0.0
 49
-2.4759138075170211
  0
LTYPE
  2
DASHED
 70
     0
  3
__ __ __ __ __
 72
    65
 73
     2
 40
7.4277414225510672
 49
4.9518276150340439
 49
-2.4759138075170211
  0
LTYPE
  2
DIVIDE
 70
     0
  3
__ . . __ . . 
 72
    65
 73
     6
 40
12.3795690375851
 49
4.9518276150340439
 49
-2.4759138075170211
 49
0.0
 49
-2.4759138075170211
 49
0.0
 49
-2.4759138075170211
  0
LTYPE
  2
DOT
 70
     0
  3
..............
 72
    65
 73
     4
 40
4.9518276150340439
 49
0.0
 49
-2.4759138075170211
 49
0.0
 49
-2.4759138075170211
  0
LTYPE
  2
HIDDEN
 70
     0
  3
_ _ _ _ _ _ _
 72
    65
 73
     2
 40
3.7138707112755331
 49
2.4759138075170211
 49
-1.2379569037585101
  0
LTYPE
  2
PHANTOM
 70
     0
  3
_____ _ _ _____ _ _ 
 72
    65
 73
     6
 40
24.75913807517021
 49
12.3795690375851
 49
-2.4759138075170211
 49
2.4759138075170211
 49
-2.4759138075170211
 49
2.4759138075170211
 49
-2.4759138075170211
  0
ENDTAB
  0
TABLE
  2
LAYER
 70
     2
  0
LAYER
  2
0
 70
     0
 62
     7
  6
CONTINUOUS
  0
LAYER
  2
1
 70
     0
 62
     7
  6
CONTINUOUS
  0
ENDTAB
  0
TABLE
  2
STYLE
 70
     4
  0
STYLE
  2
STANDARD
 70
     0
 40
0.0
 41
1.0
 50
0.0
 71
     0
 42
3.5
  3
txt
  4

  0
STYLE
  2
SIMPLEX
 70
     0
 40
0.0
 41
1.0
 50
0.0
 71
     0
 42
3.5
  3
simplex
  4

  0
STYLE
  2
COMPLEX
 70
     0
 40
0.0
 41
1.0
 50
0.0
 71
     0
 42
3.5
  3
complex
  4

  0
STYLE
  2
ITALIC
 70
     0
 40
0.0
 41
1.0
 50
0.0
 71
     0
 42
3.5
  3
italic
  4

  0
ENDTAB
  0
TABLE
  2
VIEW
 70
     0
  0
ENDTAB
  0
TABLE
  2
UCS
 70
     0
  0
ENDTAB
  0
TABLE
  2
APPID
 70
     1
  0
APPID
  2
ACAD
 70
     0
  0
ENDTAB
  0
TABLE
  2
DIMSTYLE
 70
     1
  0
DIMSTYLE
  2
STANDARD
 70
     0
  3

  4

  5

  6

  7

 40
1.0
 41
0.18
 42
0.0625
 43
0.38
 44
0.18
 45
0.0
 46
0.0
 47
0.0
 48
0.0
140
0.18
141
0.09
142
0.0
143
25.399999999999999
144
1.0
145
0.0
146
1.0
147
0.09
 71
     0
 72
     0
 73
     1
 74
     1
 75
     0
 76
     0
 77
     0
 78
     0
170
     0
171
     2
172
     0
173
     0
174
     0
175
     0
176
     0
177
     0
178
     0
  0
ENDTAB
  0
ENDSEC
  0
SECTION
  2
BLOCKS
  0
BLOCK
  8
0
  2
$MODEL_SPACE
 70
     0
 10
0.0
 20
0.0
 30
0.0
  3
$MODEL_SPACE
  1

  0
ENDBLK
  5
20
  8
0
  0
BLOCK
 67
     1
  8
0
  2
$PAPER_SPACE
 70
     0
 10
0.0
 20
0.0
 30
0.0
  3
$PAPER_SPACE
  1

  0
ENDBLK
  5
1C
 67
     1
  8
0
  0
ENDSEC
  0
SECTION
  2
ENTITIES
  0
POINT
  5
33
  8
1
  6
DOT
 62
     7
 10
192.41445886370499
 20
-7.4999999999999778
 30
0.0
  0
LINE
  5
34
  8
1
 62
     7
 10
84.368698917672987
 20
-23.100000000000001
 30
0.0
 11
83.368698917673015
 21
-23.099999999999991
 31
0.0
  0
LINE
  5
35
  8
1
 62
     7
 10
84.368698917672987
 20
23.5
 30
0.0
 11
96.368698917673001
 21
23.5
 31
0.0
  0
LINE
  5
36
  8
1
 62
     7
 10
82.368698917672987
 20
26.5
 30
0.0
 11
82.368698917672987
 21
21.499999999999989
 31
0.0
  0
LINE
  5
37
  8
1
 62
     7
 10
78.6316112047422
 20
26.5
 30
0.0
 11
82.368698917672987
 21
26.5
 31
0.0
  0
LINE
  5
38
  8
1
 62
     7
 10
82.368698917672987
 20
21.499999999999989
 30
0.0
 11
84.368698917672987
 21
21.499999999999989
 31
0.0
  0
LINE
  5
39
  8
1
 62
     7
 10
84.368698917672987
 20
-23.499999999999989
 30
0.0
 11
84.368698917672987
 21
23.5
 31
0.0
  0
LINE
  5
3A
  8
1
 62
     7
 10
105.26869891767291
 20
-22.999999999999979
 30
0.0
 11
105.26869891767291
 21
-42.849999999999987
 31
0.0
  0
LINE
  5
3B
  8
1
 62
     7
 10
105.26869891767291
 20
23.0
 30
0.0
 11
105.26869891767291
 21
42.850000000000009
 31
0.0
  0
LINE
  5
3C
  8
1
 62
     7
 10
117.9686989176729
 20
-32.000000000000007
 30
0.0
 11
117.9686989176729
 21
-34.500000000000007
 31
0.0
  0
LINE
  5
3D
  8
1
 62
     7
 10
117.9686989176729
 20
-25.500000000000011
 30
0.0
 11
117.9686989176729
 21
-28.000000000000011
 31
0.0
  0
LINE
  5
3E
  8
1
 62
     7
 10
189.91445886370491
 20
9.7999999999999936
 30
0.0
 11
194.91445886370491
 21
9.7999999999999936
 31
0.0
  0
LINE
  5
3F
  8
1
  6
DASHDOT
 62
     3
 10
-93.924439878882396
 20
52.442940792106029
 30
0.0
 11
-93.924439878882396
 21
59.557059207894021
 31
0.0
  0
LINE
  5
40
  8
1
  6
DASHDOT
 62
     3
 10
-90.36738067098841
 20
56.000000000000028
 30
0.0
 11
-97.48149908677641
 21
56.000000000000028
 31
0.0
  0
LINE
  5
41
  8
1
  6
DASHDOT
 62
     3
 10
-93.924439878882396
 20
-3.9026199890149802
 30
0.0
 11
-93.924439878882396
 21
3.9026199890150219
 31
0.0
  0
LINE
  5
42
  8
1
  6
DASHDOT
 62
     3
 10
-90.021819889867388
 20
0.0000000000000213
 30
0.0
 11
-97.827059867897432
 21
0.0000000000000213
 31
0.0
  0
LINE
  5
43
  8
1
 62
     7
 10
-99.924439878882424
 20
62.0
 30
0.0
 11
-87.924439878882396
 21
62.0
 31
0.0
  0
LINE
  5
44
  8
1
 62
     7
 10
-85.92443987888241
 20
60.0
 30
0.0
 11
-85.92443987888241
 21
39.912404086950218
 31
0.0
  0
LINE
  5
45
  8
1
 62
     7
 10
-101.9244398788824
 20
60.0
 30
0.0
 11
-101.9244398788824
 21
39.912404086950218
 31
0.0
  0
LINE
  5
46
  8
1
 62
     7
 10
-96.424439878882424
 20
9.7999999999999936
 30
0.0
 11
-91.424439878882396
 21
9.7999999999999936
 31
0.0
  0
LINE
  5
47
  8
1
 62
     7
 10
-96.424439878882424
 20
7.0710678118654897
 30
0.0
 11
-96.424439878882424
 21
9.7999999999999936
 31
0.0
  0
LINE
  5
48
  8
1
 62
     7
 10
-91.424439878882396
 20
7.0710678118654897
 30
0.0
 11
-91.424439878882396
 21
9.7999999999999936
 31
0.0
  0
LINE
  5
49
  8
1
 62
     7
 10
28.699999999999999
 20
42.5
 30
0.0
 11
28.699999999999999
 21
-42.5
 31
0.0
  0
LINE
  5
4A
  8
1
 62
     7
 10
27.2566243270259
 20
45.000000000000021
 30
0.0
 11
27.2566243270259
 21
-45.0
 31
0.0
  0
LINE
  5
4B
  8
1
 62
     3
 10
36.600000000000001
 20
-31.300000000000001
 30
0.0
 11
43.20000000000001
 21
-31.300000000000001
 31
0.0
  0
LINE
  5
4C
  8
1
 62
     3
 10
36.600000000000001
 20
-28.699999999999999
 30
0.0
 11
43.20000000000001
 21
-28.699999999999999
 31
0.0
  0
LINE
  5
4D
  8
1
 62
     7
 10
17.300000000000001
 20
-42.34999999999998
 30
0.0
 11
3.0
 21
-42.34999999999998
 31
0.0
  0
LINE
  5
4E
  8
1
 62
     7
 10
17.300000000000001
 20
43.562565441379817
 30
0.0
 11
17.300000000000001
 21
-45.0
 31
0.0
  0
LINE
  5
4F
  8
1
  6
DASHDOT
 62
     3
 10
-5.0
 20
0.0
 30
0.0
 11
-8.3059465756051054
 21
0.0
 31
0.0
  0
LINE
  5
50
  8
1
  6
DASHDOT
 62
     3
 10
34.700000000000003
 20
0.0
 30
0.0
 11
37.998529424520889
 21
0.0
 31
0.0
  0
LINE
  5
51
  8
1
 62
     7
 10
3.0
 20
42.350000000000009
 30
0.0
 11
17.300000000000001
 21
42.350000000000009
 31
0.0
  0
LINE
  5
52
  8
1
 62
     7
 10
-3.0
 20
-35.0
 30
0.0
 11
-5.0
 21
-35.0
 31
0.0
  0
LINE
  5
53
  8
1
 62
     7
 10
-5.0
 20
62.0
 30
0.0
 11
-3.0
 21
62.0
 31
0.0
  0
LINE
  5
54
  8
1
 62
     7
 10
28.699999999999999
 20
-42.5
 30
0.0
 11
29.699999999999999
 21
-42.5
 31
0.0
  0
LINE
  5
55
  8
1
 62
     7
 10
17.300000000000001
 20
-45.0
 30
0.0
 11
27.2566243270259
 21
-45.0
 31
0.0
  0
LINE
  5
56
  8
1
 62
     7
 10
29.699999999999999
 20
42.5
 30
0.0
 11
29.699999999999999
 21
-42.5
 31
0.0
  0
LINE
  5
57
  8
1
 62
     7
 10
27.2566243270259
 20
45.000000000000021
 30
0.0
 11
17.300000000000001
 21
45.000000000000021
 31
0.0
  0
LINE
  5
58
  8
1
 62
     7
 10
28.699999999999999
 20
42.5
 30
0.0
 11
27.2566243270259
 21
45.000000000000021
 31
0.0
  0
LINE
  5
59
  8
1
 62
     7
 10
29.699999999999999
 20
42.5
 30
0.0
 11
28.699999999999999
 21
42.5
 31
0.0
  0
LINE
  5
5A
  8
1
 62
     7
 10
17.300000000000001
 20
45.000000000000021
 30
0.0
 11
17.300000000000001
 21
42.649999999999991
 31
0.0
  0
LINE
  5
5B
  8
1
 62
     7
 10
42.500000000000021
 20
-28.000000000000011
 30
0.0
 11
36.600000000000001
 21
-28.000000000000011
 31
0.0
  0
LINE
  5
5C
  8
1
  6
DASHDOT
 62
     3
 10
30.350000000000009
 20
-30.000000000000011
 30
0.0
 11
44.700714421512927
 21
-30.000000000000011
 31
0.0
  0
LINE
  5
5D
  8
1
 62
     7
 10
34.600000000000001
 20
-34.500000000000007
 30
0.0
 11
36.600000000000001
 21
-34.500000000000007
 31
0.0
  0
LINE
  5
5E
  8
1
 62
     7
 10
34.600000000000001
 20
-25.500000000000011
 30
0.0
 11
36.600000000000001
 21
-25.500000000000011
 31
0.0
  0
LINE
  5
5F
  8
1
 62
     7
 10
42.500000000000021
 20
-32.000000000000007
 30
0.0
 11
42.500000000000021
 21
-28.000000000000011
 31
0.0
  0
LINE
  5
60
  8
1
 62
     7
 10
43.20000000000001
 20
-28.699999999999999
 30
0.0
 11
42.500000000000021
 21
-28.000000000000011
 31
0.0
  0
LINE
  5
61
  8
1
 62
     7
 10
43.20000000000001
 20
-31.300000000000001
 30
0.0
 11
43.20000000000001
 21
-28.699999999999999
 31
0.0
  0
LINE
  5
62
  8
1
 62
     7
 10
42.500000000000021
 20
-32.000000000000007
 30
0.0
 11
43.20000000000001
 21
-31.300000000000001
 31
0.0
  0
LINE
  5
63
  8
1
 62
     7
 10
42.500000000000021
 20
-32.000000000000007
 30
0.0
 11
36.600000000000001
 21
-32.000000000000007
 31
0.0
  0
LINE
  5
64
  8
1
 62
     7
 10
34.100000000000009
 20
-42.0
 30
0.0
 11
34.600000000000001
 21
-41.999999999999993
 31
0.0
  0
LINE
  5
65
  8
1
 62
     7
 10
35.600000000000001
 20
33.900000000000013
 30
0.0
 11
36.100000000000009
 21
34.400000000000013
 31
0.0
  0
LINE
  5
66
  8
1
 62
     7
 10
36.100000000000009
 20
40.59999999999998
 30
0.0
 11
35.600000000000001
 21
41.09999999999998
 31
0.0
  0
LINE
  5
67
  8
1
 62
     7
 10
34.700000000000003
 20
41.09999999999998
 30
0.0
 11
34.700000000000003
 21
33.900000000000013
 31
0.0
  0
LINE
  5
68
  8
1
 62
     7
 10
34.200000000000003
 20
33.900000000000013
 30
0.0
 11
35.600000000000001
 21
33.900000000000013
 31
0.0
  0
LINE
  5
69
  8
1
 62
     7
 10
36.100000000000009
 20
40.59999999999998
 30
0.0
 11
36.100000000000009
 21
34.400000000000013
 31
0.0
  0
LINE
  5
6A
  8
1
 62
     7
 10
34.200000000000003
 20
41.09999999999998
 30
0.0
 11
35.600000000000001
 21
41.09999999999998
 31
0.0
  0
LINE
  5
6B
  8
1
 62
     7
 10
33.700000000000003
 20
31.86602540378443
 30
0.0
 11
34.100000000000001
 21
30.0
 31
0.0
  0
LINE
  5
6C
  8
1
 62
     7
 10
34.200000000000003
 20
31.931851652578121
 30
0.0
 11
34.600000000000001
 21
30.06582624879367
 31
0.0
  0
LINE
  5
6D
  8
1
 62
     7
 10
34.200000000000003
 20
42.0
 30
0.0
 11
34.200000000000003
 21
31.931851652578121
 31
0.0
  0
LINE
  5
6E
  8
1
 62
     7
 10
33.700000000000003
 20
42.0
 30
0.0
 11
34.200000000000003
 21
42.0
 31
0.0
  0
LINE
  5
6F
  8
1
 62
     7
 10
5.7477553606977896
 20
74.379591790226996
 30
0.0
 11
5.7477553606977896
 21
71.076344712652286
 31
0.0
  0
LINE
  5
70
  8
1
 62
     7
 10
6.1769903542647997
 20
74.379591790226996
 30
0.0
 11
6.1769903542647997
 21
71.076344712652286
 31
0.0
  0
LINE
  5
71
  8
1
 62
     7
 10
6.7690386212539106
 20
74.379591790226996
 30
0.0
 11
6.7690386212539106
 21
71.076344712652286
 31
0.0
  0
LINE
  5
72
  8
1
 62
     7
 10
7.2574784415197886
 20
74.379591790226996
 30
0.0
 11
7.2574784415197886
 21
71.076344712652286
 31
0.0
  0
LINE
  5
73
  8
1
 62
     7
 10
7.75
 20
71.076344712652286
 30
0.0
 11
7.75
 21
42.350000000000023
 31
0.0
  0
LINE
  5
74
  8
1
 62
     7
 10
5.25
 20
71.076344712652286
 30
0.0
 11
5.25
 21
42.350000000000023
 31
0.0
  0
LINE
  5
75
  8
1
 62
     7
 10
33.700000000000003
 20
-43.0
 30
0.0
 11
29.899999999999999
 21
-43.0
 31
0.0
  0
LINE
  5
76
  8
1
 62
     7
 10
34.100000000000001
 20
30.0
 30
0.0
 11
34.100000000000009
 21
-42.0
 31
0.0
  0
LINE
  5
77
  8
1
 62
     7
 10
29.899999999999999
 20
43.0
 30
0.0
 11
33.700000000000003
 21
43.0
 31
0.0
  0
LINE
  5
78
  8
1
 62
     7
 10
29.899999999999999
 20
43.0
 30
0.0
 11
29.899999999999999
 21
-43.0
 31
0.0
  0
LINE
  5
79
  8
1
  6
DASHDOT
 62
     3
 10
76.368698917673015
 20
0.0
 30
0.0
 11
73.06275234206791
 21
0.0
 31
0.0
  0
LINE
  5
7A
  8
1
  6
DASHDOT
 62
     3
 10
115.968698917673
 20
0.0
 30
0.0
 11
119.2672283421937
 21
0.0
 31
0.0
  0
LINE
  5
7B
  8
1
 62
     7
 10
211.2317616111105
 20
70.227129914722724
 30
0.0
 11
204.06131589331829
 21
43.466662183008097
 31
0.0
  0
LINE
  5
7C
  8
1
  6
DASHDOT
 62
     3
 10
192.41445886370499
 20
59.557059207894021
 30
0.0
 11
192.41445886370499
 21
52.442940792106029
 31
0.0
  0
LINE
  5
7D
  8
1
  6
DASHDOT
 62
     3
 10
195.97151807159901
 20
56.000000000000028
 30
0.0
 11
188.85739965581101
 21
56.000000000000028
 31
0.0
  0
LINE
  5
7E
  8
1
  6
DASHDOT
 62
     3
 10
192.41445886370499
 20
-22.01927395321335
 30
0.0
 11
192.41445886370499
 21
-36.14114664858775
 31
0.0
  0
LINE
  5
7F
  8
1
  6
DASHDOT
 62
     3
 10
161.67055702935741
 20
17.75
 30
0.0
 11
172.92888727855501
 21
11.25
 31
0.0
  0
LINE
  5
80
  8
1
  6
DASHDOT
 62
     3
 10
192.41445886370499
 20
3.9026199890150219
 30
0.0
 11
192.41445886370499
 21
-3.9026199890149802
 31
0.0
  0
LINE
  5
81
  8
1
  6
DASHDOT
 62
     3
 10
196.3170788527199
 20
0.0000000000000213
 30
0.0
 11
188.51183887468989
 21
0.0000000000000213
 31
0.0
  0
LINE
  5
82
  8
1
 62
     7
 10
99.068698917673004
 20
-16.0
 30
0.0
 11
99.068698917672975
 21
-22.999999999999979
 31
0.0
  0
LINE
  5
83
  8
1
 62
     7
 10
106.5686989176729
 20
-42.849999999999987
 30
0.0
 11
106.5686989176729
 21
-22.999999999999979
 31
0.0
  0
LINE
  5
84
  8
1
 62
     7
 10
98.668698917672984
 20
-42.849999999999987
 30
0.0
 11
98.668698917672984
 21
-45.0
 31
0.0
  0
LINE
  5
85
  8
1
 62
     7
 10
110.4686989176729
 20
-20.0
 30
0.0
 11
110.4686989176729
 21
-23.000000000000011
 31
0.0
  0
LINE
  5
86
  8
1
 62
     7
 10
110.4686989176729
 20
-20.0
 30
0.0
 11
110.868698917673
 21
-20.0
 31
0.0
  0
LINE
  5
87
  8
1
 62
     7
 10
106.5686989176729
 20
-42.849999999999987
 30
0.0
 11
98.668698917672984
 21
-42.849999999999987
 31
0.0
  0
LINE
  5
88
  8
1
 62
     7
 10
106.5686989176729
 20
-22.999999999999979
 30
0.0
 11
99.068698917672975
 21
-22.999999999999979
 31
0.0
  0
LINE
  5
89
  8
1
 62
     7
 10
106.5686989176729
 20
42.850000000000009
 30
0.0
 11
106.5686989176729
 21
23.0
 31
0.0
  0
LINE
  5
8A
  8
1
 62
     7
 10
98.668698917672984
 20
42.850000000000009
 30
0.0
 11
106.5686989176729
 21
42.850000000000009
 31
0.0
  0
LINE
  5
8B
  8
1
 62
     7
 10
98.668698917672984
 20
23.0
 30
0.0
 11
106.5686989176729
 21
23.0
 31
0.0
  0
LINE
  5
8C
  8
1
 62
     7
 10
110.868698917673
 20
20.0
 30
0.0
 11
110.4686989176729
 21
20.0
 31
0.0
  0
LINE
  5
8D
  8
1
 62
     7
 10
96.868698917673015
 20
-16.0
 30
0.0
 11
99.068698917673004
 21
-16.0
 31
0.0
  0
LINE
  5
8E
  8
1
 62
     7
 10
98.168698917672955
 20
-24.749999999999989
 30
0.0
 11
96.368698917673001
 21
-24.750000000000011
 31
0.0
  0
LINE
  5
8F
  8
1
 62
     7
 10
96.368698917673001
 20
-20.750000000000011
 30
0.0
 11
98.168698917672955
 21
-20.750000000000011
 31
0.0
  0
LINE
  5
90
  8
1
 62
     7
 10
104.26869891767291
 20
23.5
 30
0.0
 11
104.26869891767291
 21
42.350000000000009
 31
0.0
  0
LINE
  5
91
  8
1
 62
     7
 10
98.168698917672955
 20
20.75
 30
0.0
 11
96.368698917673001
 21
20.75
 31
0.0
  0
LINE
  5
92
  8
1
 62
     7
 10
98.168698917672955
 20
24.75
 30
0.0
 11
98.168698917672955
 21
19.710000000000012
 31
0.0
  0
LINE
  5
93
  8
1
 62
     7
 10
84.368698917673015
 20
42.350000000000009
 30
0.0
 11
104.26869891767291
 21
42.350000000000009
 31
0.0
  0
LINE
  5
94
  8
1
 62
     7
 10
104.26869891767291
 20
23.5
 30
0.0
 11
98.168698917672955
 21
23.5
 31
0.0
  0
LINE
  5
95
  8
1
 62
     7
 10
104.26869891767291
 20
-42.34999999999998
 30
0.0
 11
84.368698917673015
 21
-42.34999999999998
 31
0.0
  0
LINE
  5
96
  8
1
 62
     7
 10
104.26869891767291
 20
-42.34999999999998
 30
0.0
 11
104.26869891767291
 21
-23.499999999999989
 31
0.0
  0
LINE
  5
97
  8
1
 62
     7
 10
98.168698917672955
 20
-23.499999999999989
 30
0.0
 11
104.26869891767291
 21
-23.499999999999989
 31
0.0
  0
LINE
  5
98
  8
1
 62
     7
 10
78.351233030413283
 20
-35.0
 30
0.0
 11
76.368698917673015
 21
-35.0
 31
0.0
  0
LINE
  5
99
  8
1
 62
     7
 10
76.368698917673015
 20
62.0
 30
0.0
 11
78.368698917673015
 21
62.0
 31
0.0
  0
LINE
  5
9A
  8
1
 62
     7
 10
76.368698917673015
 20
-20.75
 30
0.0
 11
78.368698917673015
 21
-20.75
 31
0.0
  0
LINE
  5
9B
  8
1
  6
DASHDOT
 62
     3
 10
74.682911042028039
 20
56.000000000000028
 30
0.0
 11
79.63211453704227
 21
56.000000000000028
 31
0.0
  0
LINE
  5
9C
  8
1
 62
     7
 10
76.368698917673015
 20
58.75
 30
0.0
 11
78.368698917673015
 21
58.75
 31
0.0
  0
LINE
  5
9D
  8
1
 62
     7
 10
76.368698917673015
 20
53.374419525452033
 30
0.0
 11
78.368698917673015
 21
53.374419525452033
 31
0.0
  0
LINE
  5
9E
  8
1
 62
     7
 10
209.61499238326891
 20
70.660341923670302
 30
0.0
 11
210.91924127828639
 21
75.487250387571606
 31
0.0
  0
LINE
  5
9F
  8
1
 62
     7
 10
210.11110794454191
 20
70.52740815967482
 30
0.0
 11
211.43364724865219
 21
75.349415723230408
 31
0.0
  0
LINE
  5
A0
  8
1
 62
     7
 10
210.71206506002599
 20
70.36638218589502
 30
0.0
 11
212.0163139550435
 21
75.19329064979631
 31
0.0
  0
LINE
  5
A1
  8
1
 62
     7
 10
214.13247239495959
 20
74.626267704764501
 30
0.0
 11
212.84853083895189
 21
69.793917905775118
 31
0.0
  0
LINE
  5
A2
  8
1
 62
     7
 10
213.61806642459391
 20
74.764102369105728
 30
0.0
 11
212.352415277679
 21
69.926851669770713
 31
0.0
  0
LINE
  5
A3
  8
1
 62
     7
 10
213.0353997182026
 20
74.920227442539812
 30
0.0
 11
211.75145816219489
 21
70.087877643550428
 31
0.0
  0
LINE
  5
A4
  8
1
 62
     7
 10
186.41445886370491
 20
62.0
 30
0.0
 11
198.41445886370491
 21
62.0
 31
0.0
  0
LINE
  5
A5
  8
1
 62
     7
 10
110.868698917673
 20
-7.5000000000000071
 30
0.0
 11
84.368698917672987
 21
-7.5000000000000071
 31
0.0
  0
LINE
  5
A6
  8
1
 62
     7
 10
96.868698917673015
 20
-16.0
 30
0.0
 11
99.068698917673004
 21
-16.0
 31
0.0
  0
LINE
  5
A7
  8
1
 62
     7
 10
110.0686989176729
 20
-42.5
 30
0.0
 11
111.0686989176729
 21
-42.5
 31
0.0
  0
LINE
  5
A8
  8
1
 62
     7
 10
108.6253232446989
 20
-45.0
 30
0.0
 11
110.0686989176729
 21
-42.5
 31
0.0
  0
LINE
  5
A9
  8
1
 62
     7
 10
98.668698917672984
 20
-45.0
 30
0.0
 11
108.6253232446989
 21
-45.0
 31
0.0
  0
LINE
  5
AA
  8
1
 62
     7
 10
111.0686989176729
 20
-21.667999999999999
 30
0.0
 11
111.0686989176729
 21
-42.5
 31
0.0
  0
LINE
  5
AB
  8
1
 62
     7
 10
110.4686989176729
 20
-23.000000000000011
 30
0.0
 11
111.0686989176729
 21
-23.000000000000011
 31
0.0
  0
LINE
  5
AC
  8
1
 62
     7
 10
110.4686989176729
 20
23.0
 30
0.0
 11
110.4686989176729
 21
20.0
 31
0.0
  0
LINE
  5
AD
  8
1
 62
     7
 10
111.0686989176729
 20
23.0
 30
0.0
 11
110.4686989176729
 21
23.0
 31
0.0
  0
LINE
  5
AE
  8
1
 62
     7
 10
111.0686989176729
 20
42.5
 30
0.0
 11
111.0686989176729
 21
21.667999999999999
 31
0.0
  0
LINE
  5
AF
  8
1
 62
     7
 10
96.868698917673015
 20
16.0
 30
0.0
 11
96.368698917673001
 21
15.5
 31
0.0
  0
LINE
  5
B0
  8
1
 62
     7
 10
108.6253232446989
 20
45.000000000000021
 30
0.0
 11
98.668698917672984
 21
45.000000000000021
 31
0.0
  0
LINE
  5
B1
  8
1
 62
     7
 10
110.0686989176729
 20
42.5
 30
0.0
 11
108.6253232446989
 21
45.000000000000021
 31
0.0
  0
LINE
  5
B2
  8
1
 62
     7
 10
111.0686989176729
 20
42.5
 30
0.0
 11
110.0686989176729
 21
42.5
 31
0.0
  0
LINE
  5
B3
  8
1
 62
     7
 10
98.668698917672984
 20
45.000000000000021
 30
0.0
 11
98.668698917672984
 21
42.850000000000009
 31
0.0
  0
LINE
  5
B4
  8
1
 62
     7
 10
98.668698917672984
 20
16.0
 30
0.0
 11
96.868698917673015
 21
16.0
 31
0.0
  0
LINE
  5
B5
  8
1
 62
     7
 10
84.368698917672987
 20
7.5
 30
0.0
 11
110.868698917673
 21
7.5
 31
0.0
  0
LINE
  5
B6
  8
1
 62
     7
 10
84.368698917672987
 20
9.7999999999999936
 30
0.0
 11
110.868698917673
 21
9.7999999999999936
 31
0.0
  0
LINE
  5
B7
  8
1
 62
     7
 10
115.4686989176729
 20
-23.75
 30
0.0
 11
115.968698917673
 21
-23.75
 31
0.0
  0
LINE
  5
B8
  8
1
 62
     7
 10
115.968698917673
 20
-32.0
 30
0.0
 11
115.968698917673
 21
-42.0
 31
0.0
  0
LINE
  5
B9
  8
1
 62
     7
 10
115.4686989176729
 20
-37.000000000000007
 30
0.0
 11
115.968698917673
 21
-37.000000000000007
 31
0.0
  0
LINE
  5
BA
  8
1
 62
     7
 10
115.4686989176729
 20
-42.0
 30
0.0
 11
115.4686989176729
 21
-32.0
 31
0.0
  0
LINE
  5
BB
  8
1
  6
DASHDOT
 62
     3
 10
111.26869891767291
 20
-30.000000000000011
 30
0.0
 11
125.62741333918591
 21
-30.000000000000011
 31
0.0
  0
LINE
  5
BC
  8
1
 62
     7
 10
115.968698917673
 20
-34.500000000000007
 30
0.0
 11
117.9686989176729
 21
-34.500000000000007
 31
0.0
  0
LINE
  5
BD
  8
1
 62
     7
 10
115.968698917673
 20
-25.500000000000011
 30
0.0
 11
117.9686989176729
 21
-25.500000000000011
 31
0.0
  0
LINE
  5
BE
  8
1
 62
     7
 10
111.26869891767291
 20
-34.25
 30
0.0
 11
115.0686989176729
 21
-34.25
 31
0.0
  0
LINE
  5
BF
  8
1
 62
     7
 10
111.26869891767291
 20
-25.750000000000011
 30
0.0
 11
115.0686989176729
 21
-25.750000000000011
 31
0.0
  0
LINE
  5
C0
  8
1
 62
     7
 10
115.4686989176729
 20
-42.0
 30
0.0
 11
115.968698917673
 21
-42.0
 31
0.0
  0
LINE
  5
C1
  8
1
 62
     7
 10
116.968698917673
 20
33.900000000000013
 30
0.0
 11
117.4686989176729
 21
34.400000000000013
 31
0.0
  0
LINE
  5
C2
  8
1
 62
     7
 10
117.4686989176729
 20
40.59999999999998
 30
0.0
 11
116.968698917673
 21
41.09999999999998
 31
0.0
  0
LINE
  5
C3
  8
1
 62
     7
 10
116.0686989176729
 20
41.09999999999998
 30
0.0
 11
116.0686989176729
 21
33.900000000000013
 31
0.0
  0
LINE
  5
C4
  8
1
 62
     7
 10
115.5686989176729
 20
33.900000000000013
 30
0.0
 11
116.968698917673
 21
33.900000000000013
 31
0.0
  0
LINE
  5
C5
  8
1
 62
     7
 10
117.4686989176729
 20
40.59999999999998
 30
0.0
 11
117.4686989176729
 21
34.400000000000013
 31
0.0
  0
LINE
  5
C6
  8
1
 62
     7
 10
115.5686989176729
 20
41.09999999999998
 30
0.0
 11
116.968698917673
 21
41.09999999999998
 31
0.0
  0
LINE
  5
C7
  8
1
 62
     7
 10
115.0686989176729
 20
33.0
 30
0.0
 11
115.5686989176729
 21
33.0
 31
0.0
  0
LINE
  5
C8
  8
1
 62
     7
 10
115.0686989176729
 20
31.86602540378443
 30
0.0
 11
115.4686989176729
 21
30.0
 31
0.0
  0
LINE
  5
C9
  8
1
 62
     7
 10
115.5686989176729
 20
31.931851652578121
 30
0.0
 11
115.968698917673
 21
30.06582624879367
 31
0.0
  0
LINE
  5
CA
  8
1
 62
     7
 10
115.5686989176729
 20
42.0
 30
0.0
 11
115.5686989176729
 21
31.931851652578121
 31
0.0
  0
LINE
  5
CB
  8
1
 62
     7
 10
115.0686989176729
 20
42.0
 30
0.0
 11
115.5686989176729
 21
42.0
 31
0.0
  0
LINE
  5
CC
  8
1
 62
     7
 10
87.116454278370824
 20
74.379591790226996
 30
0.0
 11
87.116454278370824
 21
71.076344712652286
 31
0.0
  0
LINE
  5
CD
  8
1
 62
     7
 10
87.545689271937846
 20
74.379591790226996
 30
0.0
 11
87.545689271937846
 21
71.076344712652286
 31
0.0
  0
LINE
  5
CE
  8
1
 62
     7
 10
88.137737538926913
 20
74.379591790226996
 30
0.0
 11
88.137737538926913
 21
71.076344712652286
 31
0.0
  0
LINE
  5
CF
  8
1
 62
     7
 10
88.626177359192866
 20
74.379591790226996
 30
0.0
 11
88.626177359192866
 21
71.076344712652286
 31
0.0
  0
LINE
  5
D0
  8
1
 62
     7
 10
89.118698917673015
 20
71.076344712652286
 30
0.0
 11
89.118698917673015
 21
42.350000000000023
 31
0.0
  0
LINE
  5
D1
  8
1
 62
     7
 10
86.618698917673015
 20
71.076344712652286
 30
0.0
 11
86.618698917673015
 21
42.350000000000023
 31
0.0
  0
LINE
  5
D2
  8
1
 62
     7
 10
115.0686989176729
 20
-43.0
 30
0.0
 11
111.26869891767291
 21
-43.0
 31
0.0
  0
LINE
  5
D3
  8
1
 62
     7
 10
111.26869891767291
 20
22.5
 30
0.0
 11
115.0686989176729
 21
22.5
 31
0.0
  0
LINE
  5
D4
  8
1
 62
     7
 10
111.26869891767291
 20
43.0
 30
0.0
 11
115.0686989176729
 21
43.0
 31
0.0
  0
LINE
  5
D5
  8
1
 62
     7
 10
111.26869891767291
 20
43.0
 30
0.0
 11
111.26869891767291
 21
-43.0
 31
0.0
  0
LINE
  5
D6
  8
1
 62
     7
 10
208.81694704538771
 20
70.87417752747902
 30
0.0
 11
213.64657617683301
 21
69.580082301966428
 31
0.0
  0
LINE
  5
D7
  8
1
  6
DASHDOT
 62
     3
 10
211.90003044885481
 20
11.25
 30
0.0
 11
224.45739880372909
 21
18.500000000000011
 31
0.0
  0
LINE
  5
D8
  8
1
  6
DASHDOT
 62
     3
 10
-6.0255698917520979
 20
56.000000000000028
 30
0.0
 11
-1.827063243769288
 21
56.000000000000028
 31
0.0
  0
LINE
  5
D9
  8
1
 62
     7
 10
206.45814302432291
 20
42.752484549986178
 30
0.0
 11
213.64657617683301
 21
69.580082301966428
 31
0.0
  0
LINE
  5
DA
  8
1
 62
     7
 10
201.62851389287761
 20
44.046579775498742
 30
0.0
 11
208.81694704538771
 21
70.87417752747902
 31
0.0
  0
LINE
  5
DB
  8
1
 62
     7
 10
200.41445886370491
 20
60.0
 30
0.0
 11
200.41445886370491
 21
44.283179650969082
 31
0.0
  0
LINE
  5
DC
  8
1
 62
     7
 10
184.41445886370499
 20
60.0
 30
0.0
 11
184.41445886370499
 21
44.283179650969082
 31
0.0
  0
LINE
  5
DD
  8
1
 62
     7
 10
194.91445886370491
 20
9.7999999999999936
 30
0.0
 11
194.91445886370491
 21
7.0710678118654897
 31
0.0
  0
LINE
  5
DE
  8
1
 62
     7
 10
189.91445886370491
 20
9.7999999999999936
 30
0.0
 11
189.91445886370491
 21
7.0710678118654897
 31
0.0
  0
LINE
  5
DF
  8
1
 62
     7
 10
110.868698917673
 20
20.0
 30
0.0
 11
110.868698917673
 21
-20.0
 31
0.0
  0
LINE
  5
E0
  8
1
 62
     7
 10
78.368698917673015
 20
62.0
 30
0.0
 11
78.368698917673015
 21
-36.34999999999998
 31
0.0
  0
LINE
  5
E1
  8
1
 62
     7
 10
96.368698917673001
 20
-23.500000000000011
 30
0.0
 11
84.368698917672987
 21
-23.499999999999989
 31
0.0
  0
LINE
  5
E2
  8
1
 62
     7
 10
96.368698917673001
 20
-12.5
 30
0.0
 11
96.368698917673001
 21
-24.750000000000011
 31
0.0
  0
LINE
  5
E3
  8
1
 62
     7
 10
96.368698917673001
 20
-15.5
 30
0.0
 11
96.868698917673015
 21
-16.0
 31
0.0
  0
LINE
  5
E4
  8
1
 62
     7
 10
96.368698917673001
 20
-12.5
 30
0.0
 11
84.368698917672987
 21
-12.5
 31
0.0
  0
LINE
  5
E5
  8
1
 62
     7
 10
98.168698917672955
 20
-24.749999999999989
 30
0.0
 11
98.168698917672955
 21
-19.710000000000012
 31
0.0
  0
LINE
  5
E6
  8
1
 62
     7
 10
96.368698917673001
 20
24.75
 30
0.0
 11
96.368698917673001
 21
12.5
 31
0.0
  0
LINE
  5
E7
  8
1
 62
     7
 10
96.368698917673001
 20
12.5
 30
0.0
 11
84.368698917672987
 21
12.5
 31
0.0
  0
LINE
  5
E8
  8
1
 62
     7
 10
76.368698917673015
 20
20.75
 30
0.0
 11
78.368698917673015
 21
20.75
 31
0.0
  0
LINE
  5
E9
  8
1
 62
     7
 10
89.118698917673015
 20
71.076344712652286
 30
0.0
 11
86.618698917673015
 21
71.076344712652286
 31
0.0
  0
LINE
  5
EA
  8
1
 62
     7
 10
98.668698917672984
 20
16.0
 30
0.0
 11
98.668698917672984
 21
23.0
 31
0.0
  0
LINE
  5
EB
  8
1
 62
     7
 10
96.368698917673001
 20
24.75
 30
0.0
 11
98.168698917672955
 21
24.75
 31
0.0
  0
LINE
  5
EC
  8
1
 62
     7
 10
115.0686989176729
 20
-33.5
 30
0.0
 11
114.5686989176729
 21
-33.5
 31
0.0
  0
LINE
  5
ED
  8
1
 62
     7
 10
114.5686989176729
 20
-26.500000000000011
 30
0.0
 11
115.0686989176729
 21
-26.500000000000011
 31
0.0
  0
LINE
  5
EE
  8
1
 62
     7
 10
114.5686989176729
 20
-26.250000000000011
 30
0.0
 11
114.168698917673
 21
-26.250000000000011
 31
0.0
  0
LINE
  5
EF
  8
1
 62
     7
 10
114.168698917673
 20
-26.250000000000011
 30
0.0
 11
114.168698917673
 21
-33.75
 31
0.0
  0
LINE
  5
F0
  8
1
 62
     7
 10
114.168698917673
 20
-33.75
 30
0.0
 11
114.5686989176729
 21
-33.75
 31
0.0
  0
LINE
  5
F1
  8
1
 62
     7
 10
114.5686989176729
 20
-33.75
 30
0.0
 11
114.5686989176729
 21
-26.250000000000011
 31
0.0
  0
LINE
  5
F2
  8
1
 62
     7
 10
111.8186989176729
 20
-28.000000000000011
 30
0.0
 11
111.8186989176729
 21
-32.000000000000007
 31
0.0
  0
LINE
  5
F3
  8
1
 62
     7
 10
115.0686989176729
 20
-28.0
 30
0.0
 11
123.9686989176729
 21
-28.000000000000011
 31
0.0
  0
LINE
  5
F4
  8
1
 62
     7
 10
123.9686989176729
 20
-28.000000000000011
 30
0.0
 11
124.5686989176729
 21
-28.600000000000009
 31
0.0
  0
LINE
  5
F5
  8
1
 62
     7
 10
124.5686989176729
 20
-28.600000000000009
 30
0.0
 11
124.5686989176729
 21
-31.400000000000009
 31
0.0
  0
LINE
  5
F6
  8
1
 62
     7
 10
124.5686989176729
 20
-31.400000000000009
 30
0.0
 11
123.9686989176729
 21
-32.000000000000007
 31
0.0
  0
LINE
  5
F7
  8
1
 62
     7
 10
123.9686989176729
 20
-32.000000000000007
 30
0.0
 11
115.0686989176729
 21
-32.0
 31
0.0
  0
LINE
  5
F8
  8
1
 62
     7
 10
123.9686989176729
 20
-28.000000000000011
 30
0.0
 11
123.9686989176729
 21
-32.000000000000007
 31
0.0
  0
LINE
  5
F9
  8
1
 62
     3
 10
124.5686989176729
 20
-28.600000000000009
 30
0.0
 11
116.1079294022143
 21
-28.600000000000009
 31
0.0
  0
LINE
  5
FA
  8
1
 62
     3
 10
116.1079294022143
 20
-28.600000000000009
 30
0.0
 11
115.0686989176729
 21
-28.0
 31
0.0
  0
LINE
  5
FB
  8
1
 62
     3
 10
124.5686989176729
 20
-31.400000000000009
 30
0.0
 11
116.1079294022143
 21
-31.400000000000009
 31
0.0
  0
LINE
  5
FC
  8
1
 62
     3
 10
116.1079294022143
 20
-31.400000000000009
 30
0.0
 11
115.0686989176729
 21
-32.0
 31
0.0
  0
LINE
  5
FD
  8
1
 62
     3
 10
116.1079294022143
 20
-28.000000000000011
 30
0.0
 11
116.1079294022143
 21
-32.000000000000007
 31
0.0
  0
LINE
  5
FE
  8
1
 62
     7
 10
-5.0
 20
62.0
 30
0.0
 11
-5.0
 21
-35.0
 31
0.0
  0
LINE
  5
FF
  8
1
 62
     7
 10
-3.0
 20
62.0
 30
0.0
 11
-3.0
 21
-36.34999999999998
 31
0.0
  0
LINE
  5
100
  8
1
 62
     7
 10
7.75
 20
71.076344712652286
 30
0.0
 11
5.25
 21
71.076344712652286
 31
0.0
  0
LINE
  5
101
  8
1
 62
     7
 10
28.699999999999999
 20
-42.5
 30
0.0
 11
27.2566243270259
 21
-45.0
 31
0.0
  0
LINE
  5
102
  8
1
 62
     7
 10
36.600000000000001
 20
-25.500000000000011
 30
0.0
 11
36.600000000000001
 21
-34.500000000000007
 31
0.0
  0
LINE
  5
103
  8
1
 62
     7
 10
34.600000000000001
 20
30.06582624879367
 30
0.0
 11
34.600000000000001
 21
-41.999999999999993
 31
0.0
  0
LINE
  5
104
  8
1
 62
     7
 10
33.700000000000003
 20
-43.0
 30
0.0
 11
33.700000000000003
 21
43.0
 31
0.0
  0
LINE
  5
105
  8
1
 62
     7
 10
-104.88542643897421
 20
40.906958743342038
 30
0.0
 11
-112.7417426262879
 21
70.227129914722724
 31
0.0
  0
LINE
  5
106
  8
1
 62
     7
 10
-112.42922229346389
 20
75.487250387571606
 30
0.0
 11
-111.1249733984464
 21
70.660341923670302
 31
0.0
  0
LINE
  5
107
  8
1
 62
     7
 10
-112.9436282638295
 20
75.349415723230408
 30
0.0
 11
-111.6210889597192
 21
70.52740815967482
 31
0.0
  0
LINE
  5
108
  8
1
 62
     7
 10
-113.5262949702209
 20
75.19329064979631
 30
0.0
 11
-112.22204607520339
 21
70.36638218589502
 31
0.0
  0
LINE
  5
109
  8
1
 62
     7
 10
-114.3585118541292
 20
69.793917905775118
 30
0.0
 11
-115.64245341013709
 21
74.626267704764501
 31
0.0
  0
LINE
  5
10A
  8
1
 62
     7
 10
-113.8623962928565
 20
69.926851669770713
 30
0.0
 11
-115.12804743977139
 21
74.764102369105728
 31
0.0
  0
LINE
  5
10B
  8
1
 62
     7
 10
-113.2614391773723
 20
70.087877643550428
 30
0.0
 11
-114.54538073338
 21
74.920227442539812
 31
0.0
  0
LINE
  5
10C
  8
1
 62
     7
 10
-115.1565571920105
 20
69.580082301966428
 30
0.0
 11
-110.32692806056519
 21
70.87417752747902
 31
0.0
  0
LINE
  5
10D
  8
1
 62
     7
 10
-115.1565571920105
 20
69.580082301966428
 30
0.0
 11
-107.2811261198412
 21
40.188573409124423
 31
0.0
  0
LINE
  5
10E
  8
1
 62
     7
 10
-110.32692806056519
 20
70.87417752747902
 30
0.0
 11
-102.4514969883959
 21
41.482668634636973
 31
0.0
  0
LINE
  5
10F
  8
1
 62
     7
 10
76.368698917673015
 20
62.0
 30
0.0
 11
76.368698917673015
 21
-35.0
 31
0.0
  0
LINE
  5
110
  8
1
 62
     7
 10
88.630316048452315
 20
15.195
 30
0.0
 11
84.368698917672987
 21
15.195
 31
0.0
  0
LINE
  5
111
  8
1
 62
     7
 10
92.107081786893687
 20
15.195
 30
0.0
 11
96.368698917673001
 21
15.195
 31
0.0
  0
LINE
  5
112
  8
1
 62
     7
 10
88.630316048452315
 20
20.805
 30
0.0
 11
84.368698917672987
 21
20.805
 31
0.0
  0
LINE
  5
113
  8
1
 62
     7
 10
92.107081786893687
 20
20.805
 30
0.0
 11
96.368698917673001
 21
20.805
 31
0.0
  0
LINE
  5
114
  8
1
 62
     7
 10
95.018698917672992
 20
21.478750000000002
 30
0.0
 11
95.018698917672992
 21
14.52125
 31
0.0
  0
LINE
  5
115
  8
1
 62
     7
 10
85.718698917672967
 20
21.478750000000002
 30
0.0
 11
85.718698917672967
 21
14.52125
 31
0.0
  0
LINE
  5
116
  8
1
 62
     7
 10
88.630316048452315
 20
-15.195
 30
0.0
 11
84.368698917672987
 21
-15.195
 31
0.0
  0
LINE
  5
117
  8
1
 62
     7
 10
92.107081786893687
 20
-15.195
 30
0.0
 11
96.368698917673001
 21
-15.195
 31
0.0
  0
LINE
  5
118
  8
1
 62
     7
 10
88.630316048452315
 20
-20.805
 30
0.0
 11
84.368698917672987
 21
-20.805
 31
0.0
  0
LINE
  5
119
  8
1
 62
     7
 10
92.107081786893687
 20
-20.805
 30
0.0
 11
96.368698917673001
 21
-20.805
 31
0.0
  0
LINE
  5
11A
  8
1
 62
     7
 10
95.018698917672992
 20
-21.478750000000002
 30
0.0
 11
95.018698917672992
 21
-14.52125
 31
0.0
  0
LINE
  5
11B
  8
1
 62
     7
 10
85.718698917672967
 20
-21.478750000000002
 30
0.0
 11
85.718698917672967
 21
-14.52125
 31
0.0
  0
LINE
  5
11C
  8
1
 62
     7
 10
113.968698917673
 20
-34.25
 30
0.0
 11
113.968698917673
 21
-43.0
 31
0.0
  0
LINE
  5
11D
  8
1
 62
     7
 10
115.0686989176729
 20
-22.500000000000011
 30
0.0
 11
111.26869891767291
 21
-22.500000000000011
 31
0.0
  0
LINE
  5
11E
  8
1
 62
     7
 10
113.968698917673
 20
43.0
 30
0.0
 11
113.968698917673
 21
-25.750000000000011
 31
0.0
  0
LINE
  5
11F
  8
1
 62
     7
 10
115.4686989176729
 20
-23.000000000000011
 30
0.0
 11
115.0686989176729
 21
-23.000000000000011
 31
0.0
  0
LINE
  5
120
  8
1
 62
     7
 10
115.4686989176729
 20
-37.000000000000007
 30
0.0
 11
115.0686989176729
 21
-37.000000000000007
 31
0.0
  0
LINE
  5
121
  8
1
 62
     7
 10
115.968698917673
 20
-28.0
 30
0.0
 11
115.968698917673
 21
30.06582624879367
 31
0.0
  0
LINE
  5
122
  8
1
 62
     7
 10
115.0686989176729
 20
43.0
 30
0.0
 11
115.0686989176729
 21
-43.0
 31
0.0
  0
LINE
  5
123
  8
1
 62
     7
 10
115.4686989176729
 20
-28.0
 30
0.0
 11
115.4686989176729
 21
30.0
 31
0.0
  0
LINE
  5
124
  8
1
 62
     7
 10
32.59999999999998
 20
43.0
 30
0.0
 11
32.59999999999998
 21
-42.999999999999993
 31
0.0
  0
ARC
  5
125
  8
1
 62
     7
 10
83.368698917673015
 20
28.100000000000001
 30
0.0
 40
5.0
 50
180.0
 51
258.4630409671841
  0
ARC
  5
126
  8
1
 62
     7
 10
84.368698917673015
 20
36.350000000000009
 30
0.0
 40
6.0
 50
90.0
 51
180.0
  0
ARC
  5
127
  8
1
 62
     7
 10
-93.924439878882396
 20
0.0000000000000213
 30
0.0
 40
45.0
 50
100.2403483211862
 51
101.8152614632795
  0
ARC
  5
128
  8
1
 62
     7
 10
-93.924439878882396
 20
0.0000000000000213
 30
0.0
 40
44.999999999999993
 50
108.1847385367202
 51
79.759651678813782
  0
ARC
  5
129
  8
1
 62
     7
 10
-93.924439878882396
 20
0.0000000000000213
 30
0.0
 40
35.0
 50
111.8447574857632
 51
68.15524251423669
  0
ARC
  5
12A
  8
1
 62
     7
 10
-87.924439878882396
 20
60.0
 30
0.0
 40
2.0
 50
0.0
 51
90.0
  0
ARC
  5
12B
  8
1
 62
     7
 10
-99.924439878882424
 20
60.0
 30
0.0
 40
2.0
 50
90.0
 51
180.0
  0
ARC
  5
12C
  8
1
 62
     7
 10
-93.924439878882396
 20
0.0000000000000213
 30
0.0
 40
7.4999999999999929
 50
109.47122063449071
 51
70.528779365509266
  0
ARC
  5
12D
  8
1
  6
DASHDOT
 62
     3
 10
192.41445886370499
 20
0.0000000000000213
 30
0.0
 40
29.99999999999994
 50
16.259377499948709
 51
44.872957918440527
  0
ARC
  5
12E
  8
1
  6
DASHDOT
 62
     3
 10
192.41445886370499
 20
0.0000000000000213
 30
0.0
 40
30.000000000000089
 50
136.13289640597409
 51
164.0791393255669
  0
ARC
  5
12F
  8
1
 62
     7
 10
186.41445886370491
 20
60.0
 30
0.0
 40
2.0
 50
90.0
 51
180.0
  0
ARC
  5
130
  8
1
 62
     7
 10
198.41445886370491
 20
60.0
 30
0.0
 40
2.0
 50
0.0
 51
90.0
  0
ARC
  5
131
  8
1
 62
     7
 10
192.41445886370499
 20
0.0000000000000213
 30
0.0
 40
32.999999999999979
 50
65.000000000000099
 51
115.0
  0
ARC
  5
132
  8
1
 62
     7
 10
202.13467888374089
 20
20.845079101842959
 30
0.0
 40
9.9999999999999698
 50
326.88453331834728
 51
65.0
  0
ARC
  5
133
  8
1
 62
     7
 10
192.41445886370499
 20
0.0000000000000213
 30
0.0
 40
23.74999999999994
 50
19.63499375823044
 51
40.365006241769763
  0
ARC
  5
134
  8
1
 62
     7
 10
215.3269369198151
 20
-2.0045820831961261
 30
0.0
 40
10.00000000000005
 50
354.99999999999977
 51
93.115466681652578
  0
ARC
  5
135
  8
1
 62
     7
 10
192.41445886370499
 20
0.0000000000000213
 30
0.0
 40
42.0
 50
299.99999999999977
 51
359.99999999999977
  0
ARC
  5
136
  8
1
 62
     7
 10
192.41445886370499
 20
0.0000000000000213
 30
0.0
 40
32.999999999999957
 50
304.99999999999977
 51
355.0
  0
ARC
  5
137
  8
1
 62
     7
 10
205.606716899779
 20
-18.84049701864679
 30
0.0
 40
10.0
 50
206.88453331834751
 51
304.99999999999932
  0
ARC
  5
138
  8
1
 62
     7
 10
192.41445886370499
 20
0.0000000000000213
 30
0.0
 40
23.750000000000011
 50
259.63499375823011
 51
280.36500624176938
  0
ARC
  5
139
  8
1
 62
     7
 10
179.22220082763079
 20
-18.84049701864679
 30
0.0
 40
9.9999999999999574
 50
235.0000000000004
 51
333.11546668165238
  0
ARC
  5
13A
  8
1
 62
     7
 10
192.41445886370499
 20
0.0000000000000213
 30
0.0
 40
42.000000000000092
 50
180.0
 51
239.99999999999989
  0
ARC
  5
13B
  8
1
 62
     7
 10
192.41445886370499
 20
0.0000000000000213
 30
0.0
 40
33.000000000000092
 50
185.0
 51
234.99999999999989
  0
ARC
  5
13C
  8
1
 62
     7
 10
169.50198080759469
 20
-2.0045820831961181
 30
0.0
 40
10.000000000000011
 50
86.884533318347451
 51
184.9999999999998
  0
ARC
  5
13D
  8
1
 62
     7
 10
192.41445886370499
 20
0.0000000000000213
 30
0.0
 40
23.750000000000071
 50
139.63499375823051
 51
160.36500624176961
  0
ARC
  5
13E
  8
1
 62
     7
 10
192.41445886370499
 20
0.0000000000000213
 30
0.0
 40
42.0
 50
60.0
 51
119.9999999999999
  0
ARC
  5
13F
  8
1
 62
     7
 10
182.6942388436689
 20
20.84507910184298
 30
0.0
 40
9.9999999999999964
 50
115.0000000000001
 51
213.11546668165209
  0
ARC
  5
140
  8
1
 62
     7
 10
192.41445886370499
 20
0.0000000000000213
 30
0.0
 40
7.4999999999999929
 50
109.47122063449071
 51
70.528779365509266
  0
ARC
  5
141
  8
1
 62
     7
 10
-77.924439878882396
 20
39.912404086950218
 30
0.0
 40
8.0
 50
180.0
 51
248.1552425142369
  0
ARC
  5
142
  8
1
 62
     7
 10
-109.9244398788824
 20
39.912404086950218
 30
0.0
 40
7.999999999999992
 50
291.84475748576313
 51
0.0
  0
ARC
  5
143
  8
1
 62
     7
 10
83.368698917673029
 20
-28.099999999999991
 30
0.0
 40
5.0
 50
90.0
 51
180.0
  0
ARC
  5
144
  8
1
 62
     7
 10
233.55066554346581
 20
23.750000000000011
 30
0.0
 40
10.50000000000003
 50
188.8596096617643
 51
231.1403903382371
  0
ARC
  5
145
  8
1
 62
     7
 10
214.41445886370499
 20
0.0
 30
0.0
 40
20.000113214388609
 50
0.0
 51
51.140390338236848
  0
ARC
  5
146
  8
1
 62
     7
 10
203.41445886370499
 20
19.052558883257671
 30
0.0
 40
20.00011321438857
 50
8.8596096617623132
 51
59.999999999999247
  0
ARC
  5
147
  8
1
 62
     7
 10
181.41445886370491
 20
19.052558883257671
 30
0.0
 40
20.000113214388762
 50
120.0000000000007
 51
171.14039033823761
  0
ARC
  5
148
  8
1
 62
     7
 10
151.27825218394409
 20
23.750000000000011
 30
0.0
 40
10.499999999999959
 50
308.85960966176282
 51
351.14039033823559
  0
ARC
  5
149
  8
1
 62
     7
 10
170.41445886370491
 20
0.0
 30
0.0
 40
20.000113214388641
 50
128.8596096617631
 51
180.0
  0
ARC
  5
14A
  8
1
 62
     7
 10
203.41445886370499
 20
-19.052558883257621
 30
0.0
 40
20.000113214388641
 50
248.8596096617629
 51
299.99999999999989
  0
ARC
  5
14B
  8
1
 62
     7
 10
192.41445886370491
 20
-47.499999999999972
 30
0.0
 40
10.5
 50
68.859609661762903
 51
111.14039033823551
  0
ARC
  5
14C
  8
1
 62
     7
 10
181.41445886370491
 20
-19.052558883257621
 30
0.0
 40
20.00011321438873
 50
240.00000000000091
 51
291.14039033823781
  0
ARC
  5
14D
  8
1
  6
DASHDOT
 62
     3
 10
192.41445886370499
 20
0.0000000000000213
 30
0.0
 40
30.000000000000099
 50
256.13289640597401
 51
284.07913932556681
  0
ARC
  5
14E
  8
1
 62
     7
 10
115.28082666537399
 20
-30.196285832627169
 30
0.0
 40
4.1000000000000654
 50
105.7387025673127
 51
147.60999677183401
  0
ARC
  5
14F
  8
1
 62
     7
 10
115.28082666537399
 20
-29.803714167372789
 30
0.0
 40
4.1000000000001027
 50
212.39000322816671
 51
254.2612974326874
  0
ARC
  5
150
  8
1
 62
     7
 10
3.0
 20
36.350000000000023
 30
0.0
 40
5.9999999999999858
 50
90.0
 51
180.0
  0
ARC
  5
151
  8
1
 62
     7
 10
-93.924439878882396
 20
0.0000000000000213
 30
0.0
 40
42.34999999999998
 50
100.88871352660099
 51
79.111286473398863
  0
CIRCLE
  5
152
  8
1
 62
     7
 10
192.41445886370499
 20
0.0000000000000213
 30
0.0
 40
22.5
  0
CIRCLE
  5
153
  8
1
 62
     7
 10
-93.924439878882396
 20
0.0000000000000213
 30
0.0
 40
20.75
  0
CIRCLE
  5
154
  8
1
 62
     7
 10
-93.924439878882396
 20
0.0000000000000213
 30
0.0
 40
15.0
  0
CIRCLE
  5
155
  8
1
 62
     7
 10
-93.924439878882396
 20
56.000000000000028
 30
0.0
 40
2.75
  0
CIRCLE
  5
156
  8
1
 62
     7
 10
192.41445886370499
 20
0.0000000000000213
 30
0.0
 40
20.0
  0
CIRCLE
  5
157
  8
1
 62
     7
 10
224.89041150562139
 20
-18.75
 30
0.0
 40
3.6000000000000232
  0
CIRCLE
  5
158
  8
1
 62
     7
 10
159.93850622178849
 20
-18.749999999999961
 30
0.0
 40
3.6000000000000232
  0
CIRCLE
  5
159
  8
1
 62
     7
 10
192.41445886370499
 20
0.0000000000000213
 30
0.0
 40
43.0
  0
CIRCLE
  5
15A
  8
1
 62
     7
 10
192.41445886370499
 20
37.5
 30
0.0
 40
3.5999999999999082
  0
CIRCLE
  5
15B
  8
1
 62
     7
 10
218.39522097723801
 20
15.0
 30
0.0
 40
5.5
  0
CIRCLE
  5
15C
  8
1
 62
     7
 10
218.39522097723801
 20
15.0
 30
0.0
 40
1.5
  0
CIRCLE
  5
15D
  8
1
 62
     7
 10
218.39522097723801
 20
15.0
 30
0.0
 40
2.0
  0
CIRCLE
  5
15E
  8
1
 62
     7
 10
192.41445886370491
 20
-29.999999999999979
 30
0.0
 40
2.0
  0
CIRCLE
  5
15F
  8
1
 62
     3
 10
192.41445886370491
 20
-29.999999999999979
 30
0.0
 40
1.5
  0
CIRCLE
  5
160
  8
1
 62
     7
 10
192.41445886370491
 20
-29.999999999999979
 30
0.0
 40
1.5
  0
CIRCLE
  5
161
  8
1
 62
     7
 10
192.41445886370491
 20
-29.999999999999979
 30
0.0
 40
5.5
  0
CIRCLE
  5
162
  8
1
 62
     7
 10
166.4336967501718
 20
15.0
 30
0.0
 40
1.5
  0
CIRCLE
  5
163
  8
1
 62
     7
 10
166.4336967501718
 20
15.0
 30
0.0
 40
2.0
  0
CIRCLE
  5
164
  8
1
 62
     7
 10
166.4336967501718
 20
15.0
 30
0.0
 40
5.5
  0
CIRCLE
  5
165
  8
1
 62
     7
 10
192.41445886370499
 20
56.000000000000028
 30
0.0
 40
2.75
  0
CIRCLE
  5
166
  8
1
 62
     7
 10
192.41445886370499
 20
0.0000000000000213
 30
0.0
 40
45.0
  0
CIRCLE
  5
167
  8
1
 62
     7
 10
90.368698917673015
 20
18.0
 30
0.0
 40
3.2999999999999972
  0
CIRCLE
  5
168
  8
1
 62
     7
 10
90.368698917673015
 20
-18.0
 30
0.0
 40
3.2999999999999972
  0
ARC
  5
169
  8
1
 62
     7
 10
84.368698917672987
 20
-36.34999999999998
 30
0.0
 40
5.9999999999999716
 50
180.0
 51
270.0
  0
ARC
  5
16A
  8
1
 62
     7
 10
3.0
 20
-36.34999999999998
 30
0.0
 40
6.0
 50
180.0
 51
270.0
  0
TEXT
  5
16B
  8
1
 62
     7
 10
-126.3079438974171
 20
116.37109585186479
 30
0.0
 40
5.0
  1
VCSH 1.2
 41
0.9
  7
SIMPLEX
  0
ENDSEC
  0
EOF
