  0
SECTION
  2
HEADER
  9
$ACADVER
  1
AC1009
  9
$INSBASE
 10
0.0
 20
0.0
 30
0.0
  9
$EXTMIN
 10
-110.959946575605
 20
-45.0
 30
0.0
  9
$EXTMAX
 10
192.09052582265139
 20
130.9039743433907
 30
0.0
  9
$LIMMIN
 10
-110.959946575605
 20
-45.0
  9
$LIMMAX
 10
190.21745886370491
 20
130.9039743433907
  9
$ORTHOMODE
 70
     0
  9
$REGENMODE
 70
     1
  9
$FILLMODE
 70
     1
  9
$QTEXTMODE
 70
     0
  9
$MIRRTEXT
 70
     1
  9
$DRAGMODE
 70
     2
  9
$LTSCALE
 40
1.0
  9
$OSMODE
 70
    37
  9
$ATTMODE
 70
     1
  9
$TEXTSIZE
 40
3.5
  9
$TRACEWID
 40
0.5
  9
$TEXTSTYLE
  7
STANDARD
  9
$CLAYER
  8
0
  9
$CELTYPE
  6
BYLAYER
  9
$CECOLOR
 62
   256
  9
$DIMSCALE
 40
1.0
  9
$DIMASZ
 40
0.18
  9
$DIMEXO
 40
0.0625
  9
$DIMDLI
 40
0.38
  9
$DIMRND
 40
0.0
  9
$DIMDLE
 40
0.0
  9
$DIMEXE
 40
0.18
  9
$DIMTP
 40
0.0
  9
$DIMTM
 40
0.0
  9
$DIMTXT
 40
0.18
  9
$DIMCEN
 40
0.09
  9
$DIMTSZ
 40
0.0
  9
$DIMTOL
 70
     0
  9
$DIMLIM
 70
     0
  9
$DIMTIH
 70
     1
  9
$DIMTOH
 70
     1
  9
$DIMSE1
 70
     0
  9
$DIMSE2
 70
     0
  9
$DIMTAD
 70
     0
  9
$DIMZIN
 70
     0
  9
$DIMBLK
  1

  9
$DIMASO
 70
     1
  9
$DIMSHO
 70
     1
  9
$DIMPOST
  1

  9
$DIMAPOST
  1

  9
$DIMALT
 70
     0
  9
$DIMALTD
 70
     2
  9
$DIMALTF
 40
25.399999999999999
  9
$DIMLFAC
 40
1.0
  9
$DIMTOFL
 70
     0
  9
$DIMTVP
 40
0.0
  9
$DIMTIX
 70
     0
  9
$DIMSOXD
 70
     0
  9
$DIMSAH
 70
     0
  9
$DIMBLK1
  1

  9
$DIMBLK2
  1

  9
$DIMSTYLE
  2
STANDARD
  9
$DIMCLRD
 70
     0
  9
$DIMCLRE
 70
     0
  9
$DIMCLRT
 70
     0
  9
$DIMTFAC
 40
1.0
  9
$DIMGAP
 40
0.09
  9
$LUNITS
 70
     2
  9
$LUPREC
 70
     4
  9
$SKETCHINC
 40
0.1
  9
$FILLETRAD
 40
2.0
  9
$AUNITS
 70
     0
  9
$AUPREC
 70
     0
  9
$MENU
  1
ACAD
  9
$ELEVATION
 40
0.0
  9
$PELEVATION
 40
0.0
  9
$THICKNESS
 40
0.0
  9
$LIMCHECK
 70
     0
  9
$BLIPMODE
 70
     0
  9
$CHAMFERA
 40
0.0
  9
$CHAMFERB
 40
0.0
  9
$SKPOLY
 70
     0
  9
$TDCREATE
 40
2452095.4328871518
  9
$TDUPDATE
 40
2452095.4336062502
  9
$TDINDWG
 40
0.0007322917
  9
$TDUSRTIMER
 40
0.0007322917
  9
$USRTIMER
 70
     1
  9
$ANGBASE
 50
0.0
  9
$ANGDIR
 70
     0
  9
$PDMODE
 70
     0
  9
$PDSIZE
 40
0.0
  9
$PLINEWID
 40
0.0
  9
$COORDS
 70
     1
  9
$SPLFRAME
 70
     0
  9
$SPLINETYPE
 70
     6
  9
$SPLINESEGS
 70
     8
  9
$ATTDIA
 70
     0
  9
$ATTREQ
 70
     1
  9
$HANDLING
 70
 10241
  9
$HANDSEED
  5
19A
  9
$SURFTAB1
 70
     6
  9
$SURFTAB2
 70
     6
  9
$SURFTYPE
 70
     6
  9
$SURFU
 70
     6
  9
$SURFV
 70
     6
  9
$UCSNAME
  2

  9
$UCSORG
 10
0.0
 20
0.0
 30
0.0
  9
$UCSXDIR
 10
1.0
 20
0.0
 30
0.0
  9
$UCSYDIR
 10
0.0
 20
1.0
 30
0.0
  9
$PUCSNAME
  2

  9
$PUCSORG
 10
0.0
 20
0.0
 30
0.0
  9
$PUCSXDIR
 10
1.0
 20
0.0
 30
0.0
  9
$PUCSYDIR
 10
0.0
 20
1.0
 30
0.0
  9
$USERI1
 70
     0
  9
$USERI2
 70
     0
  9
$USERI3
 70
     0
  9
$USERI4
 70
     0
  9
$USERI5
 70
     0
  9
$USERR1
 40
0.0
  9
$USERR2
 40
0.0
  9
$USERR3
 40
0.0
  9
$USERR4
 40
0.0
  9
$USERR5
 40
0.0
  9
$WORLDVIEW
 70
     1
  9
$SHADEDGE
 70
     3
  9
$SHADEDIF
 70
    70
  9
$TILEMODE
 70
     1
  9
$MAXACTVP
 70
    64
  9
$PLIMCHECK
 70
     0
  9
$PEXTMIN
 10
1.0000000000000000E+020
 20
1.0000000000000000E+020
 30
1.0000000000000000E+020
  9
$PEXTMAX
 10
-1.0000000000000000E+020
 20
-1.0000000000000000E+020
 30
-1.0000000000000000E+020
  9
$PLIMMIN
 10
0.0
 20
0.0
  9
$PLIMMAX
 10
12.0
 20
9.0
  9
$UNITMODE
 70
     0
  9
$VISRETAIN
 70
     1
  9
$PLINEGEN
 70
     0
  9
$PSLTSCALE
 70
     1
  0
ENDSEC
  0
SECTION
  2
TABLES
  0
TABLE
  2
VPORT
 70
     2
  0
VPORT
  2
*ACTIVE
 70
     0
 10
0.0
 20
0.0
 11
1.0
 21
1.0
 12
-89.228937406212594
 22
127.0675326482764
 13
0.0
 23
0.0
 14
1.0
 24
1.0
 15
0.0
 25
0.0
 16
0.0
 26
0.0
 36
1.0
 17
0.0
 27
0.0
 37
0.0
 40
8.999999822952919
 41
3.0569948186528491
 42
50.0
 43
0.0
 44
0.0
 50
0.0
 51
0.0
 71
     0
 72
   100
 73
     1
 74
     1
 75
     0
 76
     0
 77
     0
 78
     0
  0
ENDTAB
  0
TABLE
  2
LTYPE
 70
     9
  0
LTYPE
  2
CONTINUOUS
 70
     0
  3
Solid line
 72
    65
 73
     0
 40
0.0
  0
LTYPE
  2
BORDER
 70
     0
  3
__ __ . __ __ .
 72
    65
 73
     6
 40
13.87001209259981
 49
3.9628605978856579
 49
-1.981430298942829
 49
3.9628605978856579
 49
-1.981430298942829
 49
0.0
 49
-1.981430298942829
  0
LTYPE
  2
CENTER
 70
     0
  3
____ _ ____ _
 72
    65
 73
     4
 40
15.851442391542641
 49
9.9071514947141477
 49
-1.981430298942829
 49
1.981430298942829
 49
-1.981430298942829
  0
LTYPE
  2
DASHDOT
 70
     0
  3
__ . __ . __ .
 72
    65
 73
     4
 40
7.9257211957713167
 49
3.9628605978856579
 49
-1.981430298942829
 49
0.0
 49
-1.981430298942829
  0
LTYPE
  2
DASHED
 70
     0
  3
__ __ __ __ __
 72
    65
 73
     2
 40
5.9442908968284858
 49
3.9628605978856579
 49
-1.981430298942829
  0
LTYPE
  2
DIVIDE
 70
     0
  3
__ . . __ . . 
 72
    65
 73
     6
 40
9.9071514947141477
 49
3.9628605978856579
 49
-1.981430298942829
 49
0.0
 49
-1.981430298942829
 49
0.0
 49
-1.981430298942829
  0
LTYPE
  2
DOT
 70
     0
  3
..............
 72
    65
 73
     4
 40
3.9628605978856579
 49
0.0
 49
-1.981430298942829
 49
0.0
 49
-1.981430298942829
  0
LTYPE
  2
HIDDEN
 70
     0
  3
_ _ _ _ _ _ _
 72
    65
 73
     2
 40
2.9721454484142429
 49
1.981430298942829
 49
-0.9907151494714147
  0
LTYPE
  2
PHANTOM
 70
     0
  3
_____ _ _ _____ _ _ 
 72
    65
 73
     6
 40
19.814302989428299
 49
9.9071514947141477
 49
-1.981430298942829
 49
1.981430298942829
 49
-1.981430298942829
 49
1.981430298942829
 49
-1.981430298942829
  0
ENDTAB
  0
TABLE
  2
LAYER
 70
     2
  0
LAYER
  2
0
 70
     0
 62
     7
  6
CONTINUOUS
  0
LAYER
  2
1
 70
     0
 62
     7
  6
CONTINUOUS
  0
ENDTAB
  0
TABLE
  2
STYLE
 70
     4
  0
STYLE
  2
STANDARD
 70
     0
 40
0.0
 41
1.0
 50
0.0
 71
     0
 42
3.5
  3
txt
  4

  0
STYLE
  2
SIMPLEX
 70
     0
 40
0.0
 41
1.0
 50
0.0
 71
     0
 42
3.5
  3
simplex
  4

  0
STYLE
  2
COMPLEX
 70
     0
 40
0.0
 41
1.0
 50
0.0
 71
     0
 42
3.5
  3
complex
  4

  0
STYLE
  2
ITALIC
 70
     0
 40
0.0
 41
1.0
 50
0.0
 71
     0
 42
3.5
  3
italic
  4

  0
ENDTAB
  0
TABLE
  2
VIEW
 70
     0
  0
ENDTAB
  0
TABLE
  2
UCS
 70
     0
  0
ENDTAB
  0
TABLE
  2
APPID
 70
     1
  0
APPID
  2
ACAD
 70
     0
  0
ENDTAB
  0
TABLE
  2
DIMSTYLE
 70
     1
  0
DIMSTYLE
  2
STANDARD
 70
     0
  3

  4

  5

  6

  7

 40
1.0
 41
0.18
 42
0.0625
 43
0.38
 44
0.18
 45
0.0
 46
0.0
 47
0.0
 48
0.0
140
0.18
141
0.09
142
0.0
143
25.399999999999999
144
1.0
145
0.0
146
1.0
147
0.09
 71
     0
 72
     0
 73
     1
 74
     1
 75
     0
 76
     0
 77
     0
 78
     0
170
     0
171
     2
172
     0
173
     0
174
     0
175
     0
176
     0
177
     0
178
     0
  0
ENDTAB
  0
ENDSEC
  0
SECTION
  2
BLOCKS
  0
BLOCK
  8
0
  2
$MODEL_SPACE
 70
     0
 10
0.0
 20
0.0
 30
0.0
  3
$MODEL_SPACE
  1

  0
ENDBLK
  5
20
  8
0
  0
BLOCK
 67
     1
  8
0
  2
$PAPER_SPACE
 70
     0
 10
0.0
 20
0.0
 30
0.0
  3
$PAPER_SPACE
  1

  0
ENDBLK
  5
1C
 67
     1
  8
0
  0
ENDSEC
  0
SECTION
  2
ENTITIES
  0
POINT
  5
33
  8
1
  6
DOT
 62
     7
 10
145.21745886370499
 20
-7.4999999999999778
 30
0.0
  0
LINE
  5
34
  8
1
 62
     7
 10
4.0806989176729891
 20
23.5
 30
0.0
 11
4.0806989176729891
 21
-23.500000000000011
 31
0.0
  0
LINE
  5
35
  8
1
 62
     7
 10
-94.903999999999996
 20
71.076344712652343
 30
0.0
 11
-97.404000000000011
 21
71.076344712652343
 31
0.0
  0
LINE
  5
36
  8
1
 62
     7
 10
8.8306989176730184
 20
71.076344712652343
 30
0.0
 11
6.3306989176730184
 21
71.076344712652343
 31
0.0
  0
LINE
  5
37
  8
1
 62
     7
 10
6.3306989176730184
 20
71.076344712652343
 30
0.0
 11
6.3306989176730184
 21
42.350000000000023
 31
0.0
  0
LINE
  5
38
  8
1
 62
     7
 10
8.8306989176730184
 20
71.076344712652343
 30
0.0
 11
8.8306989176730184
 21
42.350000000000023
 31
0.0
  0
LINE
  5
39
  8
1
 62
     7
 10
8.3381773591928692
 20
74.379591790226954
 30
0.0
 11
8.3381773591928692
 21
71.076344712652343
 31
0.0
  0
LINE
  5
3A
  8
1
 62
     7
 10
7.8497375389269006
 20
74.379591790226954
 30
0.0
 11
7.8497375389269006
 21
71.076344712652343
 31
0.0
  0
LINE
  5
3B
  8
1
 62
     7
 10
7.2576892719378483
 20
74.379591790226954
 30
0.0
 11
7.2576892719378483
 21
71.076344712652343
 31
0.0
  0
LINE
  5
3C
  8
1
 62
     7
 10
6.8284542783708106
 20
74.379591790226954
 30
0.0
 11
6.8284542783708106
 21
71.076344712652343
 31
0.0
  0
LINE
  5
3D
  8
1
 62
     7
 10
-97.404000000000011
 20
71.076344712652343
 30
0.0
 11
-97.404000000000011
 21
42.350000000000023
 31
0.0
  0
LINE
  5
3E
  8
1
 62
     7
 10
-94.903999999999996
 20
71.076344712652343
 30
0.0
 11
-94.903999999999996
 21
42.350000000000023
 31
0.0
  0
LINE
  5
3F
  8
1
 62
     7
 10
-95.396521558480202
 20
74.379591790226954
 30
0.0
 11
-95.396521558480202
 21
71.076344712652343
 31
0.0
  0
LINE
  5
40
  8
1
 62
     7
 10
-95.884961378746056
 20
74.379591790226954
 30
0.0
 11
-95.884961378746056
 21
71.076344712652343
 31
0.0
  0
LINE
  5
41
  8
1
 62
     7
 10
-96.477009645735208
 20
74.379591790226954
 30
0.0
 11
-96.477009645735208
 21
71.076344712652343
 31
0.0
  0
LINE
  5
42
  8
1
 62
     7
 10
-96.906244639302216
 20
74.379591790226954
 30
0.0
 11
-96.906244639302216
 21
71.076344712652343
 31
0.0
  0
LINE
  5
43
  8
1
 62
     7
 10
2.0806989176729891
 20
21.499999999999989
 30
0.0
 11
4.0806989176729891
 21
21.499999999999989
 31
0.0
  0
LINE
  5
44
  8
1
 62
     7
 10
-1.6563887952577829
 20
26.5
 30
0.0
 11
2.0806989176729891
 21
26.5
 31
0.0
  0
LINE
  5
45
  8
1
 62
     7
 10
2.0806989176729891
 20
26.5
 30
0.0
 11
2.0806989176729891
 21
21.499999999999989
 31
0.0
  0
LINE
  5
46
  8
1
 62
     7
 10
4.0806989176729891
 20
-23.099999999999991
 30
0.0
 11
3.0806989176730171
 21
-23.099999999999991
 31
0.0
  0
LINE
  5
47
  8
1
 62
     7
 10
24.980698917672999
 20
-22.999999999999979
 30
0.0
 11
24.980698917672999
 21
-42.849999999999987
 31
0.0
  0
LINE
  5
48
  8
1
 62
     7
 10
24.980698917672999
 20
23.0
 30
0.0
 11
24.980698917672999
 21
42.850000000000009
 31
0.0
  0
LINE
  5
49
  8
1
 62
     7
 10
37.680698917672999
 20
-23.5
 30
0.0
 11
37.680698917672999
 21
-28.600000000000009
 31
0.0
  0
LINE
  5
4A
  8
1
 62
     7
 10
142.71745886370499
 20
9.7999999999999936
 30
0.0
 11
147.71745886370499
 21
9.7999999999999936
 31
0.0
  0
LINE
  5
4B
  8
1
 62
     7
 10
-73.953999999999979
 20
42.5
 30
0.0
 11
-73.953999999999979
 21
-42.5
 31
0.0
  0
LINE
  5
4C
  8
1
 62
     7
 10
-75.397375672974093
 20
45.000000000000021
 30
0.0
 11
-75.397375672974093
 21
-45.0
 31
0.0
  0
LINE
  5
4D
  8
1
 62
     7
 10
-85.353999999999999
 20
-42.34999999999998
 30
0.0
 11
-99.653999999999996
 21
-42.34999999999998
 31
0.0
  0
LINE
  5
4E
  8
1
 62
     7
 10
-85.353999999999999
 20
43.562565441379817
 30
0.0
 11
-85.353999999999999
 21
-45.0
 31
0.0
  0
LINE
  5
4F
  8
1
  6
DASHDOT
 62
     3
 10
-107.654
 20
0.0
 30
0.0
 11
-110.959946575605
 21
0.0
 31
0.0
  0
LINE
  5
50
  8
1
  6
DASHDOT
 62
     3
 10
-43.553999999999967
 20
0.0
 30
0.0
 11
-40.255470575479059
 21
0.0
 31
0.0
  0
LINE
  5
51
  8
1
 62
     7
 10
-99.653999999999996
 20
42.350000000000009
 30
0.0
 11
-85.353999999999999
 21
42.350000000000009
 31
0.0
  0
LINE
  5
52
  8
1
 62
     7
 10
-105.654
 20
-35.0
 30
0.0
 11
-107.654
 21
-35.0
 31
0.0
  0
LINE
  5
53
  8
1
 62
     7
 10
-107.654
 20
62.0
 30
0.0
 11
-105.654
 21
62.0
 31
0.0
  0
LINE
  5
54
  8
1
 62
     7
 10
-73.953999999999979
 20
-42.5
 30
0.0
 11
-72.953999999999979
 21
-42.5
 31
0.0
  0
LINE
  5
55
  8
1
 62
     7
 10
-85.353999999999999
 20
-45.0
 30
0.0
 11
-75.397375672974093
 21
-45.0
 31
0.0
  0
LINE
  5
56
  8
1
 62
     7
 10
-72.953999999999979
 20
42.5
 30
0.0
 11
-72.953999999999979
 21
-42.5
 31
0.0
  0
LINE
  5
57
  8
1
 62
     7
 10
-75.397375672974093
 20
45.000000000000021
 30
0.0
 11
-85.353999999999999
 21
45.000000000000021
 31
0.0
  0
LINE
  5
58
  8
1
 62
     7
 10
-73.953999999999979
 20
42.5
 30
0.0
 11
-75.397375672974093
 21
45.000000000000021
 31
0.0
  0
LINE
  5
59
  8
1
 62
     7
 10
-72.953999999999979
 20
42.5
 30
0.0
 11
-73.953999999999979
 21
42.5
 31
0.0
  0
LINE
  5
5A
  8
1
 62
     7
 10
-85.353999999999999
 20
45.000000000000021
 30
0.0
 11
-85.353999999999999
 21
42.649999999999991
 31
0.0
  0
LINE
  5
5B
  8
1
 62
     7
 10
-68.054000000000002
 20
-34.500000000000007
 30
0.0
 11
-66.054000000000002
 21
-34.500000000000007
 31
0.0
  0
LINE
  5
5C
  8
1
 62
     7
 10
-68.054000000000002
 20
-25.500000000000011
 30
0.0
 11
-66.054000000000002
 21
-25.500000000000011
 31
0.0
  0
LINE
  5
5D
  8
1
 62
     7
 10
-68.553999999999988
 20
-42.0
 30
0.0
 11
-68.054000000000002
 21
-41.999999999999993
 31
0.0
  0
LINE
  5
5E
  8
1
 62
     7
 10
-67.053999999999988
 20
33.900000000000013
 30
0.0
 11
-66.553999999999988
 21
34.400000000000013
 31
0.0
  0
LINE
  5
5F
  8
1
 62
     7
 10
-66.553999999999988
 20
40.59999999999998
 30
0.0
 11
-67.053999999999988
 21
41.09999999999998
 31
0.0
  0
LINE
  5
60
  8
1
 62
     7
 10
-67.953999999999994
 20
41.09999999999998
 30
0.0
 11
-67.953999999999994
 21
33.900000000000013
 31
0.0
  0
LINE
  5
61
  8
1
 62
     7
 10
-68.453999999999994
 20
33.900000000000013
 30
0.0
 11
-67.053999999999988
 21
33.900000000000013
 31
0.0
  0
LINE
  5
62
  8
1
 62
     7
 10
-66.553999999999988
 20
40.59999999999998
 30
0.0
 11
-66.553999999999988
 21
34.400000000000013
 31
0.0
  0
LINE
  5
63
  8
1
 62
     7
 10
-68.453999999999994
 20
41.09999999999998
 30
0.0
 11
-67.053999999999988
 21
41.09999999999998
 31
0.0
  0
LINE
  5
64
  8
1
 62
     7
 10
-68.953999999999994
 20
31.86602540378443
 30
0.0
 11
-68.554000000000002
 21
30.0
 31
0.0
  0
LINE
  5
65
  8
1
 62
     7
 10
-68.453999999999994
 20
31.931851652578121
 30
0.0
 11
-68.054000000000002
 21
30.06582624879367
 31
0.0
  0
LINE
  5
66
  8
1
 62
     7
 10
-68.453999999999994
 20
42.0
 30
0.0
 11
-68.453999999999994
 21
31.931851652578121
 31
0.0
  0
LINE
  5
67
  8
1
 62
     7
 10
-68.953999999999994
 20
42.0
 30
0.0
 11
-68.453999999999994
 21
42.0
 31
0.0
  0
LINE
  5
68
  8
1
 62
     7
 10
-68.953999999999994
 20
-43.0
 30
0.0
 11
-72.753999999999976
 21
-43.0
 31
0.0
  0
LINE
  5
69
  8
1
 62
     7
 10
-68.554000000000002
 20
30.0
 30
0.0
 11
-68.553999999999988
 21
-42.0
 31
0.0
  0
LINE
  5
6A
  8
1
 62
     7
 10
-72.753999999999976
 20
43.0
 30
0.0
 11
-68.953999999999994
 21
43.0
 31
0.0
  0
LINE
  5
6B
  8
1
 62
     7
 10
-72.753999999999976
 20
43.0
 30
0.0
 11
-72.753999999999976
 21
-43.0
 31
0.0
  0
LINE
  5
6C
  8
1
  6
DASHDOT
 62
     3
 10
-3.9193010823269812
 20
0.0
 30
0.0
 11
-7.2252476579320879
 21
0.0
 31
0.0
  0
LINE
  5
6D
  8
1
  6
DASHDOT
 62
     3
 10
60.080698917672997
 20
0.0
 30
0.0
 11
63.379228342193812
 21
0.0
 31
0.0
  0
LINE
  5
6E
  8
1
 62
     7
 10
164.0347616111105
 20
70.227129914722724
 30
0.0
 11
156.86431589331841
 21
43.466662183008097
 31
0.0
  0
LINE
  5
6F
  8
1
  6
DASHDOT
 62
     3
 10
145.21745886370499
 20
59.557059207894021
 30
0.0
 11
145.21745886370499
 21
52.442940792106029
 31
0.0
  0
LINE
  5
70
  8
1
  6
DASHDOT
 62
     3
 10
148.774518071599
 20
56.000000000000028
 30
0.0
 11
141.66039965581101
 21
56.000000000000028
 31
0.0
  0
LINE
  5
71
  8
1
  6
DASHDOT
 62
     3
 10
145.21745886370499
 20
3.9026199890150219
 30
0.0
 11
145.21745886370499
 21
-3.9026199890149802
 31
0.0
  0
LINE
  5
72
  8
1
  6
DASHDOT
 62
     3
 10
149.1200788527199
 20
0.0000000000000213
 30
0.0
 11
141.31483887469
 21
0.0000000000000213
 31
0.0
  0
LINE
  5
73
  8
1
 62
     7
 10
18.780698917672989
 20
-16.0
 30
0.0
 11
18.780698917672979
 21
-22.999999999999979
 31
0.0
  0
LINE
  5
74
  8
1
 62
     7
 10
26.280698917673011
 20
-42.849999999999987
 30
0.0
 11
26.280698917673011
 21
-22.999999999999979
 31
0.0
  0
LINE
  5
75
  8
1
 62
     7
 10
18.380698917672991
 20
-42.849999999999987
 30
0.0
 11
18.380698917672991
 21
-45.0
 31
0.0
  0
LINE
  5
76
  8
1
 62
     7
 10
30.180698917672999
 20
-20.0
 30
0.0
 11
30.180698917672999
 21
-23.000000000000011
 31
0.0
  0
LINE
  5
77
  8
1
 62
     7
 10
30.180698917672999
 20
-20.0
 30
0.0
 11
30.580698917673001
 21
-20.0
 31
0.0
  0
LINE
  5
78
  8
1
 62
     7
 10
26.280698917673011
 20
-42.849999999999987
 30
0.0
 11
18.380698917672991
 21
-42.849999999999987
 31
0.0
  0
LINE
  5
79
  8
1
 62
     7
 10
26.280698917673011
 20
-22.999999999999979
 30
0.0
 11
18.780698917672979
 21
-22.999999999999979
 31
0.0
  0
LINE
  5
7A
  8
1
 62
     7
 10
26.280698917673011
 20
42.850000000000009
 30
0.0
 11
26.280698917673011
 21
23.0
 31
0.0
  0
LINE
  5
7B
  8
1
 62
     7
 10
18.380698917672991
 20
42.850000000000009
 30
0.0
 11
26.280698917673011
 21
42.850000000000009
 31
0.0
  0
LINE
  5
7C
  8
1
 62
     7
 10
18.380698917672991
 20
23.0
 30
0.0
 11
26.280698917673011
 21
23.0
 31
0.0
  0
LINE
  5
7D
  8
1
 62
     7
 10
30.580698917673001
 20
20.0
 30
0.0
 11
30.180698917672999
 21
20.0
 31
0.0
  0
LINE
  5
7E
  8
1
 62
     7
 10
16.58069891767299
 20
-16.0
 30
0.0
 11
18.780698917672989
 21
-16.0
 31
0.0
  0
LINE
  5
7F
  8
1
 62
     7
 10
17.880698917672941
 20
-24.749999999999989
 30
0.0
 11
16.08069891767299
 21
-24.750000000000011
 31
0.0
  0
LINE
  5
80
  8
1
 62
     7
 10
16.08069891767299
 20
-20.750000000000011
 30
0.0
 11
17.880698917672941
 21
-20.750000000000011
 31
0.0
  0
LINE
  5
81
  8
1
 62
     7
 10
23.980698917672999
 20
23.5
 30
0.0
 11
23.980698917672999
 21
42.350000000000009
 31
0.0
  0
LINE
  5
82
  8
1
 62
     7
 10
17.880698917672941
 20
20.75
 30
0.0
 11
16.08069891767299
 21
20.75
 31
0.0
  0
LINE
  5
83
  8
1
 62
     7
 10
17.880698917672941
 20
24.75
 30
0.0
 11
17.880698917672941
 21
19.710000000000012
 31
0.0
  0
LINE
  5
84
  8
1
 62
     7
 10
4.0806989176730184
 20
42.350000000000009
 30
0.0
 11
23.980698917672999
 21
42.350000000000009
 31
0.0
  0
LINE
  5
85
  8
1
 62
     7
 10
23.980698917672999
 20
23.5
 30
0.0
 11
17.880698917672941
 21
23.5
 31
0.0
  0
LINE
  5
86
  8
1
 62
     7
 10
23.980698917672999
 20
-42.34999999999998
 30
0.0
 11
4.0806989176730131
 21
-42.34999999999998
 31
0.0
  0
LINE
  5
87
  8
1
 62
     7
 10
23.980698917672999
 20
-42.34999999999998
 30
0.0
 11
23.980698917672999
 21
-23.499999999999989
 31
0.0
  0
LINE
  5
88
  8
1
 62
     7
 10
17.880698917672941
 20
-23.499999999999989
 30
0.0
 11
23.980698917672999
 21
-23.499999999999989
 31
0.0
  0
LINE
  5
89
  8
1
 62
     7
 10
-1.936766969586714
 20
-35.0
 30
0.0
 11
-3.9193010823269812
 21
-35.0
 31
0.0
  0
LINE
  5
8A
  8
1
 62
     7
 10
-3.9193010823269812
 20
62.0
 30
0.0
 11
-1.9193010823269809
 21
62.0
 31
0.0
  0
LINE
  5
8B
  8
1
 62
     7
 10
-3.9193010823269812
 20
-20.75
 30
0.0
 11
-1.9193010823269809
 21
-20.75
 31
0.0
  0
LINE
  5
8C
  8
1
  6
DASHDOT
 62
     3
 10
-5.605088957971943
 20
56.000000000000028
 30
0.0
 11
-0.6558854629577269
 21
56.000000000000028
 31
0.0
  0
LINE
  5
8D
  8
1
 62
     7
 10
-3.9193010823269812
 20
58.75
 30
0.0
 11
-1.9193010823269809
 21
58.75
 31
0.0
  0
LINE
  5
8E
  8
1
 62
     7
 10
-3.9193010823269812
 20
53.250000000000021
 30
0.0
 11
-1.9193010823269809
 21
53.250000000000021
 31
0.0
  0
LINE
  5
8F
  8
1
 62
     7
 10
162.41799238326891
 20
70.660341923670302
 30
0.0
 11
163.7222412782865
 21
75.487250387571606
 31
0.0
  0
LINE
  5
90
  8
1
 62
     7
 10
162.91410794454191
 20
70.52740815967482
 30
0.0
 11
164.2366472486521
 21
75.349415723230408
 31
0.0
  0
LINE
  5
91
  8
1
 62
     7
 10
163.5150650600261
 20
70.36638218589502
 30
0.0
 11
164.8193139550435
 21
75.19329064979631
 31
0.0
  0
LINE
  5
92
  8
1
 62
     7
 10
166.93547239495959
 20
74.626267704764501
 30
0.0
 11
165.65153083895191
 21
69.793917905775118
 31
0.0
  0
LINE
  5
93
  8
1
 62
     7
 10
166.4210664245939
 20
74.764102369105728
 30
0.0
 11
165.15541527767911
 21
69.926851669770713
 31
0.0
  0
LINE
  5
94
  8
1
 62
     7
 10
165.8383997182026
 20
74.920227442539812
 30
0.0
 11
164.55445816219481
 21
70.087877643550428
 31
0.0
  0
LINE
  5
95
  8
1
 62
     7
 10
139.21745886370499
 20
62.0
 30
0.0
 11
151.21745886370499
 21
62.0
 31
0.0
  0
LINE
  5
96
  8
1
 62
     7
 10
60.080698917672997
 20
-7.5000000000000071
 30
0.0
 11
45.080698917673018
 21
-7.5000000000000071
 31
0.0
  0
LINE
  5
97
  8
1
 62
     7
 10
16.58069891767299
 20
-16.0
 30
0.0
 11
18.780698917672989
 21
-16.0
 31
0.0
  0
LINE
  5
98
  8
1
 62
     7
 10
29.780698917673011
 20
-42.5
 30
0.0
 11
30.780698917673011
 21
-42.5
 31
0.0
  0
LINE
  5
99
  8
1
 62
     7
 10
28.337323244698911
 20
-45.0
 30
0.0
 11
29.780698917673011
 21
-42.5
 31
0.0
  0
LINE
  5
9A
  8
1
 62
     7
 10
18.380698917672991
 20
-45.0
 30
0.0
 11
28.337323244698911
 21
-45.0
 31
0.0
  0
LINE
  5
9B
  8
1
 62
     7
 10
30.780698917673011
 20
-21.667999999999999
 30
0.0
 11
30.780698917673011
 21
-42.5
 31
0.0
  0
LINE
  5
9C
  8
1
 62
     7
 10
30.180698917672999
 20
-23.000000000000011
 30
0.0
 11
30.780698917673011
 21
-23.000000000000011
 31
0.0
  0
LINE
  5
9D
  8
1
 62
     7
 10
30.180698917672999
 20
23.0
 30
0.0
 11
30.180698917672999
 21
20.0
 31
0.0
  0
LINE
  5
9E
  8
1
 62
     7
 10
30.780698917673011
 20
23.0
 30
0.0
 11
30.180698917672999
 21
23.0
 31
0.0
  0
LINE
  5
9F
  8
1
 62
     7
 10
30.780698917673011
 20
42.5
 30
0.0
 11
30.780698917673011
 21
21.667999999999999
 31
0.0
  0
LINE
  5
A0
  8
1
 62
     7
 10
16.58069891767299
 20
16.0
 30
0.0
 11
16.08069891767299
 21
15.5
 31
0.0
  0
LINE
  5
A1
  8
1
 62
     7
 10
28.337323244698911
 20
45.000000000000021
 30
0.0
 11
18.380698917672991
 21
45.000000000000021
 31
0.0
  0
LINE
  5
A2
  8
1
 62
     7
 10
29.780698917673011
 20
42.5
 30
0.0
 11
28.337323244698911
 21
45.000000000000021
 31
0.0
  0
LINE
  5
A3
  8
1
 62
     7
 10
30.780698917673011
 20
42.5
 30
0.0
 11
29.780698917673011
 21
42.5
 31
0.0
  0
LINE
  5
A4
  8
1
 62
     7
 10
18.380698917672991
 20
45.000000000000021
 30
0.0
 11
18.380698917672991
 21
42.850000000000009
 31
0.0
  0
LINE
  5
A5
  8
1
 62
     7
 10
18.380698917672991
 20
16.0
 30
0.0
 11
16.58069891767299
 21
16.0
 31
0.0
  0
LINE
  5
A6
  8
1
 62
     7
 10
4.0806989176729891
 20
7.5
 30
0.0
 11
19.08069891767299
 21
7.5
 31
0.0
  0
LINE
  5
A7
  8
1
 62
     7
 10
4.0806989176729891
 20
9.7999999999999936
 30
0.0
 11
60.080698917672997
 21
9.7999999999999936
 31
0.0
  0
LINE
  5
A8
  8
1
 62
     7
 10
35.180698917672999
 20
-23.75
 30
0.0
 11
35.680698917672991
 21
-23.75
 31
0.0
  0
LINE
  5
A9
  8
1
 62
     7
 10
35.680698917672991
 20
-32.0
 30
0.0
 11
35.680698917672991
 21
-42.0
 31
0.0
  0
LINE
  5
AA
  8
1
 62
     7
 10
35.180698917672999
 20
-37.000000000000007
 30
0.0
 11
35.680698917672991
 21
-37.000000000000007
 31
0.0
  0
LINE
  5
AB
  8
1
 62
     7
 10
35.180698917672999
 20
-42.0
 30
0.0
 11
35.180698917672999
 21
-32.0
 31
0.0
  0
LINE
  5
AC
  8
1
 62
     7
 10
35.680698917672991
 20
-34.500000000000007
 30
0.0
 11
37.680698917672999
 21
-34.500000000000007
 31
0.0
  0
LINE
  5
AD
  8
1
 62
     7
 10
35.680698917672991
 20
-25.500000000000011
 30
0.0
 11
37.680698917672999
 21
-25.500000000000011
 31
0.0
  0
LINE
  5
AE
  8
1
 62
     7
 10
30.98069891767301
 20
-34.25
 30
0.0
 11
34.780698917673007
 21
-34.25
 31
0.0
  0
LINE
  5
AF
  8
1
 62
     7
 10
30.98069891767301
 20
-25.750000000000011
 30
0.0
 11
34.780698917673007
 21
-25.750000000000011
 31
0.0
  0
LINE
  5
B0
  8
1
 62
     7
 10
35.180698917672999
 20
-42.0
 30
0.0
 11
35.680698917672991
 21
-42.0
 31
0.0
  0
LINE
  5
B1
  8
1
 62
     7
 10
36.680698917672999
 20
33.900000000000013
 30
0.0
 11
37.180698917672991
 21
34.400000000000013
 31
0.0
  0
LINE
  5
B2
  8
1
 62
     7
 10
37.180698917672991
 20
40.59999999999998
 30
0.0
 11
36.680698917672999
 21
41.09999999999998
 31
0.0
  0
LINE
  5
B3
  8
1
 62
     7
 10
35.780698917673007
 20
41.09999999999998
 30
0.0
 11
35.780698917673007
 21
33.900000000000013
 31
0.0
  0
LINE
  5
B4
  8
1
 62
     7
 10
35.280698917673
 20
33.900000000000013
 30
0.0
 11
36.680698917672999
 21
33.900000000000013
 31
0.0
  0
LINE
  5
B5
  8
1
 62
     7
 10
37.180698917672991
 20
40.59999999999998
 30
0.0
 11
37.180698917672991
 21
34.400000000000013
 31
0.0
  0
LINE
  5
B6
  8
1
 62
     7
 10
35.280698917673
 20
41.09999999999998
 30
0.0
 11
36.680698917672999
 21
41.09999999999998
 31
0.0
  0
LINE
  5
B7
  8
1
 62
     7
 10
34.780698917673007
 20
33.0
 30
0.0
 11
35.280698917673
 21
33.0
 31
0.0
  0
LINE
  5
B8
  8
1
 62
     7
 10
34.780698917673007
 20
31.86602540378443
 30
0.0
 11
35.180698917672999
 21
30.0
 31
0.0
  0
LINE
  5
B9
  8
1
 62
     7
 10
35.280698917673
 20
31.931851652578121
 30
0.0
 11
35.680698917672991
 21
30.06582624879367
 31
0.0
  0
LINE
  5
BA
  8
1
 62
     7
 10
35.280698917673
 20
42.0
 30
0.0
 11
35.280698917673
 21
31.931851652578121
 31
0.0
  0
LINE
  5
BB
  8
1
 62
     7
 10
34.780698917673007
 20
42.0
 30
0.0
 11
35.280698917673
 21
42.0
 31
0.0
  0
LINE
  5
BC
  8
1
 62
     7
 10
34.780698917673007
 20
-43.0
 30
0.0
 11
30.98069891767301
 21
-43.0
 31
0.0
  0
LINE
  5
BD
  8
1
 62
     7
 10
30.98069891767301
 20
22.5
 30
0.0
 11
34.780698917673007
 21
22.5
 31
0.0
  0
LINE
  5
BE
  8
1
 62
     7
 10
30.98069891767301
 20
43.0
 30
0.0
 11
34.780698917673007
 21
43.0
 31
0.0
  0
LINE
  5
BF
  8
1
 62
     7
 10
30.98069891767301
 20
43.0
 30
0.0
 11
30.98069891767301
 21
19.667999999999999
 31
0.0
  0
LINE
  5
C0
  8
1
 62
     7
 10
161.61994704538779
 20
70.87417752747902
 30
0.0
 11
166.44957617683301
 21
69.580082301966428
 31
0.0
  0
LINE
  5
C1
  8
1
  6
DASHDOT
 62
     3
 10
-108.679569891752
 20
56.000000000000028
 30
0.0
 11
-104.4810632437692
 21
56.000000000000028
 31
0.0
  0
LINE
  5
C2
  8
1
 62
     7
 10
159.26114302432299
 20
42.752484549986178
 30
0.0
 11
166.44957617683301
 21
69.580082301966428
 31
0.0
  0
LINE
  5
C3
  8
1
 62
     7
 10
154.43151389287769
 20
44.046579775498742
 30
0.0
 11
161.61994704538779
 21
70.87417752747902
 31
0.0
  0
LINE
  5
C4
  8
1
 62
     7
 10
153.21745886370499
 20
60.0
 30
0.0
 11
153.21745886370499
 21
44.283179650969082
 31
0.0
  0
LINE
  5
C5
  8
1
 62
     7
 10
137.21745886370499
 20
60.0
 30
0.0
 11
137.21745886370499
 21
44.283179650969082
 31
0.0
  0
LINE
  5
C6
  8
1
 62
     7
 10
147.71745886370499
 20
9.7999999999999936
 30
0.0
 11
147.71745886370499
 21
7.0710678118654897
 31
0.0
  0
LINE
  5
C7
  8
1
 62
     7
 10
142.71745886370499
 20
9.7999999999999936
 30
0.0
 11
142.71745886370499
 21
7.0710678118654897
 31
0.0
  0
LINE
  5
C8
  8
1
 62
     7
 10
30.580698917673001
 20
20.0
 30
0.0
 11
30.580698917673001
 21
18.5
 31
0.0
  0
LINE
  5
C9
  8
1
 62
     7
 10
-1.9193010823269809
 20
62.0
 30
0.0
 11
-1.9193010823269809
 21
-36.34999999999998
 31
0.0
  0
LINE
  5
CA
  8
1
 62
     7
 10
16.08069891767299
 20
-23.500000000000011
 30
0.0
 11
4.0806989176729891
 21
-23.500000000000011
 31
0.0
  0
LINE
  5
CB
  8
1
 62
     7
 10
16.08069891767299
 20
-12.5
 30
0.0
 11
16.08069891767299
 21
-24.750000000000011
 31
0.0
  0
LINE
  5
CC
  8
1
 62
     7
 10
16.08069891767299
 20
-15.5
 30
0.0
 11
16.58069891767299
 21
-16.0
 31
0.0
  0
LINE
  5
CD
  8
1
 62
     7
 10
16.08069891767299
 20
-12.5
 30
0.0
 11
4.0806989176729891
 21
-12.5
 31
0.0
  0
LINE
  5
CE
  8
1
 62
     7
 10
17.880698917672941
 20
-24.749999999999989
 30
0.0
 11
17.880698917672941
 21
-19.710000000000012
 31
0.0
  0
LINE
  5
CF
  8
1
 62
     7
 10
16.08069891767299
 20
24.75
 30
0.0
 11
16.08069891767299
 21
12.5
 31
0.0
  0
LINE
  5
D0
  8
1
 62
     7
 10
16.08069891767299
 20
12.5
 30
0.0
 11
4.0806989176729891
 21
12.5
 31
0.0
  0
LINE
  5
D1
  8
1
 62
     7
 10
4.0806989176729891
 20
23.5
 30
0.0
 11
16.08069891767299
 21
23.5
 31
0.0
  0
LINE
  5
D2
  8
1
 62
     7
 10
-5.9193010823269807
 20
20.75
 30
0.0
 11
-3.9193010823269812
 21
20.75
 31
0.0
  0
LINE
  5
D3
  8
1
 62
     7
 10
18.380698917672991
 20
16.0
 30
0.0
 11
18.380698917672991
 21
23.0
 31
0.0
  0
LINE
  5
D4
  8
1
 62
     7
 10
16.08069891767299
 20
24.75
 30
0.0
 11
17.880698917672941
 21
24.75
 31
0.0
  0
LINE
  5
D5
  8
1
 62
     7
 10
34.780698917673007
 20
-33.5
 30
0.0
 11
34.280698917673007
 21
-33.5
 31
0.0
  0
LINE
  5
D6
  8
1
 62
     7
 10
34.280698917673007
 20
-26.500000000000011
 30
0.0
 11
34.780698917673007
 21
-26.500000000000011
 31
0.0
  0
LINE
  5
D7
  8
1
 62
     7
 10
34.280698917673007
 20
-26.250000000000011
 30
0.0
 11
33.880698917673001
 21
-26.250000000000011
 31
0.0
  0
LINE
  5
D8
  8
1
 62
     7
 10
33.880698917673001
 20
-26.250000000000011
 30
0.0
 11
33.880698917673001
 21
-33.75
 31
0.0
  0
LINE
  5
D9
  8
1
 62
     7
 10
33.880698917673001
 20
-33.75
 30
0.0
 11
34.280698917673007
 21
-33.75
 31
0.0
  0
LINE
  5
DA
  8
1
 62
     7
 10
34.280698917673007
 20
-33.75
 30
0.0
 11
34.280698917673007
 21
-26.250000000000011
 31
0.0
  0
LINE
  5
DB
  8
1
 62
     7
 10
31.530698917673011
 20
-28.000000000000011
 30
0.0
 11
31.530698917673011
 21
-32.000000000000007
 31
0.0
  0
LINE
  5
DC
  8
1
 62
     7
 10
34.780698917673007
 20
-28.0
 30
0.0
 11
43.680698917672999
 21
-28.000000000000011
 31
0.0
  0
LINE
  5
DD
  8
1
 62
     7
 10
43.680698917672999
 20
-28.000000000000011
 30
0.0
 11
44.280698917673
 21
-28.600000000000009
 31
0.0
  0
LINE
  5
DE
  8
1
 62
     7
 10
44.280698917673
 20
-28.600000000000009
 30
0.0
 11
44.280698917673
 21
-31.400000000000009
 31
0.0
  0
LINE
  5
DF
  8
1
 62
     7
 10
44.280698917673
 20
-31.400000000000009
 30
0.0
 11
43.680698917672999
 21
-32.000000000000007
 31
0.0
  0
LINE
  5
E0
  8
1
 62
     7
 10
43.680698917672999
 20
-32.000000000000007
 30
0.0
 11
34.780698917673007
 21
-32.0
 31
0.0
  0
LINE
  5
E1
  8
1
 62
     7
 10
43.680698917672999
 20
-28.000000000000011
 30
0.0
 11
43.680698917672999
 21
-32.000000000000007
 31
0.0
  0
LINE
  5
E2
  8
1
 62
     3
 10
44.280698917673
 20
-28.600000000000009
 30
0.0
 11
35.819929402214299
 21
-28.600000000000009
 31
0.0
  0
LINE
  5
E3
  8
1
 62
     3
 10
35.819929402214299
 20
-28.600000000000009
 30
0.0
 11
34.780698917673007
 21
-28.0
 31
0.0
  0
LINE
  5
E4
  8
1
 62
     3
 10
44.280698917673
 20
-31.400000000000009
 30
0.0
 11
35.819929402214299
 21
-31.400000000000009
 31
0.0
  0
LINE
  5
E5
  8
1
 62
     3
 10
35.819929402214299
 20
-31.400000000000009
 30
0.0
 11
34.780698917673007
 21
-32.0
 31
0.0
  0
LINE
  5
E6
  8
1
 62
     3
 10
35.819929402214299
 20
-28.000000000000011
 30
0.0
 11
35.819929402214299
 21
-32.000000000000007
 31
0.0
  0
LINE
  5
E7
  8
1
 62
     7
 10
-107.654
 20
62.0
 30
0.0
 11
-107.654
 21
-35.0
 31
0.0
  0
LINE
  5
E8
  8
1
 62
     7
 10
-105.654
 20
62.0
 30
0.0
 11
-105.654
 21
-36.34999999999998
 31
0.0
  0
LINE
  5
E9
  8
1
 62
     7
 10
-73.953999999999979
 20
-42.5
 30
0.0
 11
-75.397375672974093
 21
-45.0
 31
0.0
  0
LINE
  5
EA
  8
1
 62
     7
 10
-68.054000000000002
 20
30.06582624879367
 30
0.0
 11
-68.054000000000002
 21
-41.999999999999993
 31
0.0
  0
LINE
  5
EB
  8
1
 62
     7
 10
-68.953999999999994
 20
-43.0
 30
0.0
 11
-68.953999999999994
 21
43.0
 31
0.0
  0
LINE
  5
EC
  8
1
 62
     7
 10
-3.9193010823269812
 20
62.0
 30
0.0
 11
-3.9193010823269812
 21
-35.0
 31
0.0
  0
LINE
  5
ED
  8
1
 62
     7
 10
8.3423160484522896
 20
15.195
 30
0.0
 11
4.0806989176729891
 21
15.195
 31
0.0
  0
LINE
  5
EE
  8
1
 62
     7
 10
11.81908178689369
 20
15.195
 30
0.0
 11
16.08069891767299
 21
15.195
 31
0.0
  0
LINE
  5
EF
  8
1
 62
     7
 10
8.3423160484522896
 20
20.805
 30
0.0
 11
4.0806989176729891
 21
20.805
 31
0.0
  0
LINE
  5
F0
  8
1
 62
     7
 10
11.81908178689369
 20
20.805
 30
0.0
 11
16.08069891767299
 21
20.805
 31
0.0
  0
LINE
  5
F1
  8
1
 62
     7
 10
14.73069891767299
 20
21.478750000000002
 30
0.0
 11
14.73069891767299
 21
14.52125
 31
0.0
  0
LINE
  5
F2
  8
1
 62
     7
 10
5.4306989176729834
 20
21.478750000000002
 30
0.0
 11
5.4306989176729834
 21
14.52125
 31
0.0
  0
LINE
  5
F3
  8
1
 62
     7
 10
8.3423160484522896
 20
-15.195
 30
0.0
 11
4.0806989176729891
 21
-15.195
 31
0.0
  0
LINE
  5
F4
  8
1
 62
     7
 10
11.81908178689369
 20
-15.195
 30
0.0
 11
16.08069891767299
 21
-15.195
 31
0.0
  0
LINE
  5
F5
  8
1
 62
     7
 10
8.3423160484522896
 20
-20.805
 30
0.0
 11
4.0806989176729891
 21
-20.805
 31
0.0
  0
LINE
  5
F6
  8
1
 62
     7
 10
11.81908178689369
 20
-20.805
 30
0.0
 11
16.08069891767299
 21
-20.805
 31
0.0
  0
LINE
  5
F7
  8
1
 62
     7
 10
14.73069891767299
 20
-21.478750000000002
 30
0.0
 11
14.73069891767299
 21
-14.52125
 31
0.0
  0
LINE
  5
F8
  8
1
 62
     7
 10
5.4306989176729834
 20
-21.478750000000002
 30
0.0
 11
5.4306989176729834
 21
-14.52125
 31
0.0
  0
LINE
  5
F9
  8
1
 62
     7
 10
33.680698917672999
 20
-34.25
 30
0.0
 11
33.680698917672999
 21
-43.0
 31
0.0
  0
LINE
  5
FA
  8
1
 62
     7
 10
34.780698917673007
 20
-22.500000000000011
 30
0.0
 11
30.98069891767301
 21
-22.500000000000011
 31
0.0
  0
LINE
  5
FB
  8
1
 62
     7
 10
33.680698917672999
 20
43.0
 30
0.0
 11
33.680698917672999
 21
19.667999999999999
 31
0.0
  0
LINE
  5
FC
  8
1
 62
     7
 10
35.180698917672999
 20
-23.000000000000011
 30
0.0
 11
34.780698917673007
 21
-23.000000000000011
 31
0.0
  0
LINE
  5
FD
  8
1
 62
     7
 10
35.180698917672999
 20
-37.000000000000007
 30
0.0
 11
34.780698917673007
 21
-37.000000000000007
 31
0.0
  0
LINE
  5
FE
  8
1
 62
     7
 10
35.680698917672991
 20
-28.0
 30
0.0
 11
35.680698917672991
 21
-19.667999999999999
 31
0.0
  0
LINE
  5
FF
  8
1
 62
     7
 10
34.780698917673007
 20
43.0
 30
0.0
 11
34.780698917673007
 21
19.667999999999999
 31
0.0
  0
LINE
  5
100
  8
1
 62
     7
 10
35.180698917672999
 20
-28.0
 30
0.0
 11
35.180698917672999
 21
-19.667999999999999
 31
0.0
  0
LINE
  5
101
  8
1
  6
DASHDOT
 62
     3
 10
145.21745886370499
 20
38.000000000000021
 30
0.0
 11
145.21745886370499
 21
28.000000000000021
 31
0.0
  0
LINE
  5
102
  8
1
  6
DASHDOT
 62
     3
 10
112.3084935198963
 20
-18.999999999999961
 30
0.0
 11
120.9687475577407
 21
-13.99999999999997
 31
0.0
  0
LINE
  5
103
  8
1
  6
DASHDOT
 62
     3
 10
178.12642420751351
 20
-19.00000000000006
 30
0.0
 11
169.46617016966931
 21
-14.00000000000006
 31
0.0
  0
LINE
  5
104
  8
1
 62
     7
 10
55.180698917672999
 20
-23.5
 30
0.0
 11
55.180698917672999
 21
-16.0
 31
0.0
  0
LINE
  5
105
  8
1
 62
     7
 10
37.680698917672999
 20
-38.0
 30
0.0
 11
45.58069891767299
 21
-38.0
 31
0.0
  0
LINE
  5
106
  8
1
 62
     7
 10
45.58069891767299
 20
-38.0
 30
0.0
 11
45.58069891767299
 21
-27.0
 31
0.0
  0
LINE
  5
107
  8
1
 62
     7
 10
37.680698917672999
 20
-38.0
 30
0.0
 11
37.680698917672999
 21
-31.400000000000009
 31
0.0
  0
LINE
  5
108
  8
1
 62
     7
 10
45.58069891767299
 20
-27.0
 30
0.0
 11
57.680698917672999
 21
-27.0
 31
0.0
  0
LINE
  5
109
  8
1
 62
     7
 10
57.680698917672999
 20
-27.0
 30
0.0
 11
57.680698917672999
 21
-19.5
 31
0.0
  0
LINE
  5
10A
  8
1
 62
     7
 10
57.680698917672999
 20
27.0
 30
0.0
 11
45.58069891767299
 21
27.0
 31
0.0
  0
LINE
  5
10B
  8
1
 62
     7
 10
45.58069891767299
 20
27.0
 30
0.0
 11
45.58069891767299
 21
38.0
 31
0.0
  0
LINE
  5
10C
  8
1
 62
     7
 10
45.58069891767299
 20
38.0
 30
0.0
 11
37.680698917672999
 21
38.0
 31
0.0
  0
LINE
  5
10D
  8
1
 62
     7
 10
55.180698917672999
 20
23.5
 30
0.0
 11
37.18069891767302
 21
23.5
 31
0.0
  0
LINE
  5
10E
  8
1
 62
     7
 10
37.680698917672999
 20
38.0
 30
0.0
 11
37.680698917672999
 21
23.5
 31
0.0
  0
LINE
  5
10F
  8
1
 62
     7
 10
57.680698917672999
 20
20.500000000000021
 30
0.0
 11
55.180698917672999
 21
20.500000000000021
 31
0.0
  0
LINE
  5
110
  8
1
 62
     7
 10
57.680698917672999
 20
-20.499999999999979
 30
0.0
 11
55.180698917672999
 21
-20.499999999999979
 31
0.0
  0
LINE
  5
111
  8
1
 62
     7
 10
37.18069891767302
 20
23.5
 30
0.0
 11
37.18069891767302
 21
16.0
 31
0.0
  0
LINE
  5
112
  8
1
 62
     7
 10
42.80569891767302
 20
21.69855715851498
 30
0.0
 11
46.180698917673027
 21
21.698557158514959
 31
0.0
  0
LINE
  5
113
  8
1
 62
     7
 10
40.55569891767302
 20
21.69855715851498
 30
0.0
 11
37.18069891767302
 21
21.698557158514959
 31
0.0
  0
LINE
  5
114
  8
1
 62
     7
 10
40.55569891767302
 20
17.801442841485009
 30
0.0
 11
37.18069891767302
 21
17.801442841485031
 31
0.0
  0
LINE
  5
115
  8
1
 62
     7
 10
42.80569891767302
 20
17.801442841485009
 30
0.0
 11
46.180698917673027
 21
17.801442841485031
 31
0.0
  0
LINE
  5
116
  8
1
 62
     7
 10
38.080698917673033
 20
17.5
 30
0.0
 11
38.080698917673033
 21
22.0
 31
0.0
  0
LINE
  5
117
  8
1
 62
     7
 10
55.180698917672999
 20
16.0
 30
0.0
 11
55.180698917672999
 21
23.5
 31
0.0
  0
LINE
  5
118
  8
1
 62
     7
 10
46.180698917673027
 20
21.698557158514959
 30
0.0
 11
49.555698917672999
 21
21.69855715851498
 31
0.0
  0
LINE
  5
119
  8
1
 62
     7
 10
55.180698917672999
 20
21.698557158514959
 30
0.0
 11
51.805698917672999
 21
21.69855715851498
 31
0.0
  0
LINE
  5
11A
  8
1
 62
     7
 10
55.180698917672999
 20
17.801442841485031
 30
0.0
 11
51.805698917672999
 21
17.801442841485009
 31
0.0
  0
LINE
  5
11B
  8
1
 62
     7
 10
46.180698917673027
 20
17.801442841485031
 30
0.0
 11
49.555698917672999
 21
17.801442841485009
 31
0.0
  0
LINE
  5
11C
  8
1
 62
     7
 10
54.280698917673
 20
22.0
 30
0.0
 11
54.280698917673
 21
17.5
 31
0.0
  0
LINE
  5
11D
  8
1
 62
     7
 10
37.18069891767302
 20
-23.5
 30
0.0
 11
55.180698917672999
 21
-23.5
 31
0.0
  0
LINE
  5
11E
  8
1
 62
     7
 10
37.18069891767302
 20
-16.0
 30
0.0
 11
37.18069891767302
 21
-23.5
 31
0.0
  0
LINE
  5
11F
  8
1
 62
     7
 10
46.180698917673027
 20
-21.698557158514959
 30
0.0
 11
42.80569891767302
 21
-21.69855715851498
 31
0.0
  0
LINE
  5
120
  8
1
 62
     7
 10
37.18069891767302
 20
-21.698557158514959
 30
0.0
 11
40.55569891767302
 21
-21.69855715851498
 31
0.0
  0
LINE
  5
121
  8
1
 62
     7
 10
37.18069891767302
 20
-17.801442841485031
 30
0.0
 11
40.55569891767302
 21
-17.801442841485009
 31
0.0
  0
LINE
  5
122
  8
1
 62
     7
 10
46.180698917673027
 20
-17.801442841485031
 30
0.0
 11
42.80569891767302
 21
-17.801442841485009
 31
0.0
  0
LINE
  5
123
  8
1
 62
     7
 10
38.080698917673033
 20
-22.0
 30
0.0
 11
38.080698917673033
 21
-17.5
 31
0.0
  0
LINE
  5
124
  8
1
 62
     7
 10
60.080698917672997
 20
-16.0
 30
0.0
 11
58.480698917673017
 21
-16.0
 31
0.0
  0
LINE
  5
125
  8
1
 62
     7
 10
55.180698917672999
 20
-23.5
 30
0.0
 11
55.180698917672999
 21
-16.0
 31
0.0
  0
LINE
  5
126
  8
1
 62
     7
 10
49.555698917672999
 20
-21.69855715851498
 30
0.0
 11
46.180698917673027
 21
-21.698557158514959
 31
0.0
  0
LINE
  5
127
  8
1
 62
     7
 10
51.805698917672999
 20
-21.69855715851498
 30
0.0
 11
55.180698917672999
 21
-21.698557158514959
 31
0.0
  0
LINE
  5
128
  8
1
 62
     7
 10
51.805698917672999
 20
-17.801442841485009
 30
0.0
 11
55.180698917672999
 21
-17.801442841485031
 31
0.0
  0
LINE
  5
129
  8
1
 62
     7
 10
49.555698917672999
 20
-17.801442841485009
 30
0.0
 11
46.180698917673027
 21
-17.801442841485031
 31
0.0
  0
LINE
  5
12A
  8
1
 62
     7
 10
54.280698917673
 20
-17.5
 30
0.0
 11
54.280698917673
 21
-22.0
 31
0.0
  0
LINE
  5
12B
  8
1
 62
     7
 10
30.580698917673001
 20
18.5
 30
0.0
 11
37.18069891767302
 21
18.5
 31
0.0
  0
LINE
  5
12C
  8
1
 62
     7
 10
37.18069891767302
 20
16.0
 30
0.0
 11
56.980698917673017
 21
16.0
 31
0.0
  0
LINE
  5
12D
  8
1
 62
     7
 10
57.680698917672999
 20
19.5
 30
0.0
 11
57.680698917672999
 21
27.0
 31
0.0
  0
LINE
  5
12E
  8
1
 62
     7
 10
55.180698917672999
 20
16.0
 30
0.0
 11
55.180698917672999
 21
23.5
 31
0.0
  0
LINE
  5
12F
  8
1
 62
     7
 10
35.180698917672999
 20
19.667999999999999
 30
0.0
 11
35.180698917672999
 21
30.0
 31
0.0
  0
LINE
  5
130
  8
1
 62
     7
 10
35.680698917672991
 20
19.667999999999999
 30
0.0
 11
35.680698917672991
 21
30.06582624879367
 31
0.0
  0
LINE
  5
131
  8
1
 62
     7
 10
37.18069891767302
 20
-18.5
 30
0.0
 11
30.580698917673001
 21
-18.5
 31
0.0
  0
LINE
  5
132
  8
1
 62
     7
 10
60.080698917672997
 20
16.0
 30
0.0
 11
60.080698917672997
 21
-16.0
 31
0.0
  0
LINE
  5
133
  8
1
 62
     7
 10
30.98069891767301
 20
-19.667999999999999
 30
0.0
 11
30.98069891767301
 21
-43.0
 31
0.0
  0
LINE
  5
134
  8
1
 62
     7
 10
33.680698917672999
 20
-19.667999999999999
 30
0.0
 11
33.680698917672999
 21
-25.750000000000011
 31
0.0
  0
LINE
  5
135
  8
1
 62
     7
 10
34.780698917673007
 20
-19.667999999999999
 30
0.0
 11
34.780698917673007
 21
-43.0
 31
0.0
  0
LINE
  5
136
  8
1
 62
     7
 10
30.580698917673001
 20
-18.5
 30
0.0
 11
30.580698917673001
 21
-20.0
 31
0.0
  0
LINE
  5
137
  8
1
 62
     7
 10
19.08069891767299
 20
-8.0
 30
0.0
 11
19.08069891767299
 21
8.0
 31
0.0
  0
LINE
  5
138
  8
1
 62
     7
 10
19.08069891767299
 20
8.0
 30
0.0
 11
45.080698917673018
 21
8.0
 31
0.0
  0
LINE
  5
139
  8
1
 62
     7
 10
45.080698917673018
 20
8.0
 30
0.0
 11
45.080698917673018
 21
-8.0
 31
0.0
  0
LINE
  5
13A
  8
1
 62
     7
 10
45.080698917673018
 20
-8.0
 30
0.0
 11
19.08069891767299
 21
-8.0
 31
0.0
  0
LINE
  5
13B
  8
1
 62
     7
 10
19.08069891767299
 20
-7.5
 30
0.0
 11
4.0806989176729891
 21
-7.5000000000000071
 31
0.0
  0
LINE
  5
13C
  8
1
 62
     7
 10
45.080698917673018
 20
7.5
 30
0.0
 11
60.080698917672997
 21
7.5
 31
0.0
  0
LINE
  5
13D
  8
1
 62
     7
 10
56.980698917673017
 20
19.5
 30
0.0
 11
55.180698917672999
 21
19.5
 31
0.0
  0
LINE
  5
13E
  8
1
 62
     7
 10
55.180698917672999
 20
-19.5
 30
0.0
 11
56.980698917673017
 21
-19.5
 31
0.0
  0
LINE
  5
13F
  8
1
 62
     7
 10
56.980698917673017
 20
15.15
 30
0.0
 11
56.980698917673017
 21
19.5
 31
0.0
  0
LINE
  5
140
  8
1
 62
     7
 10
56.980698917673017
 20
19.050000000000001
 30
0.0
 11
58.480698917673017
 21
19.050000000000001
 31
0.0
  0
LINE
  5
141
  8
1
 62
     7
 10
58.480698917673017
 20
19.050000000000001
 30
0.0
 11
58.480698917673017
 21
15.15
 31
0.0
  0
LINE
  5
142
  8
1
 62
     7
 10
58.480698917673017
 20
15.15
 30
0.0
 11
56.980698917673017
 21
15.15
 31
0.0
  0
LINE
  5
143
  8
1
 62
     7
 10
56.980698917673017
 20
-15.15
 30
0.0
 11
56.980698917673017
 21
-19.5
 31
0.0
  0
LINE
  5
144
  8
1
 62
     7
 10
56.980698917673017
 20
-19.050000000000001
 30
0.0
 11
58.480698917673017
 21
-19.050000000000001
 31
0.0
  0
LINE
  5
145
  8
1
 62
     7
 10
58.480698917673017
 20
-19.050000000000001
 30
0.0
 11
58.480698917673017
 21
-15.15
 31
0.0
  0
LINE
  5
146
  8
1
 62
     7
 10
58.480698917673017
 20
-15.15
 30
0.0
 11
56.980698917673017
 21
-15.15
 31
0.0
  0
LINE
  5
147
  8
1
 62
     7
 10
58.480698917673017
 20
16.0
 30
0.0
 11
60.080698917672997
 21
16.0
 31
0.0
  0
LINE
  5
148
  8
1
 62
     7
 10
56.980698917673017
 20
-16.0
 30
0.0
 11
37.18069891767302
 21
-16.0
 31
0.0
  0
LINE
  5
149
  8
1
 62
     3
 10
37.680698917672999
 20
35.000000000000021
 30
0.0
 11
45.58069891767299
 21
35.000000000000021
 31
0.0
  0
LINE
  5
14A
  8
1
 62
     3
 10
45.58069891767299
 20
31.000000000000011
 30
0.0
 11
37.680698917672999
 21
31.000000000000011
 31
0.0
  0
LINE
  5
14B
  8
1
 62
     7
 10
37.680698917672999
 20
34.40000000000002
 30
0.0
 11
45.58069891767299
 21
34.40000000000002
 31
0.0
  0
LINE
  5
14C
  8
1
 62
     7
 10
45.58069891767299
 20
31.600000000000009
 30
0.0
 11
37.680698917672999
 21
31.600000000000009
 31
0.0
  0
LINE
  5
14D
  8
1
  6
DASHDOT
 62
     3
 10
34.680698917672991
 20
33.000000000000021
 30
0.0
 11
48.580698917672997
 21
33.000000000000021
 31
0.0
  0
LINE
  5
14E
  8
1
 62
     7
 10
-66.054000000000002
 20
-38.0
 30
0.0
 11
-58.154000000000003
 21
-38.0
 31
0.0
  0
LINE
  5
14F
  8
1
 62
     7
 10
-58.154000000000003
 20
-27.0
 30
0.0
 11
-46.053999999999988
 21
-27.0
 31
0.0
  0
LINE
  5
150
  8
1
 62
     7
 10
-43.653999999999982
 20
0.0
 30
0.0
 11
-43.653999999999982
 21
-16.0
 31
0.0
  0
LINE
  5
151
  8
1
 62
     7
 10
-43.653999999999982
 20
16.0
 30
0.0
 11
-43.653999999999982
 21
0.0
 31
0.0
  0
LINE
  5
152
  8
1
 62
     7
 10
-46.053999999999988
 20
27.0
 30
0.0
 11
-58.154000000000003
 21
27.0
 31
0.0
  0
LINE
  5
153
  8
1
 62
     7
 10
-58.154000000000003
 20
38.0
 30
0.0
 11
-66.054000000000002
 21
38.0
 31
0.0
  0
LINE
  5
154
  8
1
 62
     7
 10
-46.053999999999988
 20
27.0
 30
0.0
 11
-46.053999999999988
 21
-27.0
 31
0.0
  0
LINE
  5
155
  8
1
 62
     7
 10
-58.154000000000003
 20
-38.0
 30
0.0
 11
-58.154000000000003
 21
38.0
 31
0.0
  0
LINE
  5
156
  8
1
 62
     7
 10
-66.054000000000002
 20
-38.0
 30
0.0
 11
-66.054000000000002
 21
38.0
 31
0.0
  0
LINE
  5
157
  8
1
 62
     7
 10
-43.653999999999982
 20
16.0
 30
0.0
 11
-45.253999999999976
 21
16.0
 31
0.0
  0
LINE
  5
158
  8
1
 62
     7
 10
-43.653999999999982
 20
-16.0
 30
0.0
 11
-45.253999999999976
 21
-16.0
 31
0.0
  0
LINE
  5
159
  8
1
 62
     7
 10
-46.053999999999988
 20
19.050000000000001
 30
0.0
 11
-45.253999999999976
 21
19.050000000000001
 31
0.0
  0
LINE
  5
15A
  8
1
 62
     7
 10
-45.253999999999976
 20
19.050000000000001
 30
0.0
 11
-45.253999999999976
 21
-19.050000000000011
 31
0.0
  0
LINE
  5
15B
  8
1
 62
     7
 10
-45.253999999999976
 20
-19.050000000000011
 30
0.0
 11
-46.053999999999988
 21
-19.050000000000001
 31
0.0
  0
LINE
  5
15C
  8
1
 62
     7
 10
-70.054000000000002
 20
43.0
 30
0.0
 11
-70.054000000000002
 21
-43.0
 31
0.0
  0
ARC
  5
15D
  8
1
 62
     7
 10
3.0806989176730331
 20
-28.099999999999991
 30
0.0
 40
5.0
 50
90.0
 51
180.0
  0
ARC
  5
15E
  8
1
 62
     7
 10
3.0806989176730171
 20
28.099999999999991
 30
0.0
 40
5.0
 50
180.0
 51
258.4630409671841
  0
ARC
  5
15F
  8
1
 62
     7
 10
139.21745886370499
 20
60.0
 30
0.0
 40
2.0
 50
90.0
 51
180.0
  0
ARC
  5
160
  8
1
 62
     7
 10
151.21745886370499
 20
60.0
 30
0.0
 40
2.0
 50
0.0
 51
90.0
  0
ARC
  5
161
  8
1
 62
     7
 10
145.21745886370499
 20
0.0000000000000213
 30
0.0
 40
42.0
 50
299.99999999999977
 51
359.99999999999977
  0
ARC
  5
162
  8
1
 62
     7
 10
145.21745886370499
 20
0.0000000000000213
 30
0.0
 40
42.000000000000092
 50
180.0
 51
239.99999999999989
  0
ARC
  5
163
  8
1
 62
     7
 10
145.21745886370499
 20
0.0000000000000213
 30
0.0
 40
42.0
 50
60.0
 51
119.9999999999999
  0
ARC
  5
164
  8
1
 62
     7
 10
145.21745886370499
 20
0.0000000000000213
 30
0.0
 40
7.4999999999999929
 50
109.47122063449071
 51
70.528779365509266
  0
ARC
  5
165
  8
1
 62
     7
 10
4.0806989176729758
 20
36.350000000000023
 30
0.0
 40
5.9999999999999858
 50
89.999999999999602
 51
180.0
  0
ARC
  5
166
  8
1
 62
     7
 10
156.21745886370499
 20
19.052558883257671
 30
0.0
 40
20.000113214388819
 50
9.5205465684241162
 51
59.999999999999247
  0
ARC
  5
167
  8
1
 62
     7
 10
123.21745886370501
 20
0.0
 30
0.0
 40
20.000113214388609
 50
129.52054656842509
 51
180.0
  0
ARC
  5
168
  8
1
 62
     7
 10
156.21745886370499
 20
-19.052558883257621
 30
0.0
 40
20.00011321438862
 50
249.52054656842489
 51
299.99999999999989
  0
ARC
  5
169
  8
1
 62
     7
 10
34.992826665374103
 20
-30.196285832627169
 30
0.0
 40
4.1000000000000663
 50
105.7387025673127
 51
147.60999677183401
  0
ARC
  5
16A
  8
1
 62
     7
 10
34.992826665374103
 20
-29.803714167372789
 30
0.0
 40
4.1000000000001071
 50
212.39000322816671
 51
254.2612974326874
  0
ARC
  5
16B
  8
1
 62
     7
 10
-99.653999999999996
 20
36.35000000000003
 30
0.0
 40
5.9999999999999778
 50
90.0
 51
180.0
  0
ARC
  5
16C
  8
1
 62
     7
 10
134.21745886370491
 20
-19.052558883257621
 30
0.0
 40
20.00011321438873
 50
240.00000000000091
 51
290.479453431575
  0
ARC
  5
16D
  8
1
 62
     7
 10
167.21745886370499
 20
0.0
 30
0.0
 40
20.000113214388609
 50
0.0
 51
50.479453431575223
  0
ARC
  5
16E
  8
1
 62
     7
 10
134.21745886370499
 20
19.052558883257671
 30
0.0
 40
20.000113214388762
 50
120.0000000000007
 51
170.4794534315746
  0
ARC
  5
16F
  8
1
 62
     7
 10
177.69341150562141
 20
-18.75
 30
0.0
 40
3.6000000000000081
 50
245.26802067527959
 51
54.731979324720882
  0
ARC
  5
170
  8
1
 62
     7
 10
145.21745886370499
 20
37.5
 30
0.0
 40
3.59999999999989
 50
5.2680206752794181
 51
174.73197932472061
  0
ARC
  5
171
  8
1
 62
     7
 10
112.7415062217884
 20
-18.749999999999961
 30
0.0
 40
3.6000000000000441
 50
125.2680206752789
 51
294.73197932472209
  0
ARC
  5
172
  8
1
  6
DASHDOT
 62
     3
 10
145.21745886370499
 20
0.0000000000000213
 30
0.0
 40
33.0
 50
81.285257981381889
 51
98.714742018618111
  0
ARC
  5
173
  8
1
  6
DASHDOT
 62
     3
 10
145.21745886370499
 20
0.0000000000000213
 30
0.0
 40
33.000000000000021
 50
201.2852579813819
 51
218.71474201861801
  0
ARC
  5
174
  8
1
  6
DASHDOT
 62
     3
 10
145.21745886370499
 20
0.0000000000000213
 30
0.0
 40
33.000000000000071
 50
321.28525798138179
 51
338.7147420186181
  0
CIRCLE
  5
175
  8
1
 62
     7
 10
145.21745886370499
 20
0.0000000000000213
 30
0.0
 40
43.0
  0
CIRCLE
  5
176
  8
1
 62
     7
 10
171.19822097723801
 20
15.0
 30
0.0
 40
1.5
  0
CIRCLE
  5
177
  8
1
 62
     7
 10
171.19822097723801
 20
15.0
 30
0.0
 40
2.0
  0
CIRCLE
  5
178
  8
1
 62
     7
 10
145.21745886370491
 20
-29.999999999999979
 30
0.0
 40
2.0
  0
CIRCLE
  5
179
  8
1
 62
     3
 10
145.21745886370491
 20
-29.999999999999979
 30
0.0
 40
1.5
  0
CIRCLE
  5
17A
  8
1
 62
     7
 10
145.21745886370491
 20
-29.999999999999979
 30
0.0
 40
1.5
  0
CIRCLE
  5
17B
  8
1
 62
     7
 10
119.2366967501717
 20
15.0
 30
0.0
 40
1.5
  0
CIRCLE
  5
17C
  8
1
 62
     7
 10
119.2366967501717
 20
15.0
 30
0.0
 40
2.0
  0
CIRCLE
  5
17D
  8
1
 62
     7
 10
145.21745886370499
 20
56.000000000000028
 30
0.0
 40
2.75
  0
CIRCLE
  5
17E
  8
1
 62
     7
 10
145.21745886370499
 20
0.0000000000000213
 30
0.0
 40
45.0
  0
CIRCLE
  5
17F
  8
1
 62
     7
 10
10.080698917672979
 20
18.0
 30
0.0
 40
3.3000000000000012
  0
CIRCLE
  5
180
  8
1
 62
     7
 10
10.080698917672979
 20
-18.0
 30
0.0
 40
3.3000000000000012
  0
CIRCLE
  5
181
  8
1
 62
     7
 10
145.21745886370499
 20
0.0000000000000213
 30
0.0
 40
27.0
  0
CIRCLE
  5
182
  8
1
 62
     7
 10
145.21745886370499
 20
0.0000000000000213
 30
0.0
 40
38.0
  0
CIRCLE
  5
183
  8
1
 62
     7
 10
145.21745886370499
 20
33.000000000000021
 30
0.0
 40
1.400000000000005
  0
CIRCLE
  5
184
  8
1
 62
     3
 10
145.21745886370499
 20
33.000000000000021
 30
0.0
 40
2.0
  0
CIRCLE
  5
185
  8
1
 62
     7
 10
116.6386205388184
 20
-16.499999999999972
 30
0.0
 40
1.4000000000000079
  0
CIRCLE
  5
186
  8
1
 62
     3
 10
116.6386205388184
 20
-16.499999999999972
 30
0.0
 40
1.9999999999999949
  0
CIRCLE
  5
187
  8
1
 62
     7
 10
173.7962971885915
 20
-16.50000000000006
 30
0.0
 40
1.399999999999997
  0
CIRCLE
  5
188
  8
1
 62
     3
 10
173.7962971885915
 20
-16.50000000000006
 30
0.0
 40
1.999999999999992
  0
CIRCLE
  5
189
  8
1
 62
     7
 10
145.21745886370499
 20
0.0000000000000213
 30
0.0
 40
16.0
  0
CIRCLE
  5
18A
  8
1
 62
     7
 10
145.21745886370499
 20
0.0000000000000213
 30
0.0
 40
20.5
  0
CIRCLE
  5
18B
  8
1
 62
     7
 10
41.68069891767302
 20
19.75
 30
0.0
 40
2.25
  0
CIRCLE
  5
18C
  8
1
 62
     7
 10
50.680698917672999
 20
19.75
 30
0.0
 40
2.25
  0
CIRCLE
  5
18D
  8
1
 62
     7
 10
41.68069891767302
 20
-19.75
 30
0.0
 40
2.25
  0
CIRCLE
  5
18E
  8
1
 62
     7
 10
50.680698917672999
 20
-19.75
 30
0.0
 40
2.25
  0
ARC
  5
18F
  8
1
 62
     7
 10
4.0806989176729891
 20
-36.34999999999998
 30
0.0
 40
5.9999999999999716
 50
180.0
 51
270.00000000000011
  0
ARC
  5
190
  8
1
 62
     7
 10
-99.653999999999996
 20
-36.34999999999998
 30
0.0
 40
6.0
 50
180.0
 51
270.0
  0
TEXT
  5
191
  8
1
 62
     7
 10
-101.364044699183
 20
127.4039743433907
 30
0.0
 40
3.5
  1
VCSH 1.2P
 41
0.9
  7
SIMPLEX
  0
ENDSEC
  0
EOF
