  0
SECTION
  2
HEADER
  9
$ACADVER
  1
AC1009
  9
$INSBASE
 10
0.0
 20
0.0
 30
0.0
  9
$EXTMIN
 10
-150.46300773467951
 20
-70.999999999999901
 30
0.0
  9
$EXTMAX
 10
249.93988388310831
 20
150.028882728799
 30
0.0
  9
$LIMMIN
 10
-150.46300773467951
 20
-70.999999999999901
  9
$LIMMAX
 10
246.16618182955099
 20
150.028882728799
  9
$ORTHOMODE
 70
     0
  9
$REGENMODE
 70
     1
  9
$FILLMODE
 70
     1
  9
$QTEXTMODE
 70
     0
  9
$MIRRTEXT
 70
     1
  9
$DRAGMODE
 70
     2
  9
$LTSCALE
 40
1.0
  9
$OSMODE
 70
    37
  9
$ATTMODE
 70
     1
  9
$TEXTSIZE
 40
3.5
  9
$TRACEWID
 40
0.5
  9
$TEXTSTYLE
  7
STANDARD
  9
$CLAYER
  8
0
  9
$CELTYPE
  6
BYLAYER
  9
$CECOLOR
 62
   256
  9
$DIMSCALE
 40
1.0
  9
$DIMASZ
 40
0.18
  9
$DIMEXO
 40
0.0625
  9
$DIMDLI
 40
0.38
  9
$DIMRND
 40
0.0
  9
$DIMDLE
 40
0.0
  9
$DIMEXE
 40
0.18
  9
$DIMTP
 40
0.0
  9
$DIMTM
 40
0.0
  9
$DIMTXT
 40
0.18
  9
$DIMCEN
 40
0.09
  9
$DIMTSZ
 40
0.0
  9
$DIMTOL
 70
     0
  9
$DIMLIM
 70
     0
  9
$DIMTIH
 70
     1
  9
$DIMTOH
 70
     1
  9
$DIMSE1
 70
     0
  9
$DIMSE2
 70
     0
  9
$DIMTAD
 70
     0
  9
$DIMZIN
 70
     0
  9
$DIMBLK
  1

  9
$DIMASO
 70
     1
  9
$DIMSHO
 70
     1
  9
$DIMPOST
  1

  9
$DIMAPOST
  1

  9
$DIMALT
 70
     0
  9
$DIMALTD
 70
     2
  9
$DIMALTF
 40
25.399999999999999
  9
$DIMLFAC
 40
1.0
  9
$DIMTOFL
 70
     0
  9
$DIMTVP
 40
0.0
  9
$DIMTIX
 70
     0
  9
$DIMSOXD
 70
     0
  9
$DIMSAH
 70
     0
  9
$DIMBLK1
  1

  9
$DIMBLK2
  1

  9
$DIMSTYLE
  2
STANDARD
  9
$DIMCLRD
 70
     0
  9
$DIMCLRE
 70
     0
  9
$DIMCLRT
 70
     0
  9
$DIMTFAC
 40
1.0
  9
$DIMGAP
 40
0.09
  9
$LUNITS
 70
     2
  9
$LUPREC
 70
     4
  9
$SKETCHINC
 40
0.1
  9
$FILLETRAD
 40
2.0
  9
$AUNITS
 70
     0
  9
$AUPREC
 70
     0
  9
$MENU
  1
ACAD
  9
$ELEVATION
 40
0.0
  9
$PELEVATION
 40
0.0
  9
$THICKNESS
 40
0.0
  9
$LIMCHECK
 70
     0
  9
$BLIPMODE
 70
     0
  9
$CHAMFERA
 40
0.0
  9
$CHAMFERB
 40
0.0
  9
$SKPOLY
 70
     0
  9
$TDCREATE
 40
2452098.695685301
  9
$TDUPDATE
 40
2452098.6963490741
  9
$TDINDWG
 40
0.0006643519
  9
$TDUSRTIMER
 40
0.0006643519
  9
$USRTIMER
 70
     1
  9
$ANGBASE
 50
0.0
  9
$ANGDIR
 70
     0
  9
$PDMODE
 70
     0
  9
$PDSIZE
 40
0.0
  9
$PLINEWID
 40
0.0
  9
$COORDS
 70
     1
  9
$SPLFRAME
 70
     0
  9
$SPLINETYPE
 70
     6
  9
$SPLINESEGS
 70
     8
  9
$ATTDIA
 70
     0
  9
$ATTREQ
 70
     1
  9
$HANDLING
 70
 10241
  9
$HANDSEED
  5
19E
  9
$SURFTAB1
 70
     6
  9
$SURFTAB2
 70
     6
  9
$SURFTYPE
 70
     6
  9
$SURFU
 70
     6
  9
$SURFV
 70
     6
  9
$UCSNAME
  2

  9
$UCSORG
 10
0.0
 20
0.0
 30
0.0
  9
$UCSXDIR
 10
1.0
 20
0.0
 30
0.0
  9
$UCSYDIR
 10
0.0
 20
1.0
 30
0.0
  9
$PUCSNAME
  2

  9
$PUCSORG
 10
0.0
 20
0.0
 30
0.0
  9
$PUCSXDIR
 10
1.0
 20
0.0
 30
0.0
  9
$PUCSYDIR
 10
0.0
 20
1.0
 30
0.0
  9
$USERI1
 70
     0
  9
$USERI2
 70
     0
  9
$USERI3
 70
     0
  9
$USERI4
 70
     0
  9
$USERI5
 70
     0
  9
$USERR1
 40
0.0
  9
$USERR2
 40
0.0
  9
$USERR3
 40
0.0
  9
$USERR4
 40
0.0
  9
$USERR5
 40
0.0
  9
$WORLDVIEW
 70
     1
  9
$SHADEDGE
 70
     3
  9
$SHADEDIF
 70
    70
  9
$TILEMODE
 70
     1
  9
$MAXACTVP
 70
    64
  9
$PLIMCHECK
 70
     0
  9
$PEXTMIN
 10
1.0000000000000000E+020
 20
1.0000000000000000E+020
 30
1.0000000000000000E+020
  9
$PEXTMAX
 10
-1.0000000000000000E+020
 20
-1.0000000000000000E+020
 30
-1.0000000000000000E+020
  9
$PLIMMIN
 10
0.0
 20
0.0
  9
$PLIMMAX
 10
12.0
 20
9.0
  9
$UNITMODE
 70
     0
  9
$VISRETAIN
 70
     1
  9
$PLINEGEN
 70
     0
  9
$PSLTSCALE
 70
     1
  0
ENDSEC
  0
SECTION
  2
TABLES
  0
TABLE
  2
VPORT
 70
     2
  0
VPORT
  2
*ACTIVE
 70
     0
 10
0.0
 20
0.0
 11
1.0
 21
1.0
 12
-142.23250682569571
 22
145.63731616403339
 13
0.0
 23
0.0
 14
1.0
 24
1.0
 15
0.0
 25
0.0
 16
0.0
 26
0.0
 36
1.0
 17
0.0
 27
0.0
 37
0.0
 40
9.0000002927306628
 41
1.853118712273641
 42
50.0
 43
0.0
 44
0.0
 50
0.0
 51
0.0
 71
     0
 72
   100
 73
     1
 74
     1
 75
     0
 76
     0
 77
     0
 78
     0
  0
ENDTAB
  0
TABLE
  2
LTYPE
 70
     9
  0
LTYPE
  2
CONTINUOUS
 70
     0
  3
Solid line
 72
    65
 73
     0
 40
0.0
  0
LTYPE
  2
BORDER
 70
     0
  3
__ __ . __ __ .
 72
    65
 73
     6
 40
18.265817940457978
 49
5.2188051258451367
 49
-2.6094025629225679
 49
5.2188051258451367
 49
-2.6094025629225679
 49
0.0
 49
-2.6094025629225679
  0
LTYPE
  2
CENTER
 70
     0
  3
____ _ ____ _
 72
    65
 73
     4
 40
20.87522050338054
 49
13.047012814612851
 49
-2.6094025629225679
 49
2.6094025629225679
 49
-2.6094025629225679
  0
LTYPE
  2
DASHDOT
 70
     0
  3
__ . __ . __ .
 72
    65
 73
     4
 40
10.43761025169027
 49
5.2188051258451367
 49
-2.6094025629225679
 49
0.0
 49
-2.6094025629225679
  0
LTYPE
  2
DASHED
 70
     0
  3
__ __ __ __ __
 72
    65
 73
     2
 40
7.8282076887677068
 49
5.2188051258451367
 49
-2.6094025629225679
  0
LTYPE
  2
DIVIDE
 70
     0
  3
__ . . __ . . 
 72
    65
 73
     6
 40
13.047012814612851
 49
5.2188051258451367
 49
-2.6094025629225679
 49
0.0
 49
-2.6094025629225679
 49
0.0
 49
-2.6094025629225679
  0
LTYPE
  2
DOT
 70
     0
  3
..............
 72
    65
 73
     4
 40
5.2188051258451367
 49
0.0
 49
-2.6094025629225679
 49
0.0
 49
-2.6094025629225679
  0
LTYPE
  2
HIDDEN
 70
     0
  3
_ _ _ _ _ _ _
 72
    65
 73
     2
 40
3.9141038443838529
 49
2.6094025629225679
 49
-1.3047012814612839
  0
LTYPE
  2
PHANTOM
 70
     0
  3
_____ _ _ _____ _ _ 
 72
    65
 73
     6
 40
26.09402562922569
 49
13.047012814612851
 49
-2.6094025629225679
 49
2.6094025629225679
 49
-2.6094025629225679
 49
2.6094025629225679
 49
-2.6094025629225679
  0
ENDTAB
  0
TABLE
  2
LAYER
 70
     2
  0
LAYER
  2
0
 70
     0
 62
     7
  6
CONTINUOUS
  0
LAYER
  2
1
 70
     0
 62
     7
  6
CONTINUOUS
  0
ENDTAB
  0
TABLE
  2
STYLE
 70
     4
  0
STYLE
  2
STANDARD
 70
     0
 40
0.0
 41
1.0
 50
0.0
 71
     0
 42
3.5
  3
txt
  4

  0
STYLE
  2
SIMPLEX
 70
     0
 40
0.0
 41
1.0
 50
0.0
 71
     0
 42
3.5
  3
simplex
  4

  0
STYLE
  2
COMPLEX
 70
     0
 40
0.0
 41
1.0
 50
0.0
 71
     0
 42
3.5
  3
complex
  4

  0
STYLE
  2
ITALIC
 70
     0
 40
0.0
 41
1.0
 50
0.0
 71
     0
 42
3.5
  3
italic
  4

  0
ENDTAB
  0
TABLE
  2
VIEW
 70
     0
  0
ENDTAB
  0
TABLE
  2
UCS
 70
     0
  0
ENDTAB
  0
TABLE
  2
APPID
 70
     1
  0
APPID
  2
ACAD
 70
     0
  0
ENDTAB
  0
TABLE
  2
DIMSTYLE
 70
     1
  0
DIMSTYLE
  2
STANDARD
 70
     0
  3

  4

  5

  6

  7

 40
1.0
 41
0.18
 42
0.0625
 43
0.38
 44
0.18
 45
0.0
 46
0.0
 47
0.0
 48
0.0
140
0.18
141
0.09
142
0.0
143
25.399999999999999
144
1.0
145
0.0
146
1.0
147
0.09
 71
     0
 72
     0
 73
     1
 74
     1
 75
     0
 76
     0
 77
     0
 78
     0
170
     0
171
     2
172
     0
173
     0
174
     0
175
     0
176
     0
177
     0
178
     0
  0
ENDTAB
  0
ENDSEC
  0
SECTION
  2
BLOCKS
  0
BLOCK
  8
0
  2
$MODEL_SPACE
 70
     0
 10
0.0
 20
0.0
 30
0.0
  3
$MODEL_SPACE
  1

  0
ENDBLK
  5
20
  8
0
  0
BLOCK
 67
     1
  8
0
  2
$PAPER_SPACE
 70
     0
 10
0.0
 20
0.0
 30
0.0
  3
$PAPER_SPACE
  1

  0
ENDBLK
  5
1C
 67
     1
  8
0
  0
ENDSEC
  0
SECTION
  2
ENTITIES
  0
LINE
  5
33
  8
1
 62
     7
 10
-69.867999999999995
 20
23.600000000000001
 30
0.0
 11
-69.867999999999995
 21
-23.600000000000001
 31
0.0
  0
LINE
  5
34
  8
1
 62
     7
 10
-9.0240000000001004
 20
30.75
 30
0.0
 11
-9.0240000000001004
 21
-60.325876138829202
 31
0.0
  0
LINE
  5
35
  8
1
 62
     7
 10
10.4759999999999
 20
-33.999999999999993
 30
0.0
 11
-4.6220762113534022
 21
-34.0
 31
0.0
  0
LINE
  5
36
  8
1
 62
     7
 10
-4.5240000000000986
 20
34.0
 30
0.0
 11
-4.5240000000000986
 21
-33.999999999999993
 31
0.0
  0
LINE
  5
37
  8
1
 62
     7
 10
-82.967999999999989
 20
53.0
 30
0.0
 11
-82.967999999999989
 21
-53.0
 31
0.0
  0
LINE
  5
38
  8
1
 62
     7
 10
-70.467999999999975
 20
36.0
 30
0.0
 11
-70.467999999999975
 21
-36.0
 31
0.0
  0
LINE
  5
39
  8
1
 62
     7
 10
-93.967999999999975
 20
-53.999999999999993
 30
0.0
 11
-93.968000000000004
 21
53.0
 31
0.0
  0
LINE
  5
3A
  8
1
 62
     7
 10
-69.867999999999995
 20
-23.600000000000001
 30
0.0
 11
-70.467999999999975
 21
-23.600000000000001
 31
0.0
  0
LINE
  5
3B
  8
1
 62
     7
 10
-69.867999999999995
 20
-20.0
 30
0.0
 11
-68.46799999999989
 21
-20.0
 31
0.0
  0
LINE
  5
3C
  8
1
 62
     7
 10
-70.467999999999975
 20
23.600000000000001
 30
0.0
 11
-69.867999999999995
 21
23.600000000000001
 31
0.0
  0
LINE
  5
3D
  8
1
 62
     7
 10
-69.867999999999995
 20
20.0
 30
0.0
 11
-68.46799999999989
 21
20.0
 31
0.0
  0
LINE
  5
3E
  8
1
 62
     7
 10
-68.46799999999989
 20
20.0
 30
0.0
 11
-68.46799999999989
 21
-20.0
 31
0.0
  0
LINE
  5
3F
  8
1
 62
     7
 10
-82.967999999999989
 20
53.0
 30
0.0
 11
-93.968000000000004
 21
53.0
 31
0.0
  0
LINE
  5
40
  8
1
 62
     7
 10
-70.467999999999975
 20
36.0
 30
0.0
 11
-82.967999999999989
 21
36.0
 31
0.0
  0
LINE
  5
41
  8
1
 62
     7
 10
-93.968000000000004
 20
-53.0
 30
0.0
 11
-82.967999999999989
 21
-53.0
 31
0.0
  0
LINE
  5
42
  8
1
 62
     7
 10
-82.967999999999989
 20
-36.0
 30
0.0
 11
-70.467999999999975
 21
-36.0
 31
0.0
  0
LINE
  5
43
  8
1
 62
     7
 10
39.975999999999793
 20
-45.09999999999998
 30
0.0
 11
39.975999999999793
 21
-31.0
 31
0.0
  0
LINE
  5
44
  8
1
  6
DASHDOT
 62
     3
 10
53.975999999999793
 20
45.0
 30
0.0
 11
36.975999999999793
 21
45.0
 31
0.0
  0
LINE
  5
45
  8
1
 62
     7
 10
39.975999999999793
 20
47.399999999999999
 30
0.0
 11
50.975999999999793
 21
47.399999999999999
 31
0.0
  0
LINE
  5
46
  8
1
 62
     7
 10
50.975999999999793
 20
42.600000000000001
 30
0.0
 11
39.975999999999793
 21
42.600000000000001
 31
0.0
  0
LINE
  5
47
  8
1
 62
     3
 10
39.975999999999793
 20
48.0
 30
0.0
 11
50.975999999999793
 21
48.0
 31
0.0
  0
LINE
  5
48
  8
1
 62
     3
 10
50.975999999999793
 20
42.0
 30
0.0
 11
39.975999999999793
 21
42.0
 31
0.0
  0
LINE
  5
49
  8
1
 62
     7
 10
63.475999999999793
 20
-36.0
 30
0.0
 11
63.475999999999793
 21
-25.0
 31
0.0
  0
LINE
  5
4A
  8
1
 62
     7
 10
50.975999999999793
 20
-36.0
 30
0.0
 11
63.475999999999793
 21
-36.0
 31
0.0
  0
LINE
  5
4B
  8
1
 62
     7
 10
50.975999999999793
 20
-53.0
 30
0.0
 11
50.975999999999793
 21
-36.0
 31
0.0
  0
LINE
  5
4C
  8
1
 62
     7
 10
39.975999999999793
 20
-53.0
 30
0.0
 11
50.975999999999793
 21
-53.0
 31
0.0
  0
LINE
  5
4D
  8
1
  6
DASHDOT
 62
     3
 10
219.33347742255739
 20
-25.500000000000011
 30
0.0
 11
208.94117257714419
 21
-19.5
 31
0.0
  0
LINE
  5
4E
  8
1
  6
DASHDOT
 62
     3
 10
130.99888623654459
 20
-25.499999999999979
 30
0.0
 11
141.391191081958
 21
-19.5
 31
0.0
  0
LINE
  5
4F
  8
1
  6
DASHDOT
 62
     3
 10
175.16618182955099
 20
51.0
 30
0.0
 11
175.16618182955099
 21
39.0
 31
0.0
  0
LINE
  5
50
  8
1
 62
     7
 10
-100.3679999999999
 20
-68.0
 30
0.0
 11
-100.3679999999999
 21
68.000000000000014
 31
0.0
  0
LINE
  5
51
  8
1
 62
     7
 10
179.16618182955099
 20
15.800000000000001
 30
0.0
 11
171.16618182955099
 21
15.800000000000001
 31
0.0
  0
LINE
  5
52
  8
1
 62
     7
 10
171.16618182955099
 20
11.84271928232701
 30
0.0
 11
171.16618182955099
 21
15.800000000000001
 31
0.0
  0
LINE
  5
53
  8
1
 62
     7
 10
179.16618182955099
 20
11.84271928232701
 30
0.0
 11
179.16618182955099
 21
15.800000000000001
 31
0.0
  0
LINE
  5
54
  8
1
 62
     7
 10
-11.0240000000001
 20
84.0
 30
0.0
 11
-11.0240000000001
 21
-52.5
 31
0.0
  0
LINE
  5
55
  8
1
 62
     7
 10
22.775999999999801
 20
-33.499999999999993
 30
0.0
 11
22.775999999999801
 21
-67.850000000000023
 31
0.0
  0
LINE
  5
56
  8
1
 62
     7
 10
12.675999999999799
 20
-33.499999999999993
 30
0.0
 11
12.675999999999799
 21
-25.499999999999879
 31
0.0
  0
LINE
  5
57
  8
1
 62
     7
 10
12.675999999999799
 20
-67.850000000000023
 30
0.0
 11
12.675999999999799
 21
-70.999999999999901
 31
0.0
  0
LINE
  5
58
  8
1
 62
     7
 10
22.775999999999801
 20
33.5
 30
0.0
 11
22.775999999999801
 21
67.850000000000023
 31
0.0
  0
LINE
  5
59
  8
1
 62
     7
 10
199.8842831048633
 20
92.249209826098536
 30
0.0
 11
193.5625225903714
 21
68.575320973450587
 31
0.0
  0
LINE
  5
5A
  8
1
 62
     7
 10
-98.668000000000006
 20
-52.5
 30
0.0
 11
-97.867999999999995
 21
-52.5
 31
0.0
  0
LINE
  5
5B
  8
1
 62
     7
 10
-4.5240000000000986
 20
12.5
 30
0.0
 11
13.4759999999999
 21
12.5
 31
0.0
  0
LINE
  5
5C
  8
1
 62
     7
 10
-4.5240000000000986
 20
15.800000000000001
 30
0.0
 11
65.4759999999999
 21
15.800000000000001
 31
0.0
  0
LINE
  5
5D
  8
1
 62
     7
 10
-4.5240000000000986
 20
-12.5
 30
0.0
 11
13.4759999999999
 21
-12.5
 31
0.0
  0
LINE
  5
5E
  8
1
 62
     7
 10
-11.0240000000001
 20
74.75
 30
0.0
 11
-9.0240000000001004
 21
74.75
 31
0.0
  0
LINE
  5
5F
  8
1
  6
DASHDOT
 62
     3
 10
-12.146637906940811
 20
78.0
 30
0.0
 11
-7.5408825112573066
 21
78.0
 31
0.0
  0
LINE
  5
60
  8
1
 62
     7
 10
-11.0240000000001
 20
81.25
 30
0.0
 11
-9.0240000000001004
 21
81.25
 31
0.0
  0
LINE
  5
61
  8
1
 62
     7
 10
-11.0240000000001
 20
84.0
 30
0.0
 11
-9.0240000000001004
 21
84.0
 31
0.0
  0
LINE
  5
62
  8
1
 62
     7
 10
-11.0240000000001
 20
30.75
 30
0.0
 11
-9.0240000000001004
 21
30.75
 31
0.0
  0
LINE
  5
63
  8
1
 62
     7
 10
-11.0240000000001
 20
-30.749999999999989
 30
0.0
 11
-9.0240000000001004
 21
-30.749999999999989
 31
0.0
  0
LINE
  5
64
  8
1
 62
     7
 10
-11.0240000000001
 20
-52.5
 30
0.0
 11
-9.0240000000001004
 21
-52.5
 31
0.0
  0
LINE
  5
65
  8
1
 62
     7
 10
19.775999999999879
 20
-67.350000000000023
 30
0.0
 11
-2.0240415687433999
 21
-67.350000000000023
 31
0.0
  0
LINE
  5
66
  8
1
 62
     7
 10
19.775999999999879
 20
-33.999999999999993
 30
0.0
 11
19.775999999999879
 21
-67.350000000000023
 31
0.0
  0
LINE
  5
67
  8
1
 62
     7
 10
19.775999999999879
 20
-33.999999999999993
 30
0.0
 11
12.07599999999989
 21
-33.999999999999993
 31
0.0
  0
LINE
  5
68
  8
1
 62
     7
 10
12.07599999999989
 20
34.0
 30
0.0
 11
19.775999999999879
 21
34.0
 31
0.0
  0
LINE
  5
69
  8
1
 62
     7
 10
19.775999999999879
 20
67.350000000000023
 30
0.0
 11
19.775999999999879
 21
34.0
 31
0.0
  0
LINE
  5
6A
  8
1
 62
     7
 10
-2.0240000000000991
 20
67.349999999999994
 30
0.0
 11
19.775999999999879
 21
67.350000000000023
 31
0.0
  0
LINE
  5
6B
  8
1
 62
     7
 10
10.4759999999999
 20
25.500000000000011
 30
0.0
 11
12.675999999999799
 21
25.500000000000011
 31
0.0
  0
LINE
  5
6C
  8
1
 62
     7
 10
12.675999999999799
 20
25.500000000000011
 30
0.0
 11
12.675999999999799
 21
33.5
 31
0.0
  0
LINE
  5
6D
  8
1
 62
     7
 10
12.675999999999799
 20
33.5
 30
0.0
 11
22.775999999999801
 21
33.5
 31
0.0
  0
LINE
  5
6E
  8
1
 62
     7
 10
22.775999999999801
 20
67.850000000000023
 30
0.0
 11
12.675999999999799
 21
67.850000000000023
 31
0.0
  0
LINE
  5
6F
  8
1
 62
     7
 10
25.655274057836191
 20
71.000000000000014
 30
0.0
 11
27.675999999999799
 21
67.500000000000014
 31
0.0
  0
LINE
  5
70
  8
1
 62
     7
 10
27.675999999999799
 20
67.500000000000014
 30
0.0
 11
29.175999999999799
 21
67.500000000000014
 31
0.0
  0
LINE
  5
71
  8
1
 62
     7
 10
27.175999999999799
 20
33.5
 30
0.0
 11
29.175999999999799
 21
33.5
 31
0.0
  0
LINE
  5
72
  8
1
 62
     7
 10
27.175999999999799
 20
33.5
 30
0.0
 11
27.175999999999799
 21
29.0
 31
0.0
  0
LINE
  5
73
  8
1
 62
     7
 10
12.675999999999799
 20
71.000000000000014
 30
0.0
 11
12.675999999999799
 21
67.850000000000023
 31
0.0
  0
LINE
  5
74
  8
1
 62
     7
 10
12.675999999999799
 20
71.000000000000014
 30
0.0
 11
25.655274057836191
 21
71.000000000000014
 31
0.0
  0
LINE
  5
75
  8
1
 62
     7
 10
10.4759999999999
 20
29.5
 30
0.0
 11
12.07599999999989
 21
29.5
 31
0.0
  0
LINE
  5
76
  8
1
 62
     7
 10
12.07599999999989
 20
35.5
 30
0.0
 11
12.07599999999989
 21
28.245999999999889
 31
0.0
  0
LINE
  5
77
  8
1
 62
     7
 10
12.07599999999989
 20
35.5
 30
0.0
 11
10.4759999999999
 21
35.5
 31
0.0
  0
LINE
  5
78
  8
1
 62
     7
 10
10.4759999999999
 20
-35.499999999999879
 30
0.0
 11
12.07599999999989
 21
-35.5
 31
0.0
  0
LINE
  5
79
  8
1
 62
     7
 10
12.07599999999989
 20
-28.245999999999881
 30
0.0
 11
12.07599999999989
 21
-35.5
 31
0.0
  0
LINE
  5
7A
  8
1
 62
     7
 10
12.07599999999989
 20
-29.499999999999879
 30
0.0
 11
10.4759999999999
 21
-29.499999999999879
 31
0.0
  0
LINE
  5
7B
  8
1
 62
     7
 10
25.655274057836191
 20
-70.999999999999901
 30
0.0
 11
12.675999999999799
 21
-70.999999999999901
 31
0.0
  0
LINE
  5
7C
  8
1
 62
     7
 10
28.975999999999889
 20
29.0
 30
0.0
 11
28.975999999999889
 21
23.5
 31
0.0
  0
LINE
  5
7D
  8
1
 62
     7
 10
27.175999999999888
 20
-28.999999999999979
 30
0.0
 11
27.175999999999799
 21
-33.499999999999893
 31
0.0
  0
LINE
  5
7E
  8
1
 62
     7
 10
29.175999999999799
 20
-33.499999999999879
 30
0.0
 11
27.175999999999799
 21
-33.499999999999893
 31
0.0
  0
LINE
  5
7F
  8
1
 62
     7
 10
28.975999999999889
 20
-28.999999999999869
 30
0.0
 11
27.175999999999888
 21
-28.999999999999979
 31
0.0
  0
LINE
  5
80
  8
1
 62
     7
 10
29.175999999999799
 20
-67.499999999999901
 30
0.0
 11
27.675999999999799
 21
-67.499999999999901
 31
0.0
  0
LINE
  5
81
  8
1
 62
     7
 10
27.675999999999799
 20
-67.499999999999901
 30
0.0
 11
25.655274057836191
 21
-70.999999999999901
 31
0.0
  0
LINE
  5
82
  8
1
 62
     7
 10
12.675999999999799
 20
-67.850000000000023
 30
0.0
 11
22.775999999999801
 21
-67.850000000000023
 31
0.0
  0
LINE
  5
83
  8
1
 62
     7
 10
22.775999999999801
 20
-33.499999999999993
 30
0.0
 11
12.675999999999799
 21
-33.499999999999993
 31
0.0
  0
LINE
  5
84
  8
1
 62
     7
 10
12.675999999999799
 20
-25.499999999999879
 30
0.0
 11
10.4759999999999
 21
-25.499999999999879
 31
0.0
  0
LINE
  5
85
  8
1
 62
     7
 10
36.075999999999809
 20
-58.281226189436772
 30
0.0
 11
37.075999999999702
 21
-58.281226189436772
 31
0.0
  0
LINE
  5
86
  8
1
 62
     7
 10
37.075999999999809
 20
-53.999999999999993
 30
0.0
 11
39.975999999999793
 21
-53.999999999999993
 31
0.0
  0
LINE
  5
87
  8
1
 62
     7
 10
39.975999999999793
 20
-49.899999999999991
 30
0.0
 11
39.975999999999793
 21
-53.999999999999993
 31
0.0
  0
LINE
  5
88
  8
1
 62
     7
 10
37.075999999999809
 20
47.631652497587368
 30
0.0
 11
37.075999999999809
 21
31.887007831023109
 31
0.0
  0
LINE
  5
89
  8
1
 62
     7
 10
37.075999999999809
 20
-40.999999999999993
 30
0.0
 11
39.975999999999793
 21
-40.999999999999993
 31
0.0
  0
LINE
  5
8A
  8
1
 62
     7
 10
37.075999999999809
 20
-50.499999999999993
 30
0.0
 11
37.075999999999809
 21
-66.536725737242591
 31
0.0
  0
LINE
  5
8B
  8
1
 62
     7
 10
29.375999999999792
 20
-53.499999999999993
 30
0.0
 11
35.275999999999797
 21
-53.499999999999993
 31
0.0
  0
LINE
  5
8C
  8
1
 62
     7
 10
29.375999999999792
 20
-41.499999999999993
 30
0.0
 11
35.275999999999797
 21
-41.5
 31
0.0
  0
LINE
  5
8D
  8
1
 62
     7
 10
36.075999999999809
 20
-38.499999999999993
 30
0.0
 11
37.075999999999702
 21
-38.499999999999993
 31
0.0
  0
LINE
  5
8E
  8
1
 62
     7
 10
36.075999999999887
 20
-66.536725737242591
 30
0.0
 11
37.075999999999809
 21
-66.536725737242591
 31
0.0
  0
LINE
  5
8F
  8
1
 62
     7
 10
36.27599999999979
 20
50.617293143642421
 30
0.0
 11
37.075999999999809
 21
47.631652497587368
 31
0.0
  0
LINE
  5
90
  8
1
 62
     7
 10
35.275999999999797
 20
50.485640646055103
 30
0.0
 11
36.075999999999809
 21
47.5
 31
0.0
  0
LINE
  5
91
  8
1
 62
     7
 10
36.27599999999979
 20
66.500000000000014
 30
0.0
 11
36.27599999999979
 21
50.617293143642421
 31
0.0
  0
LINE
  5
92
  8
1
 62
     7
 10
35.334858553448399
 20
54.500000000000007
 30
0.0
 11
36.27599999999979
 21
54.500000000000007
 31
0.0
  0
LINE
  5
93
  8
1
 62
     7
 10
38.575999999999809
 20
55.5
 30
0.0
 11
39.075999999999809
 21
56.000000000000007
 31
0.0
  0
LINE
  5
94
  8
1
 62
     7
 10
38.575999999999809
 20
65.500000000000014
 30
0.0
 11
39.075999999999809
 21
65.000000000000014
 31
0.0
  0
LINE
  5
95
  8
1
 62
     7
 10
36.975999999999793
 20
65.500000000000014
 30
0.0
 11
36.975999999999793
 21
55.5
 31
0.0
  0
LINE
  5
96
  8
1
 62
     7
 10
35.275999999999883
 20
66.500000000000014
 30
0.0
 11
36.27599999999979
 21
66.500000000000014
 31
0.0
  0
LINE
  5
97
  8
1
 62
     7
 10
36.27599999999979
 20
65.500000000000014
 30
0.0
 11
38.575999999999809
 21
65.500000000000014
 31
0.0
  0
LINE
  5
98
  8
1
 62
     7
 10
36.27599999999979
 20
55.5
 30
0.0
 11
38.575999999999809
 21
55.5
 31
0.0
  0
LINE
  5
99
  8
1
 62
     7
 10
39.075999999999809
 20
65.000000000000014
 30
0.0
 11
39.075999999999809
 21
56.000000000000007
 31
0.0
  0
LINE
  5
9A
  8
1
 62
     7
 10
35.275999999999797
 20
-68.0
 30
0.0
 11
29.375999999999792
 21
-68.0
 31
0.0
  0
LINE
  5
9B
  8
1
 62
     7
 10
36.075999999999809
 20
47.5
 30
0.0
 11
36.075999999999809
 21
31.887007831023109
 31
0.0
  0
LINE
  5
9C
  8
1
 62
     7
 10
35.275999999999797
 20
-32.999999999999993
 30
0.0
 11
29.375999999999792
 21
-32.999999999999993
 31
0.0
  0
LINE
  5
9D
  8
1
 62
     7
 10
29.375999999999792
 20
33.0
 30
0.0
 11
35.275999999999797
 21
33.0
 31
0.0
  0
LINE
  5
9E
  8
1
 62
     7
 10
35.275999999999797
 20
68.000000000000014
 30
0.0
 11
35.275999999999797
 21
27.387007831023102
 31
0.0
  0
LINE
  5
9F
  8
1
 62
     7
 10
29.375999999999792
 20
68.000000000000014
 30
0.0
 11
35.275999999999797
 21
68.000000000000014
 31
0.0
  0
LINE
  5
A0
  8
1
 62
     7
 10
29.375999999999792
 20
68.000000000000014
 30
0.0
 11
29.375999999999792
 21
27.387007831023102
 31
0.0
  0
LINE
  5
A1
  8
1
 62
     7
 10
27.175999999999799
 20
29.0
 30
0.0
 11
28.975999999999889
 21
29.0
 31
0.0
  0
LINE
  5
A2
  8
1
 62
     7
 10
12.07599999999989
 20
35.5
 30
0.0
 11
10.4759999999999
 21
35.5
 31
0.0
  0
LINE
  5
A3
  8
1
  6
DASHDOT
 62
     3
 10
-11.0240000000001
 20
0.0000000000000036
 30
0.0
 11
-16.0240000000001
 21
0.0
 31
0.0
  0
LINE
  5
A4
  8
1
  6
DASHDOT
 62
     3
 10
70.475999999999857
 20
0.0000000000000036
 30
0.0
 11
65.4759999999999
 21
0.0000000000000036
 31
0.0
  0
LINE
  5
A5
  8
1
 62
     7
 10
12.07599999999989
 20
-35.5
 30
0.0
 11
10.4759999999999
 21
-35.499999999999879
 31
0.0
  0
LINE
  5
A6
  8
1
 62
     7
 10
-108.7887259421635
 20
-70.999999999999901
 30
0.0
 11
-108.7887259421635
 21
71.0
 31
0.0
  0
LINE
  5
A7
  8
1
 62
     7
 10
-106.7679999999999
 20
67.5
 30
0.0
 11
-106.7679999999999
 21
-67.499999999999901
 31
0.0
  0
LINE
  5
A8
  8
1
 62
     7
 10
-104.7679999999999
 20
-67.499999999999901
 30
0.0
 11
-104.7679999999999
 21
67.5
 31
0.0
  0
LINE
  5
A9
  8
1
 62
     7
 10
-135.9679999999999
 20
67.350000000000023
 30
0.0
 11
-121.2679999999999
 21
67.350000000000023
 31
0.0
  0
LINE
  5
AA
  8
1
 62
     7
 10
-144.9679999999999
 20
84.0
 30
0.0
 11
-142.9679999999999
 21
84.0
 31
0.0
  0
LINE
  5
AB
  8
1
 62
     7
 10
-144.9679999999999
 20
-52.5
 30
0.0
 11
-142.9679999999999
 21
-52.5
 31
0.0
  0
LINE
  5
AC
  8
1
 62
     7
 10
-135.9679999999999
 20
-67.350000000000023
 30
0.0
 11
-121.2679999999999
 21
-67.350000000000023
 31
0.0
  0
LINE
  5
AD
  8
1
 62
     7
 10
-108.7887259421635
 20
71.0
 30
0.0
 11
-106.7679999999999
 21
67.5
 31
0.0
  0
LINE
  5
AE
  8
1
 62
     7
 10
-106.7679999999999
 20
67.5
 30
0.0
 11
-104.7679999999999
 21
67.5
 31
0.0
  0
LINE
  5
AF
  8
1
 62
     7
 10
-121.2679999999999
 20
71.0
 30
0.0
 11
-108.7887259421635
 21
71.0
 31
0.0
  0
LINE
  5
B0
  8
1
 62
     7
 10
-108.7887259421635
 20
-70.999999999999901
 30
0.0
 11
-121.2679999999999
 21
-70.999999999999901
 31
0.0
  0
LINE
  5
B1
  8
1
 62
     7
 10
-121.2679999999999
 20
-70.999999999999901
 30
0.0
 11
-121.2679999999999
 21
71.0
 31
0.0
  0
LINE
  5
B2
  8
1
 62
     7
 10
-104.7679999999999
 20
-67.499999999999901
 30
0.0
 11
-106.7679999999999
 21
-67.499999999999901
 31
0.0
  0
LINE
  5
B3
  8
1
 62
     7
 10
-106.7679999999999
 20
-67.499999999999901
 30
0.0
 11
-108.7887259421635
 21
-70.999999999999901
 31
0.0
  0
LINE
  5
B4
  8
1
 62
     7
 10
-144.9679999999999
 20
84.0
 30
0.0
 11
-144.9679999999999
 21
-52.5
 31
0.0
  0
LINE
  5
B5
  8
1
 62
     7
 10
-96.867999999999981
 20
-53.999999999999993
 30
0.0
 11
-93.967999999999975
 21
-53.999999999999993
 31
0.0
  0
LINE
  5
B6
  8
1
 62
     7
 10
-96.867999999999981
 20
-40.999999999999993
 30
0.0
 11
-93.967999999999975
 21
-40.999999999999993
 31
0.0
  0
LINE
  5
B7
  8
1
 62
     7
 10
-96.867999999999981
 20
-66.536725737242591
 30
0.0
 11
-96.867999999999981
 21
47.631652497587389
 31
0.0
  0
LINE
  5
B8
  8
1
 62
     7
 10
-98.668000000000006
 20
-68.0
 30
0.0
 11
-98.668000000000006
 21
68.000000000000014
 31
0.0
  0
LINE
  5
B9
  8
1
 62
     7
 10
-97.867999999999867
 20
-66.536725737242591
 30
0.0
 11
-96.867999999999981
 21
-66.536725737242591
 31
0.0
  0
LINE
  5
BA
  8
1
 62
     7
 10
-97.668000000000006
 20
50.61729314364247
 30
0.0
 11
-96.867999999999981
 21
47.631652497587389
 31
0.0
  0
LINE
  5
BB
  8
1
 62
     7
 10
-98.668000000000006
 20
50.485640646055103
 30
0.0
 11
-97.867999999999995
 21
47.5
 31
0.0
  0
LINE
  5
BC
  8
1
 62
     7
 10
-95.367999999999967
 20
55.5
 30
0.0
 11
-94.867999999999981
 21
56.000000000000007
 31
0.0
  0
LINE
  5
BD
  8
1
 62
     7
 10
-95.367999999999967
 20
65.500000000000014
 30
0.0
 11
-94.867999999999981
 21
65.000000000000014
 31
0.0
  0
LINE
  5
BE
  8
1
 62
     7
 10
-96.968000000000032
 20
65.500000000000014
 30
0.0
 11
-96.968000000000032
 21
55.5
 31
0.0
  0
LINE
  5
BF
  8
1
 62
     7
 10
-98.667999999999864
 20
66.500000000000014
 30
0.0
 11
-97.668000000000006
 21
66.500000000000014
 31
0.0
  0
LINE
  5
C0
  8
1
 62
     7
 10
-97.668000000000006
 20
66.500000000000014
 30
0.0
 11
-97.668000000000006
 21
50.61729314364247
 31
0.0
  0
LINE
  5
C1
  8
1
 62
     7
 10
-97.668000000000006
 20
65.500000000000014
 30
0.0
 11
-95.367999999999967
 21
65.500000000000014
 31
0.0
  0
LINE
  5
C2
  8
1
 62
     7
 10
-97.668000000000006
 20
55.5
 30
0.0
 11
-95.367999999999967
 21
55.5
 31
0.0
  0
LINE
  5
C3
  8
1
 62
     7
 10
-94.867999999999981
 20
65.000000000000014
 30
0.0
 11
-94.867999999999981
 21
56.000000000000007
 31
0.0
  0
LINE
  5
C4
  8
1
 62
     7
 10
-104.5679999999999
 20
-68.0
 30
0.0
 11
-104.5679999999999
 21
68.000000000000014
 31
0.0
  0
LINE
  5
C5
  8
1
 62
     7
 10
-98.668000000000006
 20
-68.0
 30
0.0
 11
-104.5679999999999
 21
-68.0
 31
0.0
  0
LINE
  5
C6
  8
1
 62
     7
 10
-97.867999999999995
 20
47.5
 30
0.0
 11
-97.867999999999867
 21
-66.536725737242591
 31
0.0
  0
LINE
  5
C7
  8
1
 62
     7
 10
-104.5679999999999
 20
68.000000000000014
 30
0.0
 11
-98.668000000000006
 21
68.000000000000014
 31
0.0
  0
LINE
  5
C8
  8
1
  6
DASHDOT
 62
     3
 10
-144.9679999999999
 20
0.0
 30
0.0
 11
-149.9679999999999
 21
0.0
 31
0.0
  0
LINE
  5
C9
  8
1
  6
DASHDOT
 62
     3
 10
-63.468000000000011
 20
0.0000000000000036
 30
0.0
 11
-68.468000000000004
 21
0.0000000000000036
 31
0.0
  0
LINE
  5
CA
  8
1
 62
     7
 10
197.56391811970531
 20
92.857070398309915
 30
0.0
 11
191.11612424964619
 21
69.185253752484329
 31
0.0
  0
LINE
  5
CB
  8
1
 62
     7
 10
169.16618182955099
 20
84.0
 30
0.0
 11
181.16618182955099
 21
84.0
 31
0.0
  0
LINE
  5
CC
  8
1
 62
     7
 10
198.1033100515846
 20
92.738279963285976
 30
0.0
 11
199.17324401795341
 21
96.287326931769357
 31
0.0
  0
LINE
  5
CD
  8
1
 62
     7
 10
198.75691566679421
 20
92.559225571905486
 30
0.0
 11
199.77660448827351
 21
96.186965636086214
 31
0.0
  0
LINE
  5
CE
  8
1
 62
     7
 10
199.39302432434079
 20
92.384964448869766
 30
0.0
 11
200.3799649585936
 21
96.086604340403156
 31
0.0
  0
LINE
  5
CF
  8
1
 62
     7
 10
202.71495840702929
 20
95.338327421394794
 30
0.0
 11
201.86702491803479
 21
91.729795604279559
 31
0.0
  0
LINE
  5
D0
  8
1
 62
     7
 10
202.14225226425111
 20
95.553092224936563
 30
0.0
 11
201.21145865551699
 21
91.901532760289726
 31
0.0
  0
LINE
  5
D1
  8
1
 62
     7
 10
201.569546121473
 20
95.76785702847836
 30
0.0
 11
200.57344183699641
 21
92.068672529622148
 31
0.0
  0
LINE
  5
D2
  8
1
 62
     7
 10
202.4007802199591
 20
91.589968979880425
 30
0.0
 11
195.94575338109161
 21
67.891158526971708
 31
0.0
  0
LINE
  5
D3
  8
1
 62
     7
 10
197.56391811970531
 20
92.857070398309915
 30
0.0
 11
202.4007802199591
 21
91.589968979880425
 31
0.0
  0
LINE
  5
D4
  8
1
 62
     7
 10
183.16618182955099
 20
70.547856097829069
 30
0.0
 11
183.16618182955099
 21
82.0
 31
0.0
  0
LINE
  5
D5
  8
1
 62
     7
 10
167.16618182955099
 20
70.547856097829069
 30
0.0
 11
167.16618182955099
 21
82.0
 31
0.0
  0
LINE
  5
D6
  8
1
  6
DASHDOT
 62
     3
 10
183.39092070630579
 20
0.0000000000000036
 30
0.0
 11
166.94144295279631
 21
0.0000000000000036
 31
0.0
  0
LINE
  5
D7
  8
1
  6
DASHDOT
 62
     3
 10
175.16618182955099
 20
8.2247388767547598
 30
0.0
 11
175.16618182955099
 21
-8.2247388767547491
 31
0.0
  0
LINE
  5
D8
  8
1
  6
DASHDOT
 62
     3
 10
178.97060296147231
 20
78.0
 30
0.0
 11
171.36176069762979
 21
78.0
 31
0.0
  0
LINE
  5
D9
  8
1
  6
DASHDOT
 62
     3
 10
175.16618182955099
 20
81.804421131921259
 30
0.0
 11
175.16618182955099
 21
74.195578868078769
 31
0.0
  0
LINE
  5
DA
  8
1
  6
DASHDOT
 62
     3
 10
-146.0906379069406
 20
78.0
 30
0.0
 11
-141.4848825112571
 21
78.0
 31
0.0
  0
LINE
  5
DB
  8
1
 62
     7
 10
29.175999999999799
 20
-67.499999999999901
 30
0.0
 11
29.175999999999799
 21
-27.387007831023109
 31
0.0
  0
LINE
  5
DC
  8
1
 62
     7
 10
10.4759999999999
 20
-35.499999999999879
 30
0.0
 11
10.4759999999999
 21
-19.999999999999989
 31
0.0
  0
LINE
  5
DD
  8
1
 62
     7
 10
-4.5240000000000986
 20
-19.999999999999989
 30
0.0
 11
10.4759999999999
 21
-19.999999999999989
 31
0.0
  0
LINE
  5
DE
  8
1
 62
     7
 10
35.275999999999797
 20
-52.5
 30
0.0
 11
34.575999999999809
 21
-52.5
 31
0.0
  0
LINE
  5
DF
  8
1
 62
     7
 10
34.575999999999809
 20
-42.499999999999993
 30
0.0
 11
35.275999999999797
 21
-42.499999999999993
 31
0.0
  0
LINE
  5
E0
  8
1
 62
     7
 10
34.575999999999809
 20
-42.249999999999993
 30
0.0
 11
34.075999999999802
 21
-42.249999999999993
 31
0.0
  0
LINE
  5
E1
  8
1
 62
     7
 10
34.075999999999802
 20
-42.249999999999993
 30
0.0
 11
34.075999999999802
 21
-52.749999999999993
 31
0.0
  0
LINE
  5
E2
  8
1
 62
     7
 10
34.075999999999802
 20
-52.749999999999993
 30
0.0
 11
34.575999999999809
 21
-52.749999999999993
 31
0.0
  0
LINE
  5
E3
  8
1
 62
     7
 10
34.575999999999809
 20
-52.749999999999993
 30
0.0
 11
34.575999999999809
 21
-42.249999999999993
 31
0.0
  0
LINE
  5
E4
  8
1
 62
     7
 10
30.375999999999792
 20
-44.499999999999993
 30
0.0
 11
30.375999999999792
 21
-50.499999999999993
 31
0.0
  0
LINE
  5
E5
  8
1
 62
     7
 10
48.975999999999793
 20
-44.499999999999993
 30
0.0
 11
49.575999999999809
 21
-45.09999999999998
 31
0.0
  0
LINE
  5
E6
  8
1
 62
     7
 10
49.575999999999809
 20
-45.09999999999998
 30
0.0
 11
49.575999999999809
 21
-49.899999999999991
 31
0.0
  0
LINE
  5
E7
  8
1
 62
     7
 10
49.575999999999809
 20
-49.899999999999991
 30
0.0
 11
48.975999999999793
 21
-50.499999999999993
 31
0.0
  0
LINE
  5
E8
  8
1
 62
     7
 10
48.975999999999793
 20
-50.499999999999993
 30
0.0
 11
35.275999999999883
 21
-50.499999999999993
 31
0.0
  0
LINE
  5
E9
  8
1
 62
     7
 10
48.975999999999793
 20
-44.499999999999993
 30
0.0
 11
48.975999999999793
 21
-50.499999999999993
 31
0.0
  0
LINE
  5
EA
  8
1
 62
     3
 10
49.575999999999809
 20
-45.09999999999998
 30
0.0
 11
36.115230484541101
 21
-45.09999999999998
 31
0.0
  0
LINE
  5
EB
  8
1
 62
     3
 10
36.115230484541101
 20
-45.09999999999998
 30
0.0
 11
35.275999999999797
 21
-44.615470053837932
 31
0.0
  0
LINE
  5
EC
  8
1
 62
     3
 10
49.575999999999809
 20
-49.899999999999991
 30
0.0
 11
36.115230484541101
 21
-49.899999999999991
 31
0.0
  0
LINE
  5
ED
  8
1
 62
     3
 10
36.115230484541101
 20
-49.899999999999991
 30
0.0
 11
35.275999999999797
 21
-50.384529946162033
 31
0.0
  0
LINE
  5
EE
  8
1
 62
     3
 10
36.115230484541101
 20
-44.499999999999993
 30
0.0
 11
36.115230484541101
 21
-50.499999999999993
 31
0.0
  0
LINE
  5
EF
  8
1
 62
     7
 10
35.275999999999883
 20
-44.499999999999993
 30
0.0
 11
48.975999999999793
 21
-44.499999999999993
 31
0.0
  0
LINE
  5
F0
  8
1
 62
     7
 10
10.4759999999999
 20
35.5
 30
0.0
 11
10.4759999999999
 21
20.000000000000011
 31
0.0
  0
LINE
  5
F1
  8
1
 62
     7
 10
10.4759999999999
 20
20.000000000000011
 30
0.0
 11
-4.5240000000000986
 21
20.000000000000011
 31
0.0
  0
LINE
  5
F2
  8
1
 62
     7
 10
-4.6220762113534022
 20
34.0
 30
0.0
 11
10.4759999999999
 21
34.0
 31
0.0
  0
LINE
  5
F3
  8
1
 62
     7
 10
-9.0240000000001004
 20
84.0
 30
0.0
 11
-9.0240000000001004
 21
33.5
 31
0.0
  0
LINE
  5
F4
  8
1
 62
     7
 10
29.175999999999799
 20
67.500000000000014
 30
0.0
 11
29.175999999999799
 21
27.387007831023109
 31
0.0
  0
LINE
  5
F5
  8
1
 62
     7
 10
-142.9679999999999
 20
84.0
 30
0.0
 11
-142.9679999999999
 21
-60.325876138829258
 31
0.0
  0
LINE
  5
F6
  8
1
 62
     7
 10
20.775999999999801
 20
67.850000000000023
 30
0.0
 11
20.775999999999801
 21
33.5
 31
0.0
  0
LINE
  5
F7
  8
1
 62
     7
 10
20.775999999999801
 20
-67.850000000000023
 30
0.0
 11
20.775999999999801
 21
-33.499999999999993
 31
0.0
  0
LINE
  5
F8
  8
1
 62
     7
 10
0.7635127119008019
 20
23.429999999999989
 30
0.0
 11
-4.5240000000000986
 21
23.429999999999989
 31
0.0
  0
LINE
  5
F9
  8
1
 62
     7
 10
5.1884872880989956
 20
23.429999999999989
 30
0.0
 11
10.4759999999999
 21
23.429999999999989
 31
0.0
  0
LINE
  5
FA
  8
1
 62
     7
 10
0.7635127119008019
 20
30.57
 30
0.0
 11
-4.5240000000000986
 21
30.57
 31
0.0
  0
LINE
  5
FB
  8
1
 62
     7
 10
5.1884872880989956
 20
30.57
 30
0.0
 11
10.4759999999999
 21
30.57
 31
0.0
  0
LINE
  5
FC
  8
1
 62
     7
 10
8.8259999999998957
 20
31.427500000000009
 30
0.0
 11
8.8259999999998957
 21
22.572500000000002
 31
0.0
  0
LINE
  5
FD
  8
1
 62
     7
 10
-2.874000000000108
 20
31.427500000000009
 30
0.0
 11
-2.874000000000108
 21
22.572500000000002
 31
0.0
  0
LINE
  5
FE
  8
1
 62
     7
 10
0.7635127119008019
 20
-23.429999999999989
 30
0.0
 11
-4.5240000000000986
 21
-23.429999999999989
 31
0.0
  0
LINE
  5
FF
  8
1
 62
     7
 10
5.1884872880989956
 20
-23.429999999999989
 30
0.0
 11
10.4759999999999
 21
-23.429999999999989
 31
0.0
  0
LINE
  5
100
  8
1
 62
     7
 10
0.7635127119008019
 20
-30.57
 30
0.0
 11
-4.5240000000000986
 21
-30.57
 31
0.0
  0
LINE
  5
101
  8
1
 62
     7
 10
5.1884872880989956
 20
-30.57
 30
0.0
 11
10.4759999999999
 21
-30.57
 31
0.0
  0
LINE
  5
102
  8
1
 62
     7
 10
8.8259999999998957
 20
-31.427499999999991
 30
0.0
 11
8.8259999999998957
 21
-22.572499999999991
 31
0.0
  0
LINE
  5
103
  8
1
 62
     7
 10
-2.874000000000108
 20
-31.427499999999991
 30
0.0
 11
-2.874000000000108
 21
-22.572499999999991
 31
0.0
  0
LINE
  5
104
  8
1
 62
     7
 10
33.575999999999809
 20
68.000000000000014
 30
0.0
 11
33.575999999999809
 21
27.387007831023102
 31
0.0
  0
LINE
  5
105
  8
1
 62
     7
 10
33.575999999999809
 20
-53.499999999999993
 30
0.0
 11
33.575999999999809
 21
-68.0
 31
0.0
  0
LINE
  5
106
  8
1
 62
     7
 10
36.075999999999887
 20
-37.499999999999993
 30
0.0
 11
35.275999999999797
 21
-37.499999999999993
 31
0.0
  0
LINE
  5
107
  8
1
 62
     7
 10
36.075999999999887
 20
-57.5
 30
0.0
 11
35.275999999999797
 21
-57.5
 31
0.0
  0
LINE
  5
108
  8
1
 62
     7
 10
36.075999999999887
 20
-50.499999999999993
 30
0.0
 11
36.075999999999887
 21
-66.536725737242591
 31
0.0
  0
LINE
  5
109
  8
1
 62
     7
 10
63.475999999999793
 20
36.0
 30
0.0
 11
50.975999999999793
 21
36.0
 31
0.0
  0
LINE
  5
10A
  8
1
 62
     7
 10
50.975999999999793
 20
36.0
 30
0.0
 11
50.975999999999793
 21
53.0
 31
0.0
  0
LINE
  5
10B
  8
1
 62
     7
 10
50.975999999999793
 20
53.0
 30
0.0
 11
39.975999999999793
 21
53.0
 31
0.0
  0
LINE
  5
10C
  8
1
 62
     7
 10
60.475999999999793
 20
31.0
 30
0.0
 11
36.475999999999793
 21
31.0
 31
0.0
  0
LINE
  5
10D
  8
1
 62
     7
 10
36.475999999999793
 20
31.0
 30
0.0
 11
36.475999999999793
 21
20.0
 31
0.0
  0
LINE
  5
10E
  8
1
 62
     7
 10
44.125999999999792
 20
28.357883832488639
 30
0.0
 11
52.825999999999787
 21
28.357883832488639
 31
0.0
  0
LINE
  5
10F
  8
1
 62
     7
 10
40.82599999999978
 20
28.357883832488639
 30
0.0
 11
36.475999999999793
 21
28.357883832488621
 31
0.0
  0
LINE
  5
110
  8
1
 62
     7
 10
40.82599999999978
 20
22.64211616751135
 30
0.0
 11
36.475999999999793
 21
22.642116167511379
 31
0.0
  0
LINE
  5
111
  8
1
 62
     7
 10
44.125999999999792
 20
22.64211616751135
 30
0.0
 11
52.825999999999787
 21
22.64211616751135
 31
0.0
  0
LINE
  5
112
  8
1
 62
     7
 10
37.675999999999789
 20
22.199999999999999
 30
0.0
 11
37.675999999999789
 21
28.800000000000001
 31
0.0
  0
LINE
  5
113
  8
1
 62
     7
 10
60.475999999999793
 20
20.0
 30
0.0
 11
60.475999999999793
 21
31.0
 31
0.0
  0
LINE
  5
114
  8
1
 62
     7
 10
60.475999999999793
 20
28.357883832488621
 30
0.0
 11
56.125999999999799
 21
28.357883832488639
 31
0.0
  0
LINE
  5
115
  8
1
 62
     7
 10
60.475999999999793
 20
22.642116167511379
 30
0.0
 11
56.125999999999799
 21
22.64211616751135
 31
0.0
  0
LINE
  5
116
  8
1
 62
     7
 10
59.27599999999979
 20
28.800000000000001
 30
0.0
 11
59.27599999999979
 21
22.199999999999999
 31
0.0
  0
LINE
  5
117
  8
1
 62
     7
 10
39.975999999999793
 20
53.0
 30
0.0
 11
39.975999999999793
 21
31.0
 31
0.0
  0
LINE
  5
118
  8
1
 62
     7
 10
29.375999999999792
 20
-27.387007831023102
 30
0.0
 11
29.375999999999792
 21
-68.0
 31
0.0
  0
LINE
  5
119
  8
1
 62
     7
 10
33.575999999999809
 20
-27.387007831023102
 30
0.0
 11
33.575999999999809
 21
-41.499999999999993
 31
0.0
  0
LINE
  5
11A
  8
1
 62
     7
 10
35.275999999999797
 20
-27.387007831023102
 30
0.0
 11
35.275999999999797
 21
-68.0
 31
0.0
  0
LINE
  5
11B
  8
1
 62
     7
 10
36.07599999999988
 20
-31.887007831023102
 30
0.0
 11
36.075999999999887
 21
-44.499999999999993
 31
0.0
  0
LINE
  5
11C
  8
1
 62
     7
 10
37.075999999999809
 20
-44.499999999999993
 30
0.0
 11
37.075999999999809
 21
-31.887007831023102
 31
0.0
  0
LINE
  5
11D
  8
1
 62
     7
 10
36.475999999999793
 20
-31.0
 30
0.0
 11
60.475999999999793
 21
-31.0
 31
0.0
  0
LINE
  5
11E
  8
1
 62
     7
 10
36.475999999999793
 20
-20.0
 30
0.0
 11
36.475999999999793
 21
-31.0
 31
0.0
  0
LINE
  5
11F
  8
1
 62
     7
 10
52.825999999999787
 20
-28.357883832488639
 30
0.0
 11
44.125999999999792
 21
-28.357883832488639
 31
0.0
  0
LINE
  5
120
  8
1
 62
     7
 10
36.475999999999793
 20
-28.357883832488621
 30
0.0
 11
40.82599999999978
 21
-28.357883832488639
 31
0.0
  0
LINE
  5
121
  8
1
 62
     7
 10
36.475999999999793
 20
-22.642116167511372
 30
0.0
 11
40.82599999999978
 21
-22.64211616751135
 31
0.0
  0
LINE
  5
122
  8
1
 62
     7
 10
52.825999999999787
 20
-22.64211616751135
 30
0.0
 11
44.125999999999792
 21
-22.64211616751135
 31
0.0
  0
LINE
  5
123
  8
1
 62
     7
 10
37.675999999999789
 20
-28.800000000000001
 30
0.0
 11
37.675999999999789
 21
-22.199999999999999
 31
0.0
  0
LINE
  5
124
  8
1
 62
     7
 10
60.475999999999793
 20
-31.0
 30
0.0
 11
60.475999999999793
 21
-20.0
 31
0.0
  0
LINE
  5
125
  8
1
 62
     7
 10
56.125999999999799
 20
-28.357883832488639
 30
0.0
 11
60.475999999999793
 21
-28.357883832488621
 31
0.0
  0
LINE
  5
126
  8
1
 62
     7
 10
56.125999999999799
 20
-22.64211616751135
 30
0.0
 11
60.475999999999793
 21
-22.642116167511372
 31
0.0
  0
LINE
  5
127
  8
1
 62
     7
 10
59.27599999999979
 20
-22.199999999999999
 30
0.0
 11
59.27599999999979
 21
-28.800000000000001
 31
0.0
  0
LINE
  5
128
  8
1
 62
     7
 10
63.475999999999793
 20
27.0
 30
0.0
 11
60.475999999999793
 21
27.0
 31
0.0
  0
LINE
  5
129
  8
1
 62
     7
 10
63.475999999999793
 20
-27.0
 30
0.0
 11
60.475999999999793
 21
-27.0
 31
0.0
  0
LINE
  5
12A
  8
1
 62
     7
 10
28.975999999999889
 20
23.5
 30
0.0
 11
36.475999999999793
 21
23.5
 31
0.0
  0
LINE
  5
12B
  8
1
 62
     7
 10
36.475999999999793
 20
-23.499999999999989
 30
0.0
 11
28.975999999999889
 21
-23.5
 31
0.0
  0
LINE
  5
12C
  8
1
 62
     7
 10
28.975999999999889
 20
-23.5
 30
0.0
 11
28.975999999999889
 21
-28.999999999999869
 31
0.0
  0
LINE
  5
12D
  8
1
 62
     7
 10
36.475999999999793
 20
20.0
 30
0.0
 11
62.325999999999787
 21
20.0
 31
0.0
  0
LINE
  5
12E
  8
1
 62
     7
 10
36.475999999999793
 20
-20.0
 30
0.0
 11
62.325999999999787
 21
-20.0
 31
0.0
  0
LINE
  5
12F
  8
1
 62
     7
 10
65.4759999999999
 20
20.0
 30
0.0
 11
65.4759999999999
 21
-20.0
 31
0.0
  0
LINE
  5
130
  8
1
 62
     7
 10
62.325999999999787
 20
19.0
 30
0.0
 11
62.325999999999787
 21
25.0
 31
0.0
  0
LINE
  5
131
  8
1
 62
     7
 10
62.325999999999787
 20
23.600000000000001
 30
0.0
 11
64.075999999999794
 21
23.600000000000001
 31
0.0
  0
LINE
  5
132
  8
1
 62
     7
 10
64.075999999999794
 20
23.600000000000001
 30
0.0
 11
64.075999999999794
 21
19.0
 31
0.0
  0
LINE
  5
133
  8
1
 62
     7
 10
64.075999999999794
 20
19.0
 30
0.0
 11
62.325999999999787
 21
19.0
 31
0.0
  0
LINE
  5
134
  8
1
 62
     7
 10
62.325999999999787
 20
-25.0
 30
0.0
 11
62.325999999999787
 21
-19.0
 31
0.0
  0
LINE
  5
135
  8
1
 62
     7
 10
64.075999999999794
 20
-23.600000000000001
 30
0.0
 11
62.325999999999787
 21
-23.600000000000001
 31
0.0
  0
LINE
  5
136
  8
1
 62
     7
 10
64.075999999999794
 20
-18.999999999999979
 30
0.0
 11
64.075999999999794
 21
-23.600000000000001
 31
0.0
  0
LINE
  5
137
  8
1
 62
     7
 10
62.325999999999787
 20
-19.0
 30
0.0
 11
64.075999999999794
 21
-18.999999999999979
 31
0.0
  0
LINE
  5
138
  8
1
 62
     7
 10
60.475999999999793
 20
25.0
 30
0.0
 11
62.325999999999787
 21
25.0
 31
0.0
  0
LINE
  5
139
  8
1
 62
     7
 10
62.325999999999787
 20
-25.0
 30
0.0
 11
60.475999999999793
 21
-25.0
 31
0.0
  0
LINE
  5
13A
  8
1
 62
     7
 10
63.475999999999793
 20
25.0
 30
0.0
 11
63.475999999999793
 21
36.0
 31
0.0
  0
LINE
  5
13B
  8
1
 62
     7
 10
64.075999999999794
 20
-20.0
 30
0.0
 11
65.4759999999999
 21
-20.0
 31
0.0
  0
LINE
  5
13C
  8
1
 62
     7
 10
64.075999999999794
 20
20.0
 30
0.0
 11
65.4759999999999
 21
20.0
 31
0.0
  0
LINE
  5
13D
  8
1
 62
     7
 10
3.6759999999999029
 20
91.615942611840921
 30
0.0
 11
3.6759999999999029
 21
67.350000000000023
 31
0.0
  0
LINE
  5
13E
  8
1
 62
     7
 10
1.2759999999998961
 20
91.615942611840921
 30
0.0
 11
3.6759999999999029
 21
91.615942611840921
 31
0.0
  0
LINE
  5
13F
  8
1
 62
     7
 10
1.2759999999998961
 20
91.615942611840921
 30
0.0
 11
1.2759999999998961
 21
67.350000000000023
 31
0.0
  0
LINE
  5
140
  8
1
 62
     7
 10
-130.9679999999999
 20
91.615942611840921
 30
0.0
 11
-130.9679999999999
 21
93.455119159366191
 31
0.0
  0
LINE
  5
141
  8
1
 62
     7
 10
-131.9679999999999
 20
93.455119159366191
 30
0.0
 11
-131.9679999999999
 21
91.615942611840921
 31
0.0
  0
LINE
  5
142
  8
1
 62
     7
 10
-131.4679999999999
 20
93.511749462084481
 30
0.0
 11
-131.4679999999999
 21
91.615942611840921
 31
0.0
  0
LINE
  5
143
  8
1
 62
     7
 10
-130.268
 20
91.615942611840921
 30
0.0
 11
-130.268
 21
67.350000000000023
 31
0.0
  0
LINE
  5
144
  8
1
 62
     7
 10
-132.66800000000001
 20
91.615942611840921
 30
0.0
 11
-130.268
 21
91.615942611840921
 31
0.0
  0
LINE
  5
145
  8
1
 62
     7
 10
-132.66800000000001
 20
91.615942611840921
 30
0.0
 11
-132.66800000000001
 21
67.350000000000023
 31
0.0
  0
LINE
  5
146
  8
1
 62
     7
 10
2.9759999999998992
 20
91.615942611840921
 30
0.0
 11
2.9759999999998992
 21
93.455119159366191
 31
0.0
  0
LINE
  5
147
  8
1
 62
     7
 10
1.9759999999998989
 20
93.455119159366191
 30
0.0
 11
1.9759999999998989
 21
91.615942611840921
 31
0.0
  0
LINE
  5
148
  8
1
 62
     7
 10
2.4759999999999001
 20
93.511749462084481
 30
0.0
 11
2.4759999999999001
 21
91.615942611840921
 31
0.0
  0
LINE
  5
149
  8
1
 62
     7
 10
-11.0240000000001
 20
33.5
 30
0.0
 11
-4.5240000000000986
 21
33.5
 31
0.0
  0
LINE
  5
14A
  8
1
 62
     7
 10
-11.0240000000001
 20
30.75
 30
0.0
 11
-4.5240000000000986
 21
30.75
 31
0.0
  0
LINE
  5
14B
  8
1
 62
     7
 10
-6.5240000000001004
 20
33.5
 30
0.0
 11
-6.5240000000001004
 21
30.75
 31
0.0
  0
LINE
  5
14C
  8
1
 62
     7
 10
13.4759999999999
 20
13.0
 30
0.0
 11
13.4759999999999
 21
-13.0
 31
0.0
  0
LINE
  5
14D
  8
1
 62
     7
 10
13.4759999999999
 20
-13.0
 30
0.0
 11
47.475999999999893
 21
-13.0
 31
0.0
  0
LINE
  5
14E
  8
1
 62
     7
 10
47.475999999999893
 20
-13.0
 30
0.0
 11
47.475999999999893
 21
13.0
 31
0.0
  0
LINE
  5
14F
  8
1
 62
     7
 10
47.475999999999893
 20
13.0
 30
0.0
 11
13.4759999999999
 21
13.0
 31
0.0
  0
LINE
  5
150
  8
1
 62
     7
 10
47.475999999999893
 20
12.5
 30
0.0
 11
65.4759999999999
 21
12.5
 31
0.0
  0
LINE
  5
151
  8
1
 62
     7
 10
47.475999999999893
 20
-12.5
 30
0.0
 11
65.4759999999999
 21
-12.5
 31
0.0
  0
ARC
  5
152
  8
1
  6
DASHDOT
 62
     3
 10
175.16618182955099
 20
0.0000000000000036
 30
0.0
 40
45.0
 50
322.33774433923401
 51
337.66225566076611
  0
ARC
  5
153
  8
1
  6
DASHDOT
 62
     3
 10
175.16618182955099
 20
0.0000000000000036
 30
0.0
 40
44.999999999999993
 50
202.33774433923401
 51
217.66225566076611
  0
ARC
  5
154
  8
1
  6
DASHDOT
 62
     3
 10
175.16618182955099
 20
0.0000000000000036
 30
0.0
 40
45.0
 50
82.33774433923395
 51
97.662255660766064
  0
ARC
  5
155
  8
1
 62
     7
 10
134.0299751497902
 20
23.75
 30
0.0
 40
6.4999999999999689
 50
115.76332827959619
 51
184.23667172040339
  0
ARC
  5
156
  8
1
 62
     7
 10
216.3023885093119
 20
23.749999999999961
 30
0.0
 40
6.5000000000000266
 50
355.7633282795984
 51
64.23667172040193
  0
ARC
  5
157
  8
1
 62
     7
 10
175.16618182955099
 20
-47.5
 30
0.0
 40
6.50000000000004
 50
235.76332827959661
 51
304.23667172040308
  0
ARC
  5
158
  8
1
 62
     7
 10
211.0291909608539
 20
-3.1376067389157392
 30
0.0
 40
17.999999999999979
 50
354.99999999999977
 51
18.445597884359209
  0
ARC
  5
159
  8
1
 62
     7
 10
154.51743012091339
 20
-29.489473594403702
 30
0.0
 40
17.999999999999979
 50
235.0
 51
258.44559788435993
  0
ARC
  5
15A
  8
1
 62
     7
 10
159.95192440688589
 20
32.627080333319391
 30
0.0
 40
17.999999999999961
 50
114.9999999999997
 51
138.44559788435919
  0
ARC
  5
15B
  8
1
 62
     7
 10
175.16618182955099
 20
0.0000000000000036
 30
0.0
 40
12.5
 50
108.6629248849424
 51
71.337075115057544
  0
ARC
  5
15C
  8
1
 62
     7
 10
-2.0240000000001079
 20
60.34999999999998
 30
0.0
 40
7.0000000000000133
 50
90.0
 51
180.0
  0
ARC
  5
15D
  8
1
 62
     7
 10
-135.9679999999999
 20
60.350000000000009
 30
0.0
 40
7.0
 50
180.0
 51
180.19745688095
  0
ARC
  5
15E
  8
1
 62
     7
 10
-135.9679999999999
 20
60.350000000000009
 30
0.0
 40
7.0
 50
90.0
 51
180.0
  0
ARC
  5
15F
  8
1
 62
     7
 10
169.16618182955099
 20
82.0
 30
0.0
 40
2.0
 50
90.0
 51
180.0
  0
ARC
  5
160
  8
1
 62
     7
 10
181.16618182955099
 20
82.0
 30
0.0
 40
2.0
 50
0.0
 51
90.0
  0
ARC
  5
161
  8
1
 62
     7
 10
212.16618182955099
 20
-0.0000000000000497
 30
0.0
 40
30.0
 50
359.99999999999977
 51
55.619787465564379
  0
ARC
  5
162
  8
1
 62
     7
 10
242.28315062284511
 20
38.749999999999957
 30
0.0
 40
19.21877381056326
 50
193.28329168614471
 51
226.71670831385529
  0
ARC
  5
163
  8
1
 62
     7
 10
175.16618182955099
 20
0.0000000000000036
 30
0.0
 40
53.999999999999972
 50
304.99999999999977
 51
354.99999999999977
  0
ARC
  5
164
  8
1
 62
     7
 10
175.16618182955099
 20
0.0000000000000036
 30
0.0
 40
66.999999999999986
 50
60.0
 51
119.9999999999999
  0
ARC
  5
165
  8
1
 62
     7
 10
193.66618182955099
 20
32.042939940024212
 30
0.0
 40
29.999999999999989
 50
4.3802125344356106
 51
60.0
  0
ARC
  5
166
  8
1
 62
     7
 10
190.38043925221629
 20
32.627080333319377
 30
0.0
 40
17.999999999999979
 50
41.554402115640968
 51
65.000000000000256
  0
ARC
  5
167
  8
1
 62
     7
 10
156.66618182955091
 20
-32.042939940024212
 30
0.0
 40
30.0
 50
239.99999999999989
 51
295.61978746556429
  0
ARC
  5
168
  8
1
 62
     7
 10
175.16618182955099
 20
0.0000000000000036
 30
0.0
 40
53.99999999999995
 50
185.0
 51
235.0
  0
ARC
  5
169
  8
1
 62
     7
 10
175.16618182955099
 20
0.0000000000000036
 30
0.0
 40
66.999999999999986
 50
300.00000000000011
 51
359.99999999999977
  0
ARC
  5
16A
  8
1
 62
     7
 10
175.16618182955099
 20
-77.5
 30
0.0
 40
19.218773810563199
 50
73.28329168614502
 51
106.7167083138557
  0
ARC
  5
16B
  8
1
 62
     7
 10
193.66618182955099
 20
-32.042939940024219
 30
0.0
 40
30.000000000000028
 50
244.38021253443549
 51
300.00000000000011
  0
ARC
  5
16C
  8
1
 62
     7
 10
195.81493353818871
 20
-29.489473594403702
 30
0.0
 40
18.0
 50
281.55440211564058
 51
304.99999999999977
  0
ARC
  5
16D
  8
1
 62
     7
 10
139.30317269824829
 20
-3.137606738915709
 30
0.0
 40
17.999999999999961
 50
161.55440211564101
 51
185.0
  0
ARC
  5
16E
  8
1
 62
     7
 10
138.16618182955099
 20
-0.0000000000000249
 30
0.0
 40
30.00000000000005
 50
124.3802125344358
 51
180.00000000000011
  0
ARC
  5
16F
  8
1
 62
     7
 10
108.049213036257
 20
38.75
 30
0.0
 40
19.218773810563189
 50
313.28329168614431
 51
346.71670831385518
  0
ARC
  5
170
  8
1
 62
     7
 10
175.16618182955099
 20
0.0000000000000036
 30
0.0
 40
67.0
 50
180.00000000000011
 51
239.99999999999989
  0
ARC
  5
171
  8
1
 62
     7
 10
175.16618182955099
 20
0.0000000000000036
 30
0.0
 40
53.99999999999995
 50
65.000000000000071
 51
115.0
  0
ARC
  5
172
  8
1
 62
     7
 10
156.66618182955099
 20
32.04293994002424
 30
0.0
 40
30.000000000000011
 50
119.9999999999999
 51
175.6197874655644
  0
ARC
  5
173
  8
1
 62
     7
 10
-2.024041568743399
 20
-60.349999999999987
 30
0.0
 40
6.999999999999968
 50
179.80254311904881
 51
270.0
  0
ARC
  5
174
  8
1
 62
     7
 10
34.909364714403701
 20
-47.787644197019731
 30
0.0
 40
5.5999999999999881
 50
98.558267717352621
 51
144.04997927382951
  0
ARC
  5
175
  8
1
 62
     7
 10
34.909364714403701
 20
-47.212355802980262
 30
0.0
 40
5.6000000000000014
 50
215.95002072617029
 51
261.44173228264742
  0
ARC
  5
176
  8
1
 62
     7
 10
-135.9679999999999
 20
-60.35000000000003
 30
0.0
 40
6.9999999999999822
 50
179.80254311904889
 51
270.0
  0
ARC
  5
177
  8
1
 62
     7
 10
-2.0240000000000991
 20
-40.499999999999993
 30
0.0
 40
6.9999999999999956
 50
111.7867892982617
 51
180.0
  0
ARC
  5
178
  8
1
 62
     7
 10
-2.0240000000000991
 20
40.499999999999993
 30
0.0
 40
7.0
 50
180.0
 51
248.21321070173821
  0
CIRCLE
  5
179
  8
1
 62
     7
 10
175.16618182955099
 20
0.0000000000000036
 30
0.0
 40
20.0
  0
CIRCLE
  5
17A
  8
1
 62
     3
 10
214.13732499985079
 20
-22.5
 30
0.0
 40
3.0000000000000031
  0
CIRCLE
  5
17B
  8
1
 62
     7
 10
214.13732499985079
 20
-22.5
 30
0.0
 40
2.399999999999967
  0
CIRCLE
  5
17C
  8
1
 62
     3
 10
136.19503865925131
 20
-22.5
 30
0.0
 40
3.0000000000000031
  0
CIRCLE
  5
17D
  8
1
 62
     7
 10
136.19503865925131
 20
-22.5
 30
0.0
 40
2.3999999999999839
  0
CIRCLE
  5
17E
  8
1
 62
     3
 10
175.16618182955099
 20
45.0
 30
0.0
 40
3.0
  0
CIRCLE
  5
17F
  8
1
 62
     7
 10
175.16618182955099
 20
45.0
 30
0.0
 40
2.4000000000000061
  0
CIRCLE
  5
180
  8
1
 62
     7
 10
175.16618182955099
 20
0.0000000000000036
 30
0.0
 40
27.0
  0
CIRCLE
  5
181
  8
1
 62
     7
 10
175.16618182955099
 20
0.0000000000000036
 30
0.0
 40
36.0
  0
CIRCLE
  5
182
  8
1
 62
     7
 10
175.16618182955099
 20
0.0000000000000036
 30
0.0
 40
53.0
  0
CIRCLE
  5
183
  8
1
 62
     7
 10
175.16618182955099
 20
78.0
 30
0.0
 40
3.25
  0
CIRCLE
  5
184
  8
1
 62
     7
 10
175.16618182955099
 20
0.0000000000000036
 30
0.0
 40
68.0
  0
CIRCLE
  5
185
  8
1
 62
     7
 10
216.3023885093119
 20
23.749999999999961
 30
0.0
 40
2.5
  0
CIRCLE
  5
186
  8
1
 62
     7
 10
175.16618182955099
 20
-47.5
 30
0.0
 40
2.5
  0
CIRCLE
  5
187
  8
1
 62
     7
 10
216.3023885093119
 20
23.749999999999961
 30
0.0
 40
3.0
  0
CIRCLE
  5
188
  8
1
 62
     7
 10
175.16618182955099
 20
-47.5
 30
0.0
 40
3.0
  0
CIRCLE
  5
189
  8
1
 62
     7
 10
227.56071875850961
 20
-30.25000000000005
 30
0.0
 40
5.0
  0
CIRCLE
  5
18A
  8
1
 62
     7
 10
122.77164490059251
 20
-30.249999999999989
 30
0.0
 40
5.0
  0
CIRCLE
  5
18B
  8
1
 62
     7
 10
134.0299751497902
 20
23.75
 30
0.0
 40
2.5
  0
CIRCLE
  5
18C
  8
1
 62
     7
 10
134.0299751497902
 20
23.75
 30
0.0
 40
3.0
  0
CIRCLE
  5
18D
  8
1
 62
     7
 10
175.16618182955099
 20
60.5
 30
0.0
 40
5.0
  0
CIRCLE
  5
18E
  8
1
 62
     7
 10
175.16618182955099
 20
0.0000000000000036
 30
0.0
 40
70.999999999999901
  0
CIRCLE
  5
18F
  8
1
 62
     7
 10
2.9759999999998992
 20
27.0
 30
0.0
 40
4.200000000000002
  0
CIRCLE
  5
190
  8
1
 62
     7
 10
2.9759999999998992
 20
-27.0
 30
0.0
 40
4.200000000000002
  0
CIRCLE
  5
191
  8
1
 62
     7
 10
42.475999999999793
 20
25.5
 30
0.0
 40
3.2999999999999972
  0
CIRCLE
  5
192
  8
1
 62
     7
 10
54.4759999999998
 20
25.5
 30
0.0
 40
3.2999999999999901
  0
CIRCLE
  5
193
  8
1
 62
     7
 10
42.475999999999793
 20
-25.5
 30
0.0
 40
3.2999999999999972
  0
CIRCLE
  5
194
  8
1
 62
     7
 10
54.4759999999998
 20
-25.5
 30
0.0
 40
3.2999999999999901
  0
TEXT
  5
195
  8
1
 62
     7
 10
-150.46300773467951
 20
145.02888272879909
 30
0.0
 40
5.0
  1
VCSH 5P
 41
0.9
  7
SIMPLEX
  0
ENDSEC
  0
EOF
