  0
SECTION
  2
HEADER
  9
$ACADVER
  1
AC1009
  9
$INSBASE
 10
0.0
 20
0.0
 30
0.0
  9
$EXTMIN
 10
-177.1008265304674
 20
-984.64334840055994
 30
0.0
  9
$EXTMAX
 10
404.06148579448637
 20
-759.64235414200255
 30
0.0
  9
$LIMMIN
 10
-177.1008265304672
 20
-984.64334840055994
  9
$LIMMAX
 10
400.28778374092889
 20
-759.64235414200255
  9
$ORTHOMODE
 70
     0
  9
$REGENMODE
 70
     1
  9
$FILLMODE
 70
     1
  9
$QTEXTMODE
 70
     0
  9
$MIRRTEXT
 70
     1
  9
$DRAGMODE
 70
     2
  9
$LTSCALE
 40
1.0
  9
$OSMODE
 70
    37
  9
$ATTMODE
 70
     1
  9
$TEXTSIZE
 40
3.5
  9
$TRACEWID
 40
0.5
  9
$TEXTSTYLE
  7
STANDARD
  9
$CLAYER
  8
0
  9
$CELTYPE
  6
BYLAYER
  9
$CECOLOR
 62
   256
  9
$DIMSCALE
 40
1.0
  9
$DIMASZ
 40
0.18
  9
$DIMEXO
 40
0.0625
  9
$DIMDLI
 40
0.38
  9
$DIMRND
 40
0.0
  9
$DIMDLE
 40
0.0
  9
$DIMEXE
 40
0.18
  9
$DIMTP
 40
0.0
  9
$DIMTM
 40
0.0
  9
$DIMTXT
 40
0.18
  9
$DIMCEN
 40
0.09
  9
$DIMTSZ
 40
0.0
  9
$DIMTOL
 70
     0
  9
$DIMLIM
 70
     0
  9
$DIMTIH
 70
     1
  9
$DIMTOH
 70
     1
  9
$DIMSE1
 70
     0
  9
$DIMSE2
 70
     0
  9
$DIMTAD
 70
     0
  9
$DIMZIN
 70
     0
  9
$DIMBLK
  1

  9
$DIMASO
 70
     1
  9
$DIMSHO
 70
     1
  9
$DIMPOST
  1

  9
$DIMAPOST
  1

  9
$DIMALT
 70
     0
  9
$DIMALTD
 70
     2
  9
$DIMALTF
 40
25.399999999999999
  9
$DIMLFAC
 40
1.0
  9
$DIMTOFL
 70
     0
  9
$DIMTVP
 40
0.0
  9
$DIMTIX
 70
     0
  9
$DIMSOXD
 70
     0
  9
$DIMSAH
 70
     0
  9
$DIMBLK1
  1

  9
$DIMBLK2
  1

  9
$DIMSTYLE
  2
STANDARD
  9
$DIMCLRD
 70
     0
  9
$DIMCLRE
 70
     0
  9
$DIMCLRT
 70
     0
  9
$DIMTFAC
 40
1.0
  9
$DIMGAP
 40
0.09
  9
$LUNITS
 70
     2
  9
$LUPREC
 70
     4
  9
$SKETCHINC
 40
0.1
  9
$FILLETRAD
 40
2.0
  9
$AUNITS
 70
     0
  9
$AUPREC
 70
     0
  9
$MENU
  1
ACAD
  9
$ELEVATION
 40
0.0
  9
$PELEVATION
 40
0.0
  9
$THICKNESS
 40
0.0
  9
$LIMCHECK
 70
     0
  9
$BLIPMODE
 70
     0
  9
$CHAMFERA
 40
0.0
  9
$CHAMFERB
 40
0.0
  9
$SKPOLY
 70
     0
  9
$TDCREATE
 40
2452095.384082986
  9
$TDUPDATE
 40
2452095.3846144672
  9
$TDINDWG
 40
0.0005429398
  9
$TDUSRTIMER
 40
0.0005429398
  9
$USRTIMER
 70
     1
  9
$ANGBASE
 50
0.0
  9
$ANGDIR
 70
     0
  9
$PDMODE
 70
     0
  9
$PDSIZE
 40
0.0
  9
$PLINEWID
 40
0.0
  9
$COORDS
 70
     1
  9
$SPLFRAME
 70
     0
  9
$SPLINETYPE
 70
     6
  9
$SPLINESEGS
 70
     8
  9
$ATTDIA
 70
     0
  9
$ATTREQ
 70
     1
  9
$HANDLING
 70
 10241
  9
$HANDSEED
  5
1AF
  9
$SURFTAB1
 70
     6
  9
$SURFTAB2
 70
     6
  9
$SURFTYPE
 70
     6
  9
$SURFU
 70
     6
  9
$SURFV
 70
     6
  9
$UCSNAME
  2

  9
$UCSORG
 10
0.0
 20
0.0
 30
0.0
  9
$UCSXDIR
 10
1.0
 20
0.0
 30
0.0
  9
$UCSYDIR
 10
0.0
 20
1.0
 30
0.0
  9
$PUCSNAME
  2

  9
$PUCSORG
 10
0.0
 20
0.0
 30
0.0
  9
$PUCSXDIR
 10
1.0
 20
0.0
 30
0.0
  9
$PUCSYDIR
 10
0.0
 20
1.0
 30
0.0
  9
$USERI1
 70
     0
  9
$USERI2
 70
     0
  9
$USERI3
 70
     0
  9
$USERI4
 70
     0
  9
$USERI5
 70
     0
  9
$USERR1
 40
0.0
  9
$USERR2
 40
0.0
  9
$USERR3
 40
0.0
  9
$USERR4
 40
0.0
  9
$USERR5
 40
0.0
  9
$WORLDVIEW
 70
     1
  9
$SHADEDGE
 70
     3
  9
$SHADEDIF
 70
    70
  9
$TILEMODE
 70
     1
  9
$MAXACTVP
 70
    64
  9
$PLIMCHECK
 70
     0
  9
$PEXTMIN
 10
1.0000000000000000E+020
 20
1.0000000000000000E+020
 30
1.0000000000000000E+020
  9
$PEXTMAX
 10
-1.0000000000000000E+020
 20
-1.0000000000000000E+020
 30
-1.0000000000000000E+020
  9
$PLIMMIN
 10
0.0
 20
0.0
  9
$PLIMMAX
 10
12.0
 20
9.0
  9
$UNITMODE
 70
     0
  9
$VISRETAIN
 70
     1
  9
$PLINEGEN
 70
     0
  9
$PSLTSCALE
 70
     1
  0
ENDSEC
  0
SECTION
  2
TABLES
  0
TABLE
  2
VPORT
 70
     2
  0
VPORT
  2
*ACTIVE
 70
     0
 10
0.0
 20
0.0
 11
1.0
 21
1.0
 12
-96.486846355421676
 22
-777.51022714168596
 13
0.0
 23
0.0
 14
1.0
 24
1.0
 15
0.0
 25
0.0
 16
0.0
 26
0.0
 36
1.0
 17
0.0
 27
0.0
 37
0.0
 40
8.9999995285284058
 41
2.4144144144144142
 42
50.0
 43
0.0
 44
0.0
 50
0.0
 51
0.0
 71
     0
 72
   100
 73
     1
 74
     1
 75
     0
 76
     0
 77
     0
 78
     0
  0
ENDTAB
  0
TABLE
  2
LTYPE
 70
     9
  0
LTYPE
  2
CONTINUOUS
 70
     0
  3
Solid line
 72
    65
 73
     0
 40
0.0
  0
LTYPE
  2
BORDER
 70
     0
  3
__ __ . __ __ .
 72
    65
 73
     6
 40
26.590264946709031
 49
7.5972185562025798
 49
-3.798609278101289
 49
7.5972185562025798
 49
-3.798609278101289
 49
0.0
 49
-3.798609278101289
  0
LTYPE
  2
CENTER
 70
     0
  3
____ _ ____ _
 72
    65
 73
     4
 40
30.388874224810319
 49
18.99304639050645
 49
-3.798609278101289
 49
3.798609278101289
 49
-3.798609278101289
  0
LTYPE
  2
DASHDOT
 70
     0
  3
__ . __ . __ .
 72
    65
 73
     4
 40
15.19443711240516
 49
7.5972185562025798
 49
-3.798609278101289
 49
0.0
 49
-3.798609278101289
  0
LTYPE
  2
DASHED
 70
     0
  3
__ __ __ __ __
 72
    65
 73
     2
 40
11.395827834303869
 49
7.5972185562025798
 49
-3.798609278101289
  0
LTYPE
  2
DIVIDE
 70
     0
  3
__ . . __ . . 
 72
    65
 73
     6
 40
18.99304639050645
 49
7.5972185562025798
 49
-3.798609278101289
 49
0.0
 49
-3.798609278101289
 49
0.0
 49
-3.798609278101289
  0
LTYPE
  2
DOT
 70
     0
  3
..............
 72
    65
 73
     4
 40
7.5972185562025798
 49
0.0
 49
-3.798609278101289
 49
0.0
 49
-3.798609278101289
  0
LTYPE
  2
HIDDEN
 70
     0
  3
_ _ _ _ _ _ _
 72
    65
 73
     2
 40
5.6979139171519364
 49
3.798609278101289
 49
-1.8993046390506441
  0
LTYPE
  2
PHANTOM
 70
     0
  3
_____ _ _ _____ _ _ 
 72
    65
 73
     6
 40
37.9860927810129
 49
18.99304639050645
 49
-3.798609278101289
 49
3.798609278101289
 49
-3.798609278101289
 49
3.798609278101289
 49
-3.798609278101289
  0
ENDTAB
  0
TABLE
  2
LAYER
 70
     2
  0
LAYER
  2
0
 70
     0
 62
     7
  6
CONTINUOUS
  0
LAYER
  2
1
 70
     0
 62
     7
  6
CONTINUOUS
  0
ENDTAB
  0
TABLE
  2
STYLE
 70
     4
  0
STYLE
  2
STANDARD
 70
     0
 40
0.0
 41
1.0
 50
0.0
 71
     0
 42
3.5
  3
txt
  4

  0
STYLE
  2
SIMPLEX
 70
     0
 40
0.0
 41
1.0
 50
0.0
 71
     0
 42
3.5
  3
simplex
  4

  0
STYLE
  2
COMPLEX
 70
     0
 40
0.0
 41
1.0
 50
0.0
 71
     0
 42
3.5
  3
complex
  4

  0
STYLE
  2
ITALIC
 70
     0
 40
0.0
 41
1.0
 50
0.0
 71
     0
 42
3.5
  3
italic
  4

  0
ENDTAB
  0
TABLE
  2
VIEW
 70
     0
  0
ENDTAB
  0
TABLE
  2
UCS
 70
     0
  0
ENDTAB
  0
TABLE
  2
APPID
 70
     1
  0
APPID
  2
ACAD
 70
     0
  0
ENDTAB
  0
TABLE
  2
DIMSTYLE
 70
     1
  0
DIMSTYLE
  2
STANDARD
 70
     0
  3

  4

  5

  6

  7

 40
1.0
 41
0.18
 42
0.0625
 43
0.38
 44
0.18
 45
0.0
 46
0.0
 47
0.0
 48
0.0
140
0.18
141
0.09
142
0.0
143
25.399999999999999
144
1.0
145
0.0
146
1.0
147
0.09
 71
     0
 72
     0
 73
     1
 74
     1
 75
     0
 76
     0
 77
     0
 78
     0
170
     0
171
     2
172
     0
173
     0
174
     0
175
     0
176
     0
177
     0
178
     0
  0
ENDTAB
  0
ENDSEC
  0
SECTION
  2
BLOCKS
  0
BLOCK
  8
0
  2
$MODEL_SPACE
 70
     0
 10
0.0
 20
0.0
 30
0.0
  3
$MODEL_SPACE
  1

  0
ENDBLK
  5
20
  8
0
  0
BLOCK
 67
     1
  8
0
  2
$PAPER_SPACE
 70
     0
 10
0.0
 20
0.0
 30
0.0
  3
$PAPER_SPACE
  1

  0
ENDBLK
  5
1C
 67
     1
  8
0
  0
ENDSEC
  0
SECTION
  2
ENTITIES
  0
LINE
  5
33
  8
1
 62
     7
 10
67.221601911377874
 20
-876.14334840055983
 30
0.0
 11
66.221601911377874
 21
-876.14334840055983
 31
0.0
  0
LINE
  5
34
  8
1
 62
     7
 10
149.59760191137781
 20
-926.14334840055994
 30
0.0
 11
206.09760191137781
 21
-926.14334840055994
 31
0.0
  0
LINE
  5
35
  8
1
 62
     7
 10
194.2976019113778
 20
-968.14334840055994
 30
0.0
 11
194.2976019113778
 21
-932.64334840055994
 31
0.0
  0
LINE
  5
36
  8
1
 62
     7
 10
145.09760191137781
 20
-882.89334840055994
 30
0.0
 11
145.09760191137781
 21
-973.96922453938907
 31
0.0
  0
LINE
  5
37
  8
1
 62
     7
 10
-110.1008265304674
 20
-901.80062911823268
 30
0.0
 11
-110.1008265304674
 21
-897.84334840055999
 31
0.0
  0
LINE
  5
38
  8
1
 62
     7
 10
-102.1008265304674
 20
-901.80062911823268
 30
0.0
 11
-102.1008265304674
 21
-897.84334840055999
 31
0.0
  0
LINE
  5
39
  8
1
 62
     7
 10
143.09760191137781
 20
-829.64334840055983
 30
0.0
 11
143.09760191137781
 21
-966.14334840055983
 31
0.0
  0
LINE
  5
3A
  8
1
 62
     7
 10
176.89760191137759
 20
-947.14334840055994
 30
0.0
 11
176.89760191137759
 21
-981.49334840055985
 31
0.0
  0
LINE
  5
3B
  8
1
 62
     7
 10
166.7976019113776
 20
-947.14334840055994
 30
0.0
 11
166.7976019113776
 21
-939.14334840055972
 31
0.0
  0
LINE
  5
3C
  8
1
 62
     7
 10
166.7976019113776
 20
-981.49334840055985
 30
0.0
 11
166.7976019113776
 21
-984.64334840055972
 31
0.0
  0
LINE
  5
3D
  8
1
 62
     7
 10
176.89760191137759
 20
-880.14334840055972
 30
0.0
 11
176.89760191137759
 21
-845.79334840055981
 31
0.0
  0
LINE
  5
3E
  8
1
 62
     7
 10
-130.81892780577971
 20
-821.39413857446152
 30
0.0
 11
-123.5554848487289
 21
-848.5944636830435
 31
0.0
  0
LINE
  5
3F
  8
1
 62
     7
 10
-98.100826530467415
 20
-855.29720360383544
 30
0.0
 11
-98.100826530467415
 21
-831.64334840055983
 31
0.0
  0
LINE
  5
40
  8
1
 62
     7
 10
-112.1008265304674
 20
-829.64334840055983
 30
0.0
 11
-100.1008265304674
 21
-829.64334840055983
 31
0.0
  0
LINE
  5
41
  8
1
 62
     7
 10
-114.1008265304674
 20
-831.64334840055983
 30
0.0
 11
-114.1008265304674
 21
-855.29720360383544
 31
0.0
  0
LINE
  5
42
  8
1
  6
DASHDOT
 62
     3
 10
-102.2964053985462
 20
-835.64334840055994
 30
0.0
 11
-109.9052476623887
 21
-835.64334840055994
 31
0.0
  0
LINE
  5
43
  8
1
  6
DASHDOT
 62
     3
 10
-106.1008265304674
 20
-831.83892726863871
 30
0.0
 11
-106.1008265304674
 21
-839.44776953248129
 31
0.0
  0
LINE
  5
44
  8
1
 62
     7
 10
-121.09073637985129
 20
-847.98266684220766
 30
0.0
 11
-128.49856282062149
 21
-820.78627800225001
 31
0.0
  0
LINE
  5
45
  8
1
 62
     7
 10
-130.1078887188699
 20
-817.35602146879057
 30
0.0
 11
-129.03795475250081
 21
-820.90506843727371
 31
0.0
  0
LINE
  5
46
  8
1
 62
     7
 10
-130.71124918918991
 20
-817.45638276447369
 30
0.0
 11
-129.69156036771051
 21
-821.08412282865447
 31
0.0
  0
LINE
  5
47
  8
1
 62
     7
 10
-131.31460965951001
 20
-817.55674406015657
 30
0.0
 11
-130.32766902525711
 21
-821.25838395169001
 31
0.0
  0
LINE
  5
48
  8
1
 62
     7
 10
-132.80166961895131
 20
-821.91355279628021
 30
0.0
 11
-133.64960310794541
 21
-818.30502097916519
 31
0.0
  0
LINE
  5
49
  8
1
 62
     7
 10
-132.14610335643329
 20
-821.74181564027015
 30
0.0
 11
-133.07689696516741
 21
-818.09025617562315
 31
0.0
  0
LINE
  5
4A
  8
1
 62
     7
 10
-131.5080865379129
 20
-821.57467587093765
 30
0.0
 11
-132.50419082238949
 21
-817.87549137208146
 31
0.0
  0
LINE
  5
4B
  8
1
 62
     7
 10
-125.9203655112965
 20
-849.27676206772003
 30
0.0
 11
-133.3354249208756
 21
-822.05337942067945
 31
0.0
  0
LINE
  5
4C
  8
1
 62
     7
 10
-133.3354249208756
 20
-822.05337942067945
 30
0.0
 11
-128.49856282062149
 21
-820.78627800225001
 31
0.0
  0
LINE
  5
4D
  8
1
 62
     7
 10
-110.1008265304674
 20
-897.84334840055999
 30
0.0
 11
-102.1008265304674
 21
-897.84334840055999
 31
0.0
  0
LINE
  5
4E
  8
1
  6
DASHDOT
 62
     3
 10
-97.876087653712688
 20
-913.64334840055994
 30
0.0
 11
-114.3255654072222
 21
-913.64334840055994
 31
0.0
  0
LINE
  5
4F
  8
1
  6
DASHDOT
 62
     3
 10
-106.1008265304674
 20
-921.86808727731466
 30
0.0
 11
-106.1008265304674
 21
-905.41860952380512
 31
0.0
  0
LINE
  5
50
  8
1
  6
DASHDOT
 62
     3
 10
-102.2964053985462
 20
-835.64334840055994
 30
0.0
 11
-109.9052476623887
 21
-835.64334840055994
 31
0.0
  0
LINE
  5
51
  8
1
  6
DASHDOT
 62
     3
 10
-106.1008265304674
 20
-839.44776953248129
 30
0.0
 11
-106.1008265304674
 21
-831.83892726863871
 31
0.0
  0
LINE
  5
52
  8
1
 62
     7
 10
157.7976019113778
 20
-822.02740578871908
 30
0.0
 11
157.7976019113778
 21
-846.29334840055969
 31
0.0
  0
LINE
  5
53
  8
1
 62
     7
 10
155.39760191137779
 20
-822.02740578871908
 30
0.0
 11
157.7976019113778
 21
-822.02740578871908
 31
0.0
  0
LINE
  5
54
  8
1
 62
     7
 10
155.39760191137779
 20
-822.02740578871908
 30
0.0
 11
155.39760191137779
 21
-846.29334840055969
 31
0.0
  0
LINE
  5
55
  8
1
 62
     7
 10
149.59760191137781
 20
-901.14334840055994
 30
0.0
 11
206.09760191137781
 21
-901.14334840055994
 31
0.0
  0
LINE
  5
56
  8
1
 62
     7
 10
149.59760191137781
 20
-897.84334840055999
 30
0.0
 11
183.09760191137781
 21
-897.84334840055999
 31
0.0
  0
LINE
  5
57
  8
1
 62
     7
 10
143.09760191137781
 20
-838.89334840055983
 30
0.0
 11
145.09760191137781
 21
-838.89334840055983
 31
0.0
  0
LINE
  5
58
  8
1
  6
DASHDOT
 62
     3
 10
141.97496400443711
 20
-835.64334840055994
 30
0.0
 11
146.58071940012061
 21
-835.64334840055994
 31
0.0
  0
LINE
  5
59
  8
1
 62
     7
 10
143.09760191137781
 20
-832.39334840055983
 30
0.0
 11
145.09760191137781
 21
-832.39334840055983
 31
0.0
  0
LINE
  5
5A
  8
1
 62
     7
 10
143.09760191137781
 20
-829.64334840055983
 30
0.0
 11
145.09760191137781
 21
-829.64334840055983
 31
0.0
  0
LINE
  5
5B
  8
1
 62
     7
 10
143.09760191137781
 20
-944.39334840055994
 30
0.0
 11
145.09760191137781
 21
-944.39334840055994
 31
0.0
  0
LINE
  5
5C
  8
1
 62
     7
 10
143.09760191137781
 20
-966.14334840055983
 30
0.0
 11
145.09760191137781
 21
-966.14334840055983
 31
0.0
  0
LINE
  5
5D
  8
1
 62
     7
 10
173.89760191137779
 20
-980.99334840055985
 30
0.0
 11
152.09760191137781
 21
-980.99334840055985
 31
0.0
  0
LINE
  5
5E
  8
1
 62
     7
 10
173.89760191137779
 20
-947.64334840055994
 30
0.0
 11
173.89760191137779
 21
-980.99334840055985
 31
0.0
  0
LINE
  5
5F
  8
1
 62
     7
 10
149.49952570002449
 20
-947.64334840055994
 30
0.0
 11
164.59760191137781
 21
-947.64334840055994
 31
0.0
  0
LINE
  5
60
  8
1
 62
     7
 10
173.89760191137779
 20
-947.64334840055994
 30
0.0
 11
166.1976019113778
 21
-947.64334840055994
 31
0.0
  0
LINE
  5
61
  8
1
 62
     7
 10
166.1976019113778
 20
-879.64334840055983
 30
0.0
 11
173.89760191137779
 21
-879.64334840055983
 31
0.0
  0
LINE
  5
62
  8
1
 62
     7
 10
173.89760191137779
 20
-846.29334840055969
 30
0.0
 11
173.89760191137779
 21
-879.64334840055983
 31
0.0
  0
LINE
  5
63
  8
1
 62
     7
 10
152.09760191137781
 20
-846.29334840055969
 30
0.0
 11
173.89760191137779
 21
-846.29334840055969
 31
0.0
  0
LINE
  5
64
  8
1
 62
     7
 10
164.59760191137781
 20
-888.14334840055972
 30
0.0
 11
166.7976019113776
 21
-888.14334840055972
 31
0.0
  0
LINE
  5
65
  8
1
 62
     7
 10
166.7976019113776
 20
-888.14334840055972
 30
0.0
 11
166.7976019113776
 21
-880.14334840055972
 31
0.0
  0
LINE
  5
66
  8
1
 62
     7
 10
166.7976019113776
 20
-880.14334840055972
 30
0.0
 11
176.89760191137759
 21
-880.14334840055972
 31
0.0
  0
LINE
  5
67
  8
1
 62
     7
 10
176.89760191137759
 20
-845.79334840055981
 30
0.0
 11
166.7976019113776
 21
-845.79334840055981
 31
0.0
  0
LINE
  5
68
  8
1
 62
     7
 10
179.77687596921399
 20
-842.64334840055972
 30
0.0
 11
181.7976019113776
 21
-846.14334840055972
 31
0.0
  0
LINE
  5
69
  8
1
 62
     7
 10
181.7976019113776
 20
-846.14334840055972
 30
0.0
 11
183.2976019113776
 21
-846.14334840055972
 31
0.0
  0
LINE
  5
6A
  8
1
 62
     7
 10
181.2976019113776
 20
-880.14334840055972
 30
0.0
 11
183.2976019113776
 21
-880.14334840055972
 31
0.0
  0
LINE
  5
6B
  8
1
 62
     7
 10
181.2976019113776
 20
-880.14334840055972
 30
0.0
 11
181.2976019113776
 21
-884.64334840055994
 31
0.0
  0
LINE
  5
6C
  8
1
 62
     7
 10
166.7976019113776
 20
-842.64334840055972
 30
0.0
 11
166.7976019113776
 21
-845.79334840055981
 31
0.0
  0
LINE
  5
6D
  8
1
 62
     7
 10
166.7976019113776
 20
-842.64334840055972
 30
0.0
 11
179.77687596921399
 21
-842.64334840055972
 31
0.0
  0
LINE
  5
6E
  8
1
 62
     7
 10
164.59760191137781
 20
-884.14334840055983
 30
0.0
 11
166.1976019113778
 21
-884.14334840055983
 31
0.0
  0
LINE
  5
6F
  8
1
 62
     7
 10
166.1976019113778
 20
-878.14334840055983
 30
0.0
 11
166.1976019113778
 21
-885.39734840056008
 31
0.0
  0
LINE
  5
70
  8
1
 62
     7
 10
166.1976019113778
 20
-878.14334840055983
 30
0.0
 11
164.59760191137781
 21
-878.14334840055983
 31
0.0
  0
LINE
  5
71
  8
1
 62
     7
 10
164.59760191137781
 20
-949.14334840055972
 30
0.0
 11
166.1976019113778
 21
-949.14334840055983
 31
0.0
  0
LINE
  5
72
  8
1
 62
     7
 10
166.1976019113778
 20
-941.8893484005597
 30
0.0
 11
166.1976019113778
 21
-949.14334840055983
 31
0.0
  0
LINE
  5
73
  8
1
 62
     7
 10
166.1976019113778
 20
-943.1433484005596
 30
0.0
 11
164.59760191137781
 21
-943.1433484005596
 31
0.0
  0
LINE
  5
74
  8
1
 62
     7
 10
179.77687596921399
 20
-984.64334840055972
 30
0.0
 11
166.7976019113776
 21
-984.64334840055972
 31
0.0
  0
LINE
  5
75
  8
1
 62
     7
 10
183.09760191137781
 20
-884.64334840055994
 30
0.0
 11
183.09760191137781
 21
-942.64334840055972
 31
0.0
  0
LINE
  5
76
  8
1
 62
     7
 10
181.2976019113778
 20
-942.64334840055994
 30
0.0
 11
181.2976019113776
 21
-947.14334840055972
 31
0.0
  0
LINE
  5
77
  8
1
 62
     7
 10
183.2976019113776
 20
-947.14334840055972
 30
0.0
 11
181.2976019113776
 21
-947.14334840055972
 31
0.0
  0
LINE
  5
78
  8
1
 62
     7
 10
183.09760191137781
 20
-942.64334840055972
 30
0.0
 11
181.2976019113778
 21
-942.64334840055994
 31
0.0
  0
LINE
  5
79
  8
1
 62
     7
 10
183.2976019113776
 20
-981.14334840055972
 30
0.0
 11
181.7976019113776
 21
-981.14334840055972
 31
0.0
  0
LINE
  5
7A
  8
1
 62
     7
 10
181.7976019113776
 20
-981.14334840055972
 30
0.0
 11
179.77687596921399
 21
-984.64334840055972
 31
0.0
  0
LINE
  5
7B
  8
1
 62
     7
 10
166.7976019113776
 20
-981.49334840055985
 30
0.0
 11
176.89760191137759
 21
-981.49334840055985
 31
0.0
  0
LINE
  5
7C
  8
1
 62
     7
 10
176.89760191137759
 20
-947.14334840055994
 30
0.0
 11
166.7976019113776
 21
-947.14334840055994
 31
0.0
  0
LINE
  5
7D
  8
1
 62
     7
 10
166.7976019113776
 20
-939.14334840055972
 30
0.0
 11
164.59760191137781
 21
-939.14334840055972
 31
0.0
  0
LINE
  5
7E
  8
1
 62
     7
 10
181.2976019113776
 20
-884.64334840055994
 30
0.0
 11
183.09760191137781
 21
-884.64334840055994
 31
0.0
  0
LINE
  5
7F
  8
1
 62
     7
 10
166.1976019113778
 20
-878.14334840055983
 30
0.0
 11
164.59760191137781
 21
-878.14334840055983
 31
0.0
  0
LINE
  5
80
  8
1
  6
DASHDOT
 62
     3
 10
143.09760191137781
 20
-913.64334840055994
 30
0.0
 11
138.09760191137769
 21
-913.64334840055994
 31
0.0
  0
LINE
  5
81
  8
1
 62
     7
 10
166.1976019113778
 20
-949.14334840055983
 30
0.0
 11
164.59760191137781
 21
-949.14334840055972
 31
0.0
  0
LINE
  5
82
  8
1
 62
     7
 10
55.800875969214289
 20
-984.64334840055972
 30
0.0
 11
55.800875969214289
 21
-842.64334840055972
 31
0.0
  0
LINE
  5
83
  8
1
 62
     7
 10
57.821601911377869
 20
-846.14334840055972
 30
0.0
 11
57.821601911377869
 21
-981.14334840055972
 31
0.0
  0
LINE
  5
84
  8
1
 62
     7
 10
33.62160191137788
 20
-822.02740578871908
 30
0.0
 11
33.62160191137788
 21
-820.18822924119354
 31
0.0
  0
LINE
  5
85
  8
1
 62
     7
 10
32.621601911377873
 20
-820.18822924119354
 30
0.0
 11
32.621601911377873
 21
-822.02740578871908
 31
0.0
  0
LINE
  5
86
  8
1
 62
     7
 10
33.121601911377873
 20
-820.13159893847535
 30
0.0
 11
33.121601911377873
 21
-822.02740578871908
 31
0.0
  0
LINE
  5
87
  8
1
 62
     7
 10
34.32160191137789
 20
-822.02740578871908
 30
0.0
 11
34.32160191137789
 21
-846.29334840055969
 31
0.0
  0
LINE
  5
88
  8
1
 62
     7
 10
31.92160191137787
 20
-822.02740578871908
 30
0.0
 11
34.32160191137789
 21
-822.02740578871908
 31
0.0
  0
LINE
  5
89
  8
1
 62
     7
 10
31.92160191137787
 20
-822.02740578871908
 30
0.0
 11
31.92160191137787
 21
-846.29334840055969
 31
0.0
  0
LINE
  5
8A
  8
1
 62
     7
 10
59.821601911377869
 20
-981.14334840055972
 30
0.0
 11
59.821601911377869
 21
-846.14334840055972
 31
0.0
  0
LINE
  5
8B
  8
1
 62
     7
 10
28.621601911377891
 20
-846.29334840055969
 30
0.0
 11
43.321601911377869
 21
-846.29334840055969
 31
0.0
  0
LINE
  5
8C
  8
1
 62
     7
 10
19.621601911377891
 20
-829.64334840055983
 30
0.0
 11
21.621601911377891
 21
-829.64334840055983
 31
0.0
  0
LINE
  5
8D
  8
1
 62
     7
 10
19.621601911377891
 20
-966.14334840055983
 30
0.0
 11
21.621601911377891
 21
-966.14334840055983
 31
0.0
  0
LINE
  5
8E
  8
1
 62
     7
 10
28.621601911377891
 20
-980.99334840055985
 30
0.0
 11
43.321601911377869
 21
-980.99334840055985
 31
0.0
  0
LINE
  5
8F
  8
1
 62
     7
 10
55.800875969214289
 20
-842.64334840055972
 30
0.0
 11
57.821601911377869
 21
-846.14334840055972
 31
0.0
  0
LINE
  5
90
  8
1
 62
     7
 10
57.821601911377869
 20
-846.14334840055972
 30
0.0
 11
59.821601911377869
 21
-846.14334840055972
 31
0.0
  0
LINE
  5
91
  8
1
 62
     7
 10
43.321601911377869
 20
-842.64334840055972
 30
0.0
 11
55.800875969214289
 21
-842.64334840055972
 31
0.0
  0
LINE
  5
92
  8
1
 62
     7
 10
55.800875969214289
 20
-984.64334840055972
 30
0.0
 11
43.321601911377869
 21
-984.64334840055972
 31
0.0
  0
LINE
  5
93
  8
1
 62
     7
 10
43.321601911377869
 20
-984.64334840055972
 30
0.0
 11
43.321601911377869
 21
-842.64334840055972
 31
0.0
  0
LINE
  5
94
  8
1
 62
     7
 10
59.821601911377869
 20
-981.14334840055972
 30
0.0
 11
57.821601911377869
 21
-981.14334840055972
 31
0.0
  0
LINE
  5
95
  8
1
 62
     7
 10
57.821601911377869
 20
-981.14334840055972
 30
0.0
 11
55.800875969214289
 21
-984.64334840055972
 31
0.0
  0
LINE
  5
96
  8
1
 62
     7
 10
19.621601911377891
 20
-829.64334840055983
 30
0.0
 11
19.621601911377891
 21
-966.14334840055983
 31
0.0
  0
LINE
  5
97
  8
1
  6
DASHDOT
 62
     3
 10
19.621601911377891
 20
-913.64334840055994
 30
0.0
 11
14.621601911377891
 21
-913.64334840055994
 31
0.0
  0
LINE
  5
98
  8
1
  6
DASHDOT
 62
     3
 10
18.498964004437191
 20
-835.64334840055994
 30
0.0
 11
23.10471940012069
 21
-835.64334840055994
 31
0.0
  0
LINE
  5
99
  8
1
 62
     7
 10
157.09760191137781
 20
-822.02740578871908
 30
0.0
 11
157.09760191137781
 21
-820.18822924119354
 31
0.0
  0
LINE
  5
9A
  8
1
 62
     7
 10
156.09760191137781
 20
-820.18822924119354
 30
0.0
 11
156.09760191137781
 21
-822.02740578871908
 31
0.0
  0
LINE
  5
9B
  8
1
 62
     7
 10
156.59760191137781
 20
-820.13159893847535
 30
0.0
 11
156.59760191137781
 21
-822.02740578871908
 31
0.0
  0
LINE
  5
9C
  8
1
 62
     7
 10
183.2976019113776
 20
-981.14334840055972
 30
0.0
 11
183.2976019113776
 21
-945.53035623158303
 31
0.0
  0
LINE
  5
9D
  8
1
 62
     7
 10
164.59760191137781
 20
-949.14334840055972
 30
0.0
 11
164.59760191137781
 21
-933.64334840055994
 31
0.0
  0
LINE
  5
9E
  8
1
 62
     7
 10
149.59760191137781
 20
-933.64334840055994
 30
0.0
 11
164.59760191137781
 21
-933.64334840055994
 31
0.0
  0
LINE
  5
9F
  8
1
 62
     7
 10
164.59760191137781
 20
-878.14334840055983
 30
0.0
 11
164.59760191137781
 21
-893.64334840055994
 31
0.0
  0
LINE
  5
A0
  8
1
 62
     7
 10
164.59760191137781
 20
-893.64334840055994
 30
0.0
 11
149.59760191137781
 21
-893.64334840055994
 31
0.0
  0
LINE
  5
A1
  8
1
 62
     7
 10
149.49952570002449
 20
-879.64334840055983
 30
0.0
 11
164.59760191137781
 21
-879.64334840055983
 31
0.0
  0
LINE
  5
A2
  8
1
 62
     7
 10
145.09760191137781
 20
-829.64334840055983
 30
0.0
 11
145.09760191137781
 21
-880.14334840055972
 31
0.0
  0
LINE
  5
A3
  8
1
 62
     7
 10
183.2976019113776
 20
-846.14334840055972
 30
0.0
 11
183.2976019113776
 21
-881.75634056953675
 31
0.0
  0
LINE
  5
A4
  8
1
 62
     7
 10
21.621601911377891
 20
-829.64334840055983
 30
0.0
 11
21.621601911377891
 21
-973.96922453938907
 31
0.0
  0
LINE
  5
A5
  8
1
 62
     7
 10
174.89760191137759
 20
-845.79334840055981
 30
0.0
 11
174.89760191137759
 21
-880.14334840055972
 31
0.0
  0
LINE
  5
A6
  8
1
 62
     7
 10
174.89760191137759
 20
-981.49334840055985
 30
0.0
 11
174.89760191137759
 21
-947.14334840055994
 31
0.0
  0
LINE
  5
A7
  8
1
 62
     7
 10
154.88511462327861
 20
-890.21334840056011
 30
0.0
 11
149.59760191137781
 21
-890.21334840056011
 31
0.0
  0
LINE
  5
A8
  8
1
 62
     7
 10
159.31008919947689
 20
-890.21334840056011
 30
0.0
 11
164.59760191137781
 21
-890.21334840056011
 31
0.0
  0
LINE
  5
A9
  8
1
 62
     7
 10
154.88511462327861
 20
-883.07334840055978
 30
0.0
 11
149.59760191137781
 21
-883.07334840055978
 31
0.0
  0
LINE
  5
AA
  8
1
 62
     7
 10
159.31008919947689
 20
-883.07334840055978
 30
0.0
 11
164.59760191137781
 21
-883.07334840055978
 31
0.0
  0
LINE
  5
AB
  8
1
 62
     7
 10
162.9476019113778
 20
-882.21584840055982
 30
0.0
 11
162.9476019113778
 21
-891.07084840055995
 31
0.0
  0
LINE
  5
AC
  8
1
 62
     7
 10
151.24760191137781
 20
-882.21584840055982
 30
0.0
 11
151.24760191137781
 21
-891.07084840055995
 31
0.0
  0
LINE
  5
AD
  8
1
 62
     7
 10
154.88511462327861
 20
-937.07334840055989
 30
0.0
 11
149.59760191137781
 21
-937.07334840055989
 31
0.0
  0
LINE
  5
AE
  8
1
 62
     7
 10
159.31008919947689
 20
-937.07334840055989
 30
0.0
 11
164.59760191137781
 21
-937.07334840055989
 31
0.0
  0
LINE
  5
AF
  8
1
 62
     7
 10
154.88511462327861
 20
-944.21334840055999
 30
0.0
 11
149.59760191137781
 21
-944.21334840055999
 31
0.0
  0
LINE
  5
B0
  8
1
 62
     7
 10
159.31008919947689
 20
-944.21334840055999
 30
0.0
 11
164.59760191137781
 21
-944.21334840055999
 31
0.0
  0
LINE
  5
B1
  8
1
 62
     7
 10
162.9476019113778
 20
-945.07084840055995
 30
0.0
 11
162.9476019113778
 21
-936.21584840056005
 31
0.0
  0
LINE
  5
B2
  8
1
 62
     7
 10
151.24760191137781
 20
-945.07084840055995
 30
0.0
 11
151.24760191137781
 21
-936.21584840056005
 31
0.0
  0
LINE
  5
B3
  8
1
 62
     7
 10
149.59760191137781
 20
-879.64334840055983
 30
0.0
 11
149.59760191137781
 21
-947.64334840055994
 31
0.0
  0
LINE
  5
B4
  8
1
 62
     7
 10
143.09760191137781
 20
-880.14334840055972
 30
0.0
 11
149.59760191137781
 21
-880.14334840055972
 31
0.0
  0
LINE
  5
B5
  8
1
 62
     7
 10
143.09760191137781
 20
-882.89334840055994
 30
0.0
 11
149.59760191137781
 21
-882.89334840055994
 31
0.0
  0
LINE
  5
B6
  8
1
 62
     7
 10
147.59760191137781
 20
-880.14334840055972
 30
0.0
 11
147.59760191137781
 21
-882.89334840055994
 31
0.0
  0
LINE
  5
B7
  8
1
 62
     7
 10
194.2976019113778
 20
-851.14334840055983
 30
0.0
 11
194.2976019113778
 21
-894.64334840055994
 31
0.0
  0
LINE
  5
B8
  8
1
 62
     7
 10
188.49760191137781
 20
-932.64334840055994
 30
0.0
 11
188.49760191137781
 21
-981.64334840056028
 31
0.0
  0
LINE
  5
B9
  8
1
 62
     7
 10
188.49760191137781
 20
-845.64334840055983
 30
0.0
 11
188.49760191137781
 21
-894.64334840055994
 31
0.0
  0
LINE
  5
BA
  8
1
 62
     7
 10
191.6976019113778
 20
-851.14334840055983
 30
0.0
 11
191.6976019113778
 21
-894.64334840055994
 31
0.0
  0
LINE
  5
BB
  8
1
 62
     7
 10
194.2976019113778
 20
-851.14334840055983
 30
0.0
 11
191.6976019113778
 21
-851.14334840055983
 31
0.0
  0
LINE
  5
BC
  8
1
 62
     7
 10
196.09760191137781
 20
-947.94334840056001
 30
0.0
 11
216.09760191137781
 21
-947.94334840056001
 31
0.0
  0
LINE
  5
BD
  8
1
 62
     7
 10
196.09760191137781
 20
-941.34334840055988
 30
0.0
 11
216.09760191137781
 21
-941.34334840055988
 31
0.0
  0
LINE
  5
BE
  8
1
 62
     7
 10
214.09760191137781
 20
-951.14334840055994
 30
0.0
 11
216.09760191137781
 21
-951.14334840055994
 31
0.0
  0
LINE
  5
BF
  8
1
 62
     7
 10
211.09760191137781
 20
-955.25650605901035
 30
0.0
 11
211.09760191137781
 21
-954.14334840055994
 31
0.0
  0
LINE
  5
C0
  8
1
 62
     7
 10
203.65760191137781
 20
-958.25650605901035
 30
0.0
 11
208.09760191137781
 21
-958.25650605901035
 31
0.0
  0
LINE
  5
C1
  8
1
 62
     7
 10
200.65760191137781
 20
-954.14334840055994
 30
0.0
 11
200.65760191137781
 21
-955.25650605901035
 31
0.0
  0
LINE
  5
C2
  8
1
 62
     7
 10
196.09760191137781
 20
-951.14334840055994
 30
0.0
 11
197.65760191137781
 21
-951.14334840055994
 31
0.0
  0
LINE
  5
C3
  8
1
 62
     7
 10
216.09760191137781
 20
-848.64334840055983
 30
0.0
 11
216.09760191137781
 21
-951.14334840055994
 31
0.0
  0
LINE
  5
C4
  8
1
 62
     7
 10
216.09760191137781
 20
-848.64334840055983
 30
0.0
 11
196.09760191137781
 21
-848.64334840055983
 31
0.0
  0
LINE
  5
C5
  8
1
 62
     7
 10
196.09760191137781
 20
-932.64334840055994
 30
0.0
 11
196.09760191137781
 21
-951.14334840055994
 31
0.0
  0
LINE
  5
C6
  8
1
 62
     7
 10
191.6976019113778
 20
-932.64334840055994
 30
0.0
 11
191.6976019113778
 21
-968.14334840055994
 31
0.0
  0
LINE
  5
C7
  8
1
 62
     7
 10
189.6976019113778
 20
-932.64334840055994
 30
0.0
 11
189.6976019113778
 21
-981.64334840056028
 31
0.0
  0
LINE
  5
C8
  8
1
 62
     7
 10
183.7976019113778
 20
-932.64334840055994
 30
0.0
 11
183.7976019113778
 21
-981.64334840056028
 31
0.0
  0
LINE
  5
C9
  8
1
 62
     7
 10
206.09760191137781
 20
-929.64334840055994
 30
0.0
 11
183.09760191137781
 21
-929.64334840055994
 31
0.0
  0
LINE
  5
CA
  8
1
 62
     7
 10
183.09760191137781
 20
-897.64334840055983
 30
0.0
 11
206.09760191137781
 21
-897.64334840055983
 31
0.0
  0
LINE
  5
CB
  8
1
  6
DASHDOT
 62
     3
 10
223.09760191137781
 20
-913.64334840055994
 30
0.0
 11
216.09760191137781
 21
-913.64334840055994
 31
0.0
  0
LINE
  5
CC
  8
1
 62
     7
 10
183.7976019113778
 20
-845.64334840055983
 30
0.0
 11
189.6976019113778
 21
-845.64334840055983
 31
0.0
  0
LINE
  5
CD
  8
1
 62
     7
 10
189.6976019113778
 20
-845.64334840055983
 30
0.0
 11
189.6976019113778
 21
-894.64334840055994
 31
0.0
  0
LINE
  5
CE
  8
1
 62
     7
 10
189.6976019113778
 20
-880.64334840055983
 30
0.0
 11
183.7976019113778
 21
-880.64334840055983
 31
0.0
  0
LINE
  5
CF
  8
1
 62
     7
 10
183.7976019113778
 20
-845.64334840055983
 30
0.0
 11
183.7976019113778
 21
-894.64334840055994
 31
0.0
  0
LINE
  5
D0
  8
1
 62
     7
 10
187.99760191137781
 20
-845.64334840055983
 30
0.0
 11
187.99760191137781
 21
-894.64334840055994
 31
0.0
  0
LINE
  5
D1
  8
1
 62
     7
 10
189.6976019113778
 20
-856.14334840055994
 30
0.0
 11
190.6976019113778
 21
-856.14334840055994
 31
0.0
  0
LINE
  5
D2
  8
1
 62
     7
 10
189.6976019113778
 20
-876.14334840055983
 30
0.0
 11
190.6976019113778
 21
-876.14334840055983
 31
0.0
  0
LINE
  5
D3
  8
1
 62
     7
 10
190.6976019113778
 20
-855.14334840055972
 30
0.0
 11
191.6976019113778
 21
-855.14334840055972
 31
0.0
  0
LINE
  5
D4
  8
1
 62
     7
 10
190.6976019113778
 20
-875.14334840055983
 30
0.0
 11
191.6976019113778
 21
-875.14334840055983
 31
0.0
  0
LINE
  5
D5
  8
1
 62
     7
 10
190.6976019113778
 20
-855.14334840055972
 30
0.0
 11
190.6976019113778
 21
-894.64334840055994
 31
0.0
  0
LINE
  5
D6
  8
1
 62
     7
 10
194.2976019113778
 20
-859.14334840055983
 30
0.0
 11
194.7976019113778
 21
-859.14334840055983
 31
0.0
  0
LINE
  5
D7
  8
1
 62
     7
 10
194.2976019113778
 20
-873.14334840055994
 30
0.0
 11
194.7976019113778
 21
-873.14334840055994
 31
0.0
  0
LINE
  5
D8
  8
1
 62
     7
 10
194.7976019113778
 20
-857.14334840055994
 30
0.0
 11
196.09760191137781
 21
-857.14334840055994
 31
0.0
  0
LINE
  5
D9
  8
1
 62
     7
 10
194.7976019113778
 20
-875.14334840055983
 30
0.0
 11
196.09760191137781
 21
-875.14334840055983
 31
0.0
  0
LINE
  5
DA
  8
1
 62
     7
 10
194.7976019113778
 20
-875.14334840055983
 30
0.0
 11
194.7976019113778
 21
-857.14334840055994
 31
0.0
  0
LINE
  5
DB
  8
1
 62
     7
 10
216.09760191137781
 20
-887.64334840055983
 30
0.0
 11
206.09760191137781
 21
-887.64334840055983
 31
0.0
  0
LINE
  5
DC
  8
1
 62
     7
 10
206.09760191137781
 20
-887.64334840055983
 30
0.0
 11
206.09760191137781
 21
-939.64334840056028
 31
0.0
  0
LINE
  5
DD
  8
1
 62
     7
 10
196.09760191137781
 20
-848.64334840055983
 30
0.0
 11
196.09760191137781
 21
-894.64334840055994
 31
0.0
  0
LINE
  5
DE
  8
1
 62
     7
 10
196.09760191137781
 20
-891.64334840055972
 30
0.0
 11
206.09760191137781
 21
-891.64334840055972
 31
0.0
  0
LINE
  5
DF
  8
1
 62
     7
 10
183.7976019113778
 20
-946.64334840056028
 30
0.0
 11
189.6976019113778
 21
-946.64334840056028
 31
0.0
  0
LINE
  5
E0
  8
1
 62
     7
 10
190.6976019113778
 20
-969.14334840055994
 30
0.0
 11
191.39760191137779
 21
-969.14334840055994
 31
0.0
  0
LINE
  5
E1
  8
1
 62
     7
 10
190.6976019113778
 20
-979.14334840055994
 30
0.0
 11
191.39760191137779
 21
-979.14334840055994
 31
0.0
  0
LINE
  5
E2
  8
1
 62
     7
 10
190.6976019113778
 20
-958.64334840055994
 30
0.0
 11
190.6976019113778
 21
-932.64334840055994
 31
0.0
  0
LINE
  5
E3
  8
1
 62
     7
 10
206.09760191137781
 20
-939.64334840056028
 30
0.0
 11
216.09760191137781
 21
-939.64334840056028
 31
0.0
  0
LINE
  5
E4
  8
1
 62
     7
 10
206.09760191137781
 20
-935.64334840056017
 30
0.0
 11
196.09760191137781
 21
-935.64334840056017
 31
0.0
  0
LINE
  5
E5
  8
1
 62
     7
 10
191.39760191137779
 20
-979.14334840055994
 30
0.0
 11
191.39760191137779
 21
-969.14334840055994
 31
0.0
  0
LINE
  5
E6
  8
1
 62
     7
 10
187.99760191137781
 20
-981.64334840056028
 30
0.0
 11
187.99760191137781
 21
-932.64334840055994
 31
0.0
  0
LINE
  5
E7
  8
1
 62
     7
 10
191.39760191137779
 20
-979.14334840055994
 30
0.0
 11
191.39760191137779
 21
-969.14334840055994
 31
0.0
  0
LINE
  5
E8
  8
1
 62
     7
 10
193.39760191137779
 20
-979.14334840055994
 30
0.0
 11
193.39760191137779
 21
-969.14334840055994
 31
0.0
  0
LINE
  5
E9
  8
1
 62
     7
 10
191.6976019113778
 20
-958.73083706408556
 30
0.0
 11
190.6976019113778
 21
-963.49471379256465
 31
0.0
  0
LINE
  5
EA
  8
1
 62
     7
 10
190.6976019113778
 20
-958.64334840055994
 30
0.0
 11
189.6976019113778
 21
-963.40722512903869
 31
0.0
  0
LINE
  5
EB
  8
1
 62
     7
 10
190.6976019113778
 20
-963.49471379256465
 30
0.0
 11
190.6976019113778
 21
-981.64334840056028
 31
0.0
  0
LINE
  5
EC
  8
1
 62
     7
 10
183.7976019113778
 20
-981.64334840056028
 30
0.0
 11
190.6976019113778
 21
-981.64334840056028
 31
0.0
  0
LINE
  5
ED
  8
1
 62
     7
 10
191.6976019113778
 20
-968.14334840055994
 30
0.0
 11
194.2976019113778
 21
-968.14334840055994
 31
0.0
  0
LINE
  5
EE
  8
1
 62
     7
 10
191.6976019113778
 20
-951.64334840055994
 30
0.0
 11
194.2976019113778
 21
-951.64334840055994
 31
0.0
  0
LINE
  5
EF
  8
1
  6
DASHDOT
 62
     3
 10
334.19858157327218
 20
-913.64334840055994
 30
0.0
 11
324.46594562142121
 21
-913.64334840055994
 31
0.0
  0
LINE
  5
F0
  8
1
 62
     7
 10
352.47341876871911
 20
-817.45412220820799
 30
0.0
 11
345.23772616102411
 21
-844.45809464807553
 31
0.0
  0
LINE
  5
F1
  8
1
 62
     7
 10
357.3030479001643
 20
-818.7482174337207
 30
0.0
 11
350.06735529246941
 21
-845.75218987358846
 31
0.0
  0
LINE
  5
F2
  8
1
  6
DASHDOT
 62
     3
 10
365.59757661190707
 20
-913.64334840055994
 30
0.0
 11
355.287783740929
 21
-913.64334840055994
 31
0.0
  0
LINE
  5
F3
  8
1
  6
DASHDOT
 62
     3
 10
303.28778374092889
 20
-913.64334840055994
 30
0.0
 11
292.68161798671611
 21
-913.64334840055994
 31
0.0
  0
LINE
  5
F4
  8
1
  6
DASHDOT
 62
     3
 10
329.287783740929
 20
-837.31076699744585
 30
0.0
 11
329.287783740929
 21
-834.0268810852242
 31
0.0
  0
LINE
  5
F5
  8
1
  6
DASHDOT
 62
     3
 10
327.7578763300973
 20
-835.64334840055994
 30
0.0
 11
330.99966114088107
 21
-835.64334840055994
 31
0.0
  0
LINE
  5
F6
  8
1
  6
DASHDOT
 62
     3
 10
329.287783740929
 20
-919.15101763626205
 30
0.0
 11
329.287783740929
 21
-908.51855467890198
 31
0.0
  0
LINE
  5
F7
  8
1
 62
     7
 10
313.18384251236972
 20
-852.30987749362669
 30
0.0
 11
268.1194692189714
 21
-930.36366164904268
 31
0.0
  0
LINE
  5
F8
  8
1
 62
     7
 10
284.22341044753063
 20
-958.25650605901035
 30
0.0
 11
374.35215703432732
 21
-958.25650605901035
 31
0.0
  0
LINE
  5
F9
  8
1
 62
     7
 10
390.45609826288631
 20
-930.36366164904268
 30
0.0
 11
345.39172496948811
 21
-852.30987749362669
 31
0.0
  0
LINE
  5
FA
  8
1
 62
     7
 10
323.287783740929
 20
-829.64334840055983
 30
0.0
 11
335.287783740929
 21
-829.64334840055983
 31
0.0
  0
LINE
  5
FB
  8
1
 62
     7
 10
337.287783740929
 20
-831.64334840055983
 30
0.0
 11
337.287783740929
 21
-843.09549230273092
 31
0.0
  0
LINE
  5
FC
  8
1
 62
     7
 10
321.287783740929
 20
-831.64334840055983
 30
0.0
 11
321.287783740929
 21
-843.09549230273092
 31
0.0
  0
LINE
  5
FD
  8
1
  6
DASHDOT
 62
     3
 10
347.2471098072777
 20
-882.53688318394802
 30
0.0
 11
342.287783740929
 21
-891.12668790216469
 31
0.0
  0
LINE
  5
FE
  8
1
  6
DASHDOT
 62
     3
 10
341.79807309481242
 20
-935.31180517887435
 30
0.0
 11
346.94925601969811
 21
-944.23391572385765
 31
0.0
  0
LINE
  5
FF
  8
1
  6
DASHDOT
 62
     3
 10
311.65861334499891
 20
-883.10872957951995
 30
0.0
 11
315.85886677471279
 21
-890.38378192444998
 31
0.0
  0
LINE
  5
100
  8
1
  6
DASHDOT
 62
     3
 10
315.72820847840632
 20
-937.12922168430316
 30
0.0
 11
311.51385568748708
 21
-944.42869483919492
 31
0.0
  0
LINE
  5
101
  8
1
 62
     7
 10
352.47341876871911
 20
-817.45412220820799
 30
0.0
 11
357.3030479001643
 21
-818.7482174337207
 31
0.0
  0
LINE
  5
102
  8
1
 62
     7
 10
347.663935943208
 20
-845.06261473403629
 30
0.0
 11
354.88823333444191
 21
-818.1011698209644
 31
0.0
  0
LINE
  5
103
  8
1
 62
     7
 10
353.92230750815258
 20
-817.84235077586186
 30
0.0
 11
355.2164027336654
 21
-813.0127216444165
 31
0.0
  0
LINE
  5
104
  8
1
 62
     7
 10
355.85415916073077
 20
-818.35998886606694
 30
0.0
 11
357.14825438624348
 21
-813.53035973462147
 31
0.0
  0
LINE
  5
105
  8
1
 62
     7
 10
353.63252976026581
 20
-817.76470506233079
 30
0.0
 11
354.92662498577829
 21
-812.93507593088577
 31
0.0
  0
LINE
  5
106
  8
1
 62
     7
 10
353.34275201237909
 20
-817.68705934880006
 30
0.0
 11
354.63684723789169
 21
-812.85743021735482
 31
0.0
  0
LINE
  5
107
  8
1
 62
     7
 10
354.2120852560393
 20
-817.9199964893927
 30
0.0
 11
355.50618048155212
 21
-813.09036735794734
 31
0.0
  0
LINE
  5
108
  8
1
 62
     7
 10
355.564381412844
 20
-818.28234315253621
 30
0.0
 11
356.85847663835671
 21
-813.45271402109086
 31
0.0
  0
LINE
  5
109
  8
1
 62
     7
 10
356.14393690861732
 20
-818.43763457959767
 30
0.0
 11
357.4380321341298
 21
-813.60800544815231
 31
0.0
  0
LINE
  5
10A
  8
1
 62
     7
 10
356.43371465650409
 20
-818.5152802931284
 30
0.0
 11
357.72780988201657
 21
-813.68565116168304
 31
0.0
  0
LINE
  5
10B
  8
1
 62
     7
 10
298.69366665937218
 20
-968.14334840055994
 30
0.0
 11
359.88190082248559
 21
-968.14334840055994
 31
0.0
  0
LINE
  5
10C
  8
1
 62
     7
 10
391.78322678795922
 20
-912.88863099954347
 30
0.0
 11
361.18910970640252
 21
-859.89806580157631
 31
0.0
  0
LINE
  5
10D
  8
1
 62
     7
 10
297.38645777545548
 20
-859.89806580157631
 30
0.0
 11
266.79234069389878
 21
-912.88863099954347
 31
0.0
  0
LINE
  5
10E
  8
1
  6
DASHDOT
 62
     3
 10
195.12338666479499
 20
-944.64334840055994
 30
0.0
 11
217.949248149726
 21
-944.64334840055994
 31
0.0
  0
LINE
  5
10F
  8
1
 62
     7
 10
70.821601911377883
 20
-851.14334840055983
 30
0.0
 11
70.821601911377883
 21
-968.20292296491925
 31
0.0
  0
LINE
  5
110
  8
1
 62
     7
 10
65.021601911377871
 20
-977.14334840055994
 30
0.0
 11
65.021601911377871
 21
-981.64334840056028
 31
0.0
  0
LINE
  5
111
  8
1
 62
     7
 10
65.021601911377871
 20
-845.64334840055983
 30
0.0
 11
65.021601911377871
 21
-971.14334840055994
 31
0.0
  0
LINE
  5
112
  8
1
 62
     7
 10
68.221601911377874
 20
-851.14334840055983
 30
0.0
 11
68.221601911377874
 21
-968.14334840055994
 31
0.0
  0
LINE
  5
113
  8
1
 62
     7
 10
70.821601911377883
 20
-851.14334840055983
 30
0.0
 11
68.221601911377874
 21
-851.14334840055983
 31
0.0
  0
LINE
  5
114
  8
1
 62
     7
 10
90.621601911377866
 20
-951.14334840055994
 30
0.0
 11
92.621601911377866
 21
-951.14334840055994
 31
0.0
  0
LINE
  5
115
  8
1
 62
     7
 10
87.621601911377866
 20
-955.25650605901035
 30
0.0
 11
87.621601911377866
 21
-954.14334840055994
 31
0.0
  0
LINE
  5
116
  8
1
 62
     7
 10
80.181601911377882
 20
-958.25650605901035
 30
0.0
 11
84.621601911377894
 21
-958.25650605901035
 31
0.0
  0
LINE
  5
117
  8
1
 62
     7
 10
77.181601911377882
 20
-954.14334840055994
 30
0.0
 11
77.181601911377882
 21
-955.25650605901035
 31
0.0
  0
LINE
  5
118
  8
1
 62
     7
 10
72.621601911377866
 20
-951.14334840055994
 30
0.0
 11
74.181601911377882
 21
-951.14334840055994
 31
0.0
  0
LINE
  5
119
  8
1
 62
     7
 10
92.621601911377866
 20
-848.64334840055983
 30
0.0
 11
92.621601911377866
 21
-951.14334840055994
 31
0.0
  0
LINE
  5
11A
  8
1
 62
     7
 10
92.621601911377866
 20
-848.64334840055983
 30
0.0
 11
72.621601911377866
 21
-848.64334840055983
 31
0.0
  0
LINE
  5
11B
  8
1
  6
DASHDOT
 62
     3
 10
99.621601911377866
 20
-913.64334840055994
 30
0.0
 11
92.621601911377866
 21
-913.64334840055994
 31
0.0
  0
LINE
  5
11C
  8
1
 62
     7
 10
60.321601911377869
 20
-845.64334840055983
 30
0.0
 11
66.221601911377874
 21
-845.64334840055983
 31
0.0
  0
LINE
  5
11D
  8
1
 62
     7
 10
66.221601911377874
 20
-845.64334840055983
 30
0.0
 11
66.221601911377874
 21
-971.14334840055994
 31
0.0
  0
LINE
  5
11E
  8
1
 62
     7
 10
60.321601911377869
 20
-845.64334840055983
 30
0.0
 11
60.321601911377869
 21
-981.64334840056028
 31
0.0
  0
LINE
  5
11F
  8
1
 62
     7
 10
64.521601911377871
 20
-845.64334840055983
 30
0.0
 11
64.521601911377871
 21
-971.14334840055994
 31
0.0
  0
LINE
  5
120
  8
1
 62
     7
 10
66.221601911377874
 20
-856.14334840055994
 30
0.0
 11
67.221601911377874
 21
-856.14334840055994
 31
0.0
  0
LINE
  5
121
  8
1
 62
     7
 10
67.221601911377874
 20
-855.14334840055972
 30
0.0
 11
68.221601911377874
 21
-855.14334840055972
 31
0.0
  0
LINE
  5
122
  8
1
 62
     7
 10
67.221601911377874
 20
-855.14334840055972
 30
0.0
 11
67.221601911377874
 21
-958.64334840055994
 31
0.0
  0
LINE
  5
123
  8
1
 62
     7
 10
70.821601911377883
 20
-859.14334840055983
 30
0.0
 11
71.321601911377883
 21
-859.14334840055983
 31
0.0
  0
LINE
  5
124
  8
1
 62
     7
 10
70.821601911377883
 20
-873.14334840055994
 30
0.0
 11
71.321601911377883
 21
-873.14334840055994
 31
0.0
  0
LINE
  5
125
  8
1
 62
     7
 10
71.321601911377883
 20
-857.14334840055994
 30
0.0
 11
72.621601911377866
 21
-857.14334840055994
 31
0.0
  0
LINE
  5
126
  8
1
 62
     7
 10
71.321601911377883
 20
-875.14334840055983
 30
0.0
 11
72.621601911377866
 21
-875.14334840055983
 31
0.0
  0
LINE
  5
127
  8
1
 62
     7
 10
72.621601911377866
 20
-848.64334840055983
 30
0.0
 11
72.621601911377866
 21
-951.14334840055994
 31
0.0
  0
LINE
  5
128
  8
1
 62
     7
 10
67.221601911377874
 20
-969.14334840055994
 30
0.0
 11
67.921601911377877
 21
-969.14334840055994
 31
0.0
  0
LINE
  5
129
  8
1
 62
     7
 10
67.221601911377874
 20
-979.14334840055994
 30
0.0
 11
67.921601911377877
 21
-979.14334840055994
 31
0.0
  0
LINE
  5
12A
  8
1
 62
     7
 10
67.921601911377877
 20
-979.14334840055994
 30
0.0
 11
67.921601911377877
 21
-969.14334840055994
 31
0.0
  0
LINE
  5
12B
  8
1
 62
     7
 10
60.321601911377869
 20
-968.14334840055994
 30
0.0
 11
63.321601911377869
 21
-971.14334840055994
 31
0.0
  0
LINE
  5
12C
  8
1
 62
     7
 10
63.321601911377869
 20
-971.14334840055994
 30
0.0
 11
63.321601911377869
 21
-977.14334840055994
 31
0.0
  0
LINE
  5
12D
  8
1
 62
     7
 10
63.321601911377869
 20
-977.14334840055994
 30
0.0
 11
60.321601911377869
 21
-980.14334840055994
 31
0.0
  0
LINE
  5
12E
  8
1
 62
     7
 10
63.321601911377869
 20
-977.14334840055994
 30
0.0
 11
67.221601911377874
 21
-977.14334840055994
 31
0.0
  0
LINE
  5
12F
  8
1
 62
     7
 10
67.921601911377877
 20
-979.14334840055994
 30
0.0
 11
67.921601911377877
 21
-969.14334840055994
 31
0.0
  0
LINE
  5
130
  8
1
 62
     7
 10
69.921601911377877
 20
-979.14334840055994
 30
0.0
 11
69.921601911377877
 21
-969.14334840055994
 31
0.0
  0
LINE
  5
131
  8
1
 62
     7
 10
64.521601911377871
 20
-977.14334840055994
 30
0.0
 11
64.521601911377871
 21
-981.64334840056028
 31
0.0
  0
LINE
  5
132
  8
1
 62
     7
 10
68.221601911377874
 20
-958.73083706408556
 30
0.0
 11
67.221601911377874
 21
-963.49471379256465
 31
0.0
  0
LINE
  5
133
  8
1
 62
     7
 10
67.221601911377874
 20
-958.64334840055994
 30
0.0
 11
66.221601911377874
 21
-963.40722512903869
 31
0.0
  0
LINE
  5
134
  8
1
 62
     7
 10
67.221601911377874
 20
-963.49471379256465
 30
0.0
 11
67.221601911377874
 21
-981.64334840056028
 31
0.0
  0
LINE
  5
135
  8
1
 62
     7
 10
66.221601911377874
 20
-977.14334840055994
 30
0.0
 11
66.221601911377874
 21
-981.64334840056028
 31
0.0
  0
LINE
  5
136
  8
1
 62
     7
 10
67.221601911377874
 20
-971.14334840055994
 30
0.0
 11
63.321601911377869
 21
-971.14334840055994
 31
0.0
  0
LINE
  5
137
  8
1
 62
     7
 10
60.321601911377869
 20
-981.64334840056028
 30
0.0
 11
67.221601911377874
 21
-981.64334840056028
 31
0.0
  0
LINE
  5
138
  8
1
 62
     7
 10
68.221601911377874
 20
-968.14334840055994
 30
0.0
 11
70.821601911377883
 21
-968.14334840055994
 31
0.0
  0
LINE
  5
139
  8
1
 62
     7
 10
71.321601911377883
 20
-875.14334840055983
 30
0.0
 11
71.321601911377883
 21
-857.14334840055994
 31
0.0
  0
ARC
  5
13A
  8
1
 62
     7
 10
-106.1008265304674
 20
-913.64334840055994
 30
0.0
 40
70.999999999999929
 50
96.46960161034265
 51
102.98212585704
  0
ARC
  5
13B
  8
1
 62
     7
 10
-106.1008265304674
 20
-913.64334840055994
 30
0.0
 40
67.34999999999998
 50
96.821841234133871
 51
83.178158765866115
  0
ARC
  5
13C
  8
1
 62
     7
 10
-106.1008265304674
 20
-913.64334840055994
 30
0.0
 40
12.50000000000002
 50
108.6629248849424
 51
71.337075115057559
  0
ARC
  5
13D
  8
1
 62
     7
 10
-106.1008265304674
 20
-913.64334840055994
 30
0.0
 40
52.500186881036541
 50
105.33498679390119
 51
74.665013206098891
  0
ARC
  5
13E
  8
1
 62
     7
 10
-106.1008265304674
 20
-913.64334840055994
 30
0.0
 40
71.000000000000028
 50
107.0178741429602
 51
83.530398389657364
  0
ARC
  5
13F
  8
1
 62
     7
 10
-112.1008265304674
 20
-831.64334840055983
 30
0.0
 40
2.0
 50
90.0
 51
180.0
  0
ARC
  5
140
  8
1
 62
     7
 10
-100.1008265304674
 20
-831.64334840055983
 30
0.0
 40
2.0
 50
0.0
 51
90.0
  0
ARC
  5
141
  8
1
 62
     7
 10
152.09760191137781
 20
-954.14334840055994
 30
0.0
 40
7.0
 50
111.78678929826179
 51
180.0
  0
ARC
  5
142
  8
1
 62
     7
 10
152.09760191137781
 20
-873.14334840055994
 30
0.0
 40
7.0
 50
180.0
 51
248.21321070173821
  0
ARC
  5
143
  8
1
 62
     7
 10
152.09760191137781
 20
-853.29334840055981
 30
0.0
 40
7.0
 50
90.0
 51
180.0
  0
ARC
  5
144
  8
1
 62
     7
 10
28.621601911377891
 20
-853.29334840055981
 30
0.0
 40
7.0
 50
180.0
 51
180.1974568809502
  0
ARC
  5
145
  8
1
 62
     7
 10
28.621601911377891
 20
-853.29334840055981
 30
0.0
 40
7.0
 50
90.0
 51
180.0
  0
ARC
  5
146
  8
1
 62
     7
 10
-90.100826530467415
 20
-855.29720360383544
 30
0.0
 40
8.0
 50
180.0
 51
254.66501320609859
  0
ARC
  5
147
  8
1
 62
     7
 10
-122.1008265304674
 20
-855.29720360383544
 30
0.0
 40
7.9999999999999591
 50
285.33498679390061
 51
0.0
  0
ARC
  5
148
  8
1
 62
     7
 10
152.09758112700609
 20
-973.99332768769375
 30
0.0
 40
7.0000207128970526
 50
179.8027132409423
 51
270.00017012189272
  0
ARC
  5
149
  8
1
 62
     7
 10
28.621581127006241
 20
-973.99332768769375
 30
0.0
 40
7.0000207128970038
 50
179.8027132409423
 51
270.00017012189301
  0
ARC
  5
14A
  8
1
 62
     7
 10
192.39760191137779
 20
-979.14334840055994
 30
0.0
 40
1.0
 50
180.0
 51
0.0
  0
ARC
  5
14B
  8
1
 62
     7
 10
192.39760191137779
 20
-969.14334840055994
 30
0.0
 40
1.0
 50
0.0
 51
180.0
  0
ARC
  5
14C
  8
1
 62
     7
 10
297.31958245665589
 20
-871.99861155845463
 30
0.0
 40
14.999999999999799
 50
307.51131702019433
 51
10.3791926849324
  0
ARC
  5
14D
  8
1
 62
     7
 10
329.287783740929
 20
-866.14334840055983
 30
0.0
 40
17.499999999999972
 50
349.6208073150683
 51
190.3791926849315
  0
ARC
  5
14E
  8
1
 62
     7
 10
361.25598502520211
 20
-871.99861155845463
 30
0.0
 40
15.00000000000003
 50
169.62080731506759
 51
232.48868297980499
  0
ARC
  5
14F
  8
1
 62
     7
 10
329.287783740929
 20
-913.64334840055994
 30
0.0
 40
37.499999999999858
 50
7.5113170201952881
 51
52.488682979804537
  0
ARC
  5
150
  8
1
 62
     7
 10
317.5139695312921
 20
-854.80987749362669
 30
0.0
 40
5.0000000000000711
 50
101.3165995657475
 51
150.0000000000006
  0
ARC
  5
151
  8
1
 62
     7
 10
329.287783740929
 20
-913.64334840055994
 30
0.0
 40
65.0
 50
78.68340043425448
 51
101.3165995657457
  0
ARC
  5
152
  8
1
 62
     7
 10
341.06159795056601
 20
-854.80987749362669
 30
0.0
 40
4.9999999999999174
 50
30.00000000000054
 51
78.683400434255674
  0
ARC
  5
153
  8
1
 62
     7
 10
272.44959623789362
 20
-932.86366164904268
 30
0.0
 40
5.000000000000016
 50
150.0
 51
198.68340043425439
  0
ARC
  5
154
  8
1
 62
     7
 10
374.35215703432732
 20
-953.25650605901035
 30
0.0
 40
5.0
 50
270.0
 51
318.6834004342553
  0
ARC
  5
155
  8
1
 62
     7
 10
284.22341044753063
 20
-953.25650605901035
 30
0.0
 40
5.0000000000001359
 50
221.3165995657447
 51
270.0
  0
ARC
  5
156
  8
1
 62
     7
 10
386.12597124396427
 20
-932.86366164904268
 30
0.0
 40
5.000000000000103
 50
341.31659956574578
 51
30.00000000000022
  0
ARC
  5
157
  8
1
 62
     7
 10
309.20648434388471
 20
-962.15099124708729
 30
0.0
 40
14.99999999999995
 50
67.51131702019542
 51
130.37919268493221
  0
ARC
  5
158
  8
1
 62
     7
 10
381.33728442224628
 20
-906.78044239613757
 30
0.0
 40
14.999999999999959
 50
187.51131702019521
 51
250.37919268493201
  0
ARC
  5
159
  8
1
 62
     7
 10
277.2382830596116
 20
-906.78044239613757
 30
0.0
 40
15.00000000000006
 50
289.62080731506779
 51
352.48868297980431
  0
ARC
  5
15A
  8
1
 62
     7
 10
349.36908313797329
 20
-962.15099124708729
 30
0.0
 40
14.999999999999931
 50
49.62080731506822
 51
112.48868297980449
  0
ARC
  5
15B
  8
1
 62
     7
 10
329.287783740929
 20
-913.64334840055994
 30
0.0
 40
37.500000000000071
 50
127.51131702019561
 51
172.48868297980471
  0
ARC
  5
15C
  8
1
 62
     7
 10
288.1515770611681
 20
-937.39334840055994
 30
0.0
 40
17.5
 50
109.6208073150684
 51
310.37919268493141
  0
ARC
  5
15D
  8
1
 62
     7
 10
329.287783740929
 20
-913.64334840055994
 30
0.0
 40
37.500000000000028
 50
247.51131702019529
 51
292.48868297980482
  0
ARC
  5
15E
  8
1
 62
     7
 10
370.42399042068979
 20
-937.39334840055994
 30
0.0
 40
17.50000000000006
 50
229.62080731506811
 51
70.379192684932306
  0
ARC
  5
15F
  8
1
 62
     7
 10
329.287783740929
 20
-913.64334840055994
 30
0.0
 40
65.000000000000071
 50
198.68340043425439
 51
221.31659956574549
  0
ARC
  5
160
  8
1
 62
     7
 10
329.287783740929
 20
-913.64334840055994
 30
0.0
 40
65.000000000000128
 50
318.68340043425451
 51
341.31659956574538
  0
ARC
  5
161
  8
1
  6
DASHDOT
 62
     3
 10
329.287783740929
 20
-913.64334840055994
 30
0.0
 40
31.000000000000028
 50
47.307986836525572
 51
69.860022397827663
  0
ARC
  5
162
  8
1
  6
DASHDOT
 62
     3
 10
329.287783740929
 20
-913.64334840055994
 30
0.0
 40
30.999999999999879
 50
110.7549600389418
 51
129.55802068868471
  0
ARC
  5
163
  8
1
  6
DASHDOT
 62
     3
 10
329.287783740929
 20
-913.64334840055994
 30
0.0
 40
31.000000000000099
 50
169.62676599304359
 51
190.974298583321
  0
ARC
  5
164
  8
1
  6
DASHDOT
 62
     3
 10
329.287783740929
 20
-913.64334840055994
 30
0.0
 40
31.000000000000011
 50
228.93850309735441
 51
249.92410591207829
  0
ARC
  5
165
  8
1
  6
DASHDOT
 62
     3
 10
329.287783740929
 20
-913.64334840055994
 30
0.0
 40
31.000000000000039
 50
288.79334036844801
 51
310.54766451512182
  0
ARC
  5
166
  8
1
  6
DASHDOT
 62
     3
 10
329.287783740929
 20
-913.64334840055994
 30
0.0
 40
30.999999999999812
 50
347.57613821593532
 51
9.9043925367084444
  0
ARC
  5
167
  8
1
 62
     7
 10
329.287783740929
 20
-913.64334840055994
 30
0.0
 40
62.5
 50
299.30810923552548
 51
314.45419820605218
  0
ARC
  5
168
  8
1
 62
     7
 10
329.287783740929
 20
-913.64334840055994
 30
0.0
 40
62.500000000000028
 50
225.54580179394759
 51
240.69189076447429
  0
ARC
  5
169
  8
1
 62
     7
 10
329.287783740929
 20
-913.64334840055994
 30
0.0
 40
62.500000000000021
 50
345.5458017939477
 51
0.6918907644745583
  0
ARC
  5
16A
  8
1
 62
     7
 10
329.287783740929
 20
-913.64334840055994
 30
0.0
 40
62.499999999999929
 50
105.5458017939476
 51
120.69189076447449
  0
ARC
  5
16B
  8
1
 62
     7
 10
329.287783740929
 20
-913.64334840055994
 30
0.0
 40
62.499999999999972
 50
59.30810923552545
 51
74.454198206052283
  0
ARC
  5
16C
  8
1
 62
     7
 10
329.287783740929
 20
-913.64334840055994
 30
0.0
 40
62.499999999999957
 50
179.30810923552551
 51
194.45419820605241
  0
ARC
  5
16D
  8
1
 62
     7
 10
68.921601911377877
 20
-979.14334840055994
 30
0.0
 40
1.0
 50
180.0
 51
0.0
  0
ARC
  5
16E
  8
1
 62
     7
 10
68.921601911377877
 20
-969.14334840055994
 30
0.0
 40
1.0
 50
0.0
 51
180.0
  0
ARC
  5
16F
  8
1
 62
     7
 10
310.787783740929
 20
-945.68628834058427
 30
0.0
 40
29.999999999999918
 50
204.6690965604212
 51
240.0000000000002
  0
ARC
  5
170
  8
1
 62
     7
 10
329.287783740929
 20
-913.64334840055994
 30
0.0
 40
66.999999999999929
 50
240.0
 51
300.00000000000011
  0
ARC
  5
171
  8
1
 62
     7
 10
347.787783740929
 20
-945.68628834058427
 30
0.0
 40
29.999999999999961
 50
300.00000000000028
 51
335.33090343957912
  0
ARC
  5
172
  8
1
 62
     7
 10
347.78778374092911
 20
-881.60040846053562
 30
0.0
 40
29.99999999999994
 50
60.000000000000199
 51
95.330903439579004
  0
ARC
  5
173
  8
1
 62
     7
 10
292.28778374092911
 20
-913.64334840055994
 30
0.0
 40
30.00000000000011
 50
180.0
 51
215.33090343957889
  0
ARC
  5
174
  8
1
 62
     7
 10
329.287783740929
 20
-913.64334840055994
 30
0.0
 40
67.0
 50
0.0
 51
60.0
  0
ARC
  5
175
  8
1
 62
     7
 10
329.287783740929
 20
-913.64334840055994
 30
0.0
 40
66.999999999999929
 50
119.9999999999999
 51
180.0
  0
ARC
  5
176
  8
1
 62
     7
 10
366.287783740929
 20
-913.64334840055994
 30
0.0
 40
30.000000000000028
 50
324.66909656042122
 51
0.0
  0
ARC
  5
177
  8
1
 62
     7
 10
310.78778374092911
 20
-881.60040846053562
 30
0.0
 40
30.00000000000005
 50
84.669096560421053
 51
119.9999999999999
  0
CIRCLE
  5
178
  8
1
 62
     7
 10
329.287783740929
 20
-913.64334840055994
 30
0.0
 40
68.0
  0
CIRCLE
  5
179
  8
1
 62
     7
 10
-106.1008265304674
 20
-913.64334840055994
 30
0.0
 40
22.50177837831869
  0
CIRCLE
  5
17A
  8
1
 62
     7
 10
-106.1008265304674
 20
-913.64334840055994
 30
0.0
 40
30.75
  0
CIRCLE
  5
17B
  8
1
 62
     7
 10
-106.1008265304674
 20
-835.64334840055994
 30
0.0
 40
3.25
  0
CIRCLE
  5
17C
  8
1
 62
     7
 10
157.09760191137781
 20
-886.64334840055983
 30
0.0
 40
4.1999999999999877
  0
CIRCLE
  5
17D
  8
1
 62
     7
 10
157.09760191137781
 20
-940.64334840055994
 30
0.0
 40
4.1999999999999877
  0
CIRCLE
  5
17E
  8
1
 62
     7
 10
329.287783740929
 20
-866.14334840055983
 30
0.0
 40
7.0
  0
CIRCLE
  5
17F
  8
1
 62
     7
 10
329.287783740929
 20
-866.14334840055983
 30
0.0
 40
11.0
  0
CIRCLE
  5
180
  8
1
 62
     7
 10
288.1515770611681
 20
-937.39334840055994
 30
0.0
 40
6.9999999999999831
  0
CIRCLE
  5
181
  8
1
 62
     7
 10
288.1515770611681
 20
-937.39334840055994
 30
0.0
 40
11.00000000000002
  0
CIRCLE
  5
182
  8
1
 62
     7
 10
370.42399042068979
 20
-937.39334840055994
 30
0.0
 40
7.0000000000000817
  0
CIRCLE
  5
183
  8
1
 62
     7
 10
370.42399042068979
 20
-937.39334840055994
 30
0.0
 40
11.00000000000002
  0
CIRCLE
  5
184
  8
1
 62
     7
 10
298.287783740929
 20
-913.64334840055994
 30
0.0
 40
3.2999999999998981
  0
CIRCLE
  5
185
  8
1
 62
     7
 10
360.28778374092877
 20
-913.64334840055994
 30
0.0
 40
2.5
  0
CIRCLE
  5
186
  8
1
 62
     3
 10
360.28778374092877
 20
-913.64334840055994
 30
0.0
 40
3.0
  0
CIRCLE
  5
187
  8
1
 62
     7
 10
313.78778374092889
 20
-886.79656088324202
 30
0.0
 40
2.500000000000008
  0
CIRCLE
  5
188
  8
1
 62
     3
 10
313.78778374092889
 20
-886.79656088324202
 30
0.0
 40
2.9999999999998521
  0
CIRCLE
  5
189
  8
1
 62
     7
 10
313.78778374092889
 20
-940.49013591787764
 30
0.0
 40
2.500000000000008
  0
CIRCLE
  5
18A
  8
1
 62
     3
 10
313.78778374092889
 20
-940.49013591787764
 30
0.0
 40
3.000000000000048
  0
CIRCLE
  5
18B
  8
1
 62
     7
 10
344.787783740929
 20
-940.49013591787764
 30
0.0
 40
3.299999999999943
  0
CIRCLE
  5
18C
  8
1
 62
     7
 10
344.787783740929
 20
-886.79656088324202
 30
0.0
 40
3.300000000000141
  0
CIRCLE
  5
18D
  8
1
 62
     7
 10
329.287783740929
 20
-913.64334840055994
 30
0.0
 40
22.0
  0
CIRCLE
  5
18E
  8
1
 62
     7
 10
329.287783740929
 20
-913.64334840055994
 30
0.0
 40
26.0
  0
CIRCLE
  5
18F
  8
1
 62
     7
 10
329.287783740929
 20
-913.64334840055994
 30
0.0
 40
12.5
  0
CIRCLE
  5
190
  8
1
 62
     7
 10
329.287783740929
 20
-913.64334840055994
 30
0.0
 40
16.0
  0
CIRCLE
  5
191
  8
1
 62
     7
 10
329.287783740929
 20
-913.64334840055994
 30
0.0
 40
70.999999999999901
  0
CIRCLE
  5
192
  8
1
 62
     7
 10
329.287783740929
 20
-835.64334840055994
 30
0.0
 40
3.25
  0
CIRCLE
  5
193
  8
1
 62
     7
 10
381.68232066988742
 20
-883.39334840055983
 30
0.0
 40
6.0
  0
CIRCLE
  5
194
  8
1
 62
     7
 10
276.89324681197041
 20
-883.39334840055983
 30
0.0
 40
6.0
  0
CIRCLE
  5
195
  8
1
 62
     7
 10
329.287783740929
 20
-974.14334840055983
 30
0.0
 40
6.0
  0
CIRCLE
  5
196
  8
1
 62
     7
 10
329.287783740929
 20
-866.14334840055983
 30
0.0
 40
3.0
  0
CIRCLE
  5
197
  8
1
 62
     3
 10
329.287783740929
 20
-866.14334840055983
 30
0.0
 40
2.5
  0
CIRCLE
  5
198
  8
1
 62
     7
 10
288.1515770611681
 20
-937.39334840055994
 30
0.0
 40
2.9999999999999512
  0
CIRCLE
  5
199
  8
1
 62
     3
 10
288.1515770611681
 20
-937.39334840055994
 30
0.0
 40
2.500000000000008
  0
CIRCLE
  5
19A
  8
1
 62
     7
 10
370.42399042068979
 20
-937.39334840055994
 30
0.0
 40
3.000000000000048
  0
CIRCLE
  5
19B
  8
1
 62
     3
 10
370.42399042068979
 20
-937.39334840055994
 30
0.0
 40
2.500000000000008
  0
ARC
  5
19C
  8
1
 62
     7
 10
197.65760191137781
 20
-954.14334840055994
 30
0.0
 40
3.0
 50
0.0
 51
90.0
  0
ARC
  5
19D
  8
1
 62
     7
 10
203.65760191137781
 20
-955.25650605901035
 30
0.0
 40
3.0
 50
180.0
 51
270.0
  0
ARC
  5
19E
  8
1
 62
     7
 10
208.09760191137781
 20
-955.25650605901035
 30
0.0
 40
3.0
 50
270.0
 51
0.0
  0
ARC
  5
19F
  8
1
 62
     7
 10
214.09760191137781
 20
-954.14334840055994
 30
0.0
 40
3.0
 50
90.0
 51
180.0
  0
ARC
  5
1A0
  8
1
 62
     7
 10
323.287783740929
 20
-831.64334840055983
 30
0.0
 40
2.0
 50
90.0
 51
180.0
  0
ARC
  5
1A1
  8
1
 62
     7
 10
335.287783740929
 20
-831.64334840055983
 30
0.0
 40
2.0
 50
0.0
 51
90.0
  0
ARC
  5
1A2
  8
1
 62
     7
 10
74.181601911377882
 20
-954.14334840055994
 30
0.0
 40
3.0
 50
0.0
 51
90.0
  0
ARC
  5
1A3
  8
1
 62
     7
 10
80.181601911377882
 20
-955.25650605901035
 30
0.0
 40
3.0
 50
180.0
 51
270.0
  0
ARC
  5
1A4
  8
1
 62
     7
 10
84.621601911377894
 20
-955.25650605901035
 30
0.0
 40
3.0
 50
270.0
 51
0.0
  0
ARC
  5
1A5
  8
1
 62
     7
 10
90.621601911377866
 20
-954.14334840055994
 30
0.0
 40
3.0
 50
90.0
 51
180.0
  0
TEXT
  5
1A6
  8
1
 62
     7
 10
-139.11590302092949
 20
-767.64235414200255
 30
0.0
 40
8.0
  1
VCSHA 5
 41
0.9
  7
SIMPLEX
  0
ENDSEC
  0
EOF
