  0
SECTION
  2
HEADER
  9
$ACADVER
  1
AC1009
  9
$INSBASE
 10
0.0
 20
0.0
 30
0.0
  9
$EXTMIN
 10
53.10814084009241
 20
186.0
 30
0.0
  9
$EXTMAX
 10
513.41421356237311
 20
512.05792196563448
 30
0.0
  9
$LIMMIN
 10
53.10814084009241
 20
186.0
  9
$LIMMAX
 10
513.0
 20
511.02238805970171
  9
$ORTHOMODE
 70
     0
  9
$REGENMODE
 70
     1
  9
$FILLMODE
 70
     1
  9
$QTEXTMODE
 70
     0
  9
$MIRRTEXT
 70
     1
  9
$DRAGMODE
 70
     2
  9
$LTSCALE
 40
1.0
  9
$OSMODE
 70
    37
  9
$ATTMODE
 70
     1
  9
$TEXTSIZE
 40
3.5
  9
$TRACEWID
 40
0.5
  9
$TEXTSTYLE
  7
STANDARD
  9
$CLAYER
  8
0
  9
$CELTYPE
  6
BYLAYER
  9
$CECOLOR
 62
   256
  9
$DIMSCALE
 40
1.0
  9
$DIMASZ
 40
0.18
  9
$DIMEXO
 40
0.0625
  9
$DIMDLI
 40
0.38
  9
$DIMRND
 40
0.0
  9
$DIMDLE
 40
0.0
  9
$DIMEXE
 40
0.18
  9
$DIMTP
 40
0.0
  9
$DIMTM
 40
0.0
  9
$DIMTXT
 40
0.18
  9
$DIMCEN
 40
0.09
  9
$DIMTSZ
 40
0.0
  9
$DIMTOL
 70
     0
  9
$DIMLIM
 70
     0
  9
$DIMTIH
 70
     1
  9
$DIMTOH
 70
     1
  9
$DIMSE1
 70
     0
  9
$DIMSE2
 70
     0
  9
$DIMTAD
 70
     0
  9
$DIMZIN
 70
     0
  9
$DIMBLK
  1

  9
$DIMASO
 70
     1
  9
$DIMSHO
 70
     1
  9
$DIMPOST
  1

  9
$DIMAPOST
  1

  9
$DIMALT
 70
     0
  9
$DIMALTD
 70
     2
  9
$DIMALTF
 40
25.399999999999999
  9
$DIMLFAC
 40
1.0
  9
$DIMTOFL
 70
     0
  9
$DIMTVP
 40
0.0
  9
$DIMTIX
 70
     0
  9
$DIMSOXD
 70
     0
  9
$DIMSAH
 70
     0
  9
$DIMBLK1
  1

  9
$DIMBLK2
  1

  9
$DIMSTYLE
  2
STANDARD
  9
$DIMCLRD
 70
     0
  9
$DIMCLRE
 70
     0
  9
$DIMCLRT
 70
     0
  9
$DIMTFAC
 40
1.0
  9
$DIMGAP
 40
0.09
  9
$LUNITS
 70
     2
  9
$LUPREC
 70
     4
  9
$SKETCHINC
 40
0.1
  9
$FILLETRAD
 40
2.0
  9
$AUNITS
 70
     0
  9
$AUPREC
 70
     0
  9
$MENU
  1
ACAD
  9
$ELEVATION
 40
0.0
  9
$PELEVATION
 40
0.0
  9
$THICKNESS
 40
0.0
  9
$LIMCHECK
 70
     0
  9
$BLIPMODE
 70
     0
  9
$CHAMFERA
 40
0.0
  9
$CHAMFERB
 40
0.0
  9
$SKPOLY
 70
     0
  9
$TDCREATE
 40
2452095.4451729162
  9
$TDUPDATE
 40
2452095.4460336799
  9
$TDINDWG
 40
0.0008760417
  9
$TDUSRTIMER
 40
0.0008760417
  9
$USRTIMER
 70
     1
  9
$ANGBASE
 50
0.0
  9
$ANGDIR
 70
     0
  9
$PDMODE
 70
     0
  9
$PDSIZE
 40
0.0
  9
$PLINEWID
 40
0.0
  9
$COORDS
 70
     1
  9
$SPLFRAME
 70
     0
  9
$SPLINETYPE
 70
     6
  9
$SPLINESEGS
 70
     8
  9
$ATTDIA
 70
     0
  9
$ATTREQ
 70
     1
  9
$HANDLING
 70
 10241
  9
$HANDSEED
  5
3DF
  9
$SURFTAB1
 70
     6
  9
$SURFTAB2
 70
     6
  9
$SURFTYPE
 70
     6
  9
$SURFU
 70
     6
  9
$SURFV
 70
     6
  9
$UCSNAME
  2

  9
$UCSORG
 10
0.0
 20
0.0
 30
0.0
  9
$UCSXDIR
 10
1.0
 20
0.0
 30
0.0
  9
$UCSYDIR
 10
0.0
 20
1.0
 30
0.0
  9
$PUCSNAME
  2

  9
$PUCSORG
 10
0.0
 20
0.0
 30
0.0
  9
$PUCSXDIR
 10
1.0
 20
0.0
 30
0.0
  9
$PUCSYDIR
 10
0.0
 20
1.0
 30
0.0
  9
$USERI1
 70
     0
  9
$USERI2
 70
     0
  9
$USERI3
 70
     0
  9
$USERI4
 70
     0
  9
$USERI5
 70
     0
  9
$USERR1
 40
0.0
  9
$USERR2
 40
0.0
  9
$USERR3
 40
0.0
  9
$USERR4
 40
0.0
  9
$USERR5
 40
0.0
  9
$WORLDVIEW
 70
     1
  9
$SHADEDGE
 70
     3
  9
$SHADEDIF
 70
    70
  9
$TILEMODE
 70
     1
  9
$MAXACTVP
 70
    64
  9
$PLIMCHECK
 70
     0
  9
$PEXTMIN
 10
1.0000000000000000E+020
 20
1.0000000000000000E+020
 30
1.0000000000000000E+020
  9
$PEXTMAX
 10
-1.0000000000000000E+020
 20
-1.0000000000000000E+020
 30
-1.0000000000000000E+020
  9
$PLIMMIN
 10
0.0
 20
0.0
  9
$PLIMMAX
 10
12.0
 20
9.0
  9
$UNITMODE
 70
     0
  9
$VISRETAIN
 70
     1
  9
$PLINEGEN
 70
     0
  9
$PSLTSCALE
 70
     1
  0
ENDSEC
  0
SECTION
  2
TABLES
  0
TABLE
  2
VPORT
 70
     2
  0
VPORT
  2
*ACTIVE
 70
     0
 10
0.0
 20
0.0
 11
1.0
 21
1.0
 12
428.70586026138562
 22
446.92467638293789
 13
0.0
 23
0.0
 14
1.0
 24
1.0
 15
0.0
 25
0.0
 16
0.0
 26
0.0
 36
1.0
 17
0.0
 27
0.0
 37
0.0
 40
9.0000008981669453
 41
3.0569948186528491
 42
50.0
 43
0.0
 44
0.0
 50
0.0
 51
0.0
 71
     0
 72
   100
 73
     1
 74
     1
 75
     0
 76
     0
 77
     0
 78
     0
  0
ENDTAB
  0
TABLE
  2
LTYPE
 70
     9
  0
LTYPE
  2
CONTINUOUS
 70
     0
  3
Solid line
 72
    65
 73
     0
 40
0.0
  0
LTYPE
  2
BORDER
 70
     0
  3
__ __ . __ __ .
 72
    65
 73
     6
 40
21.179230356048372
 49
6.0512086731566779
 49
-3.025604336578338
 49
6.0512086731566779
 49
-3.025604336578338
 49
0.0
 49
-3.025604336578338
  0
LTYPE
  2
CENTER
 70
     0
  3
____ _ ____ _
 72
    65
 73
     4
 40
24.204834692626719
 49
15.128021682891699
 49
-3.025604336578338
 49
3.025604336578338
 49
-3.025604336578338
  0
LTYPE
  2
DASHDOT
 70
     0
  3
__ . __ . __ .
 72
    65
 73
     4
 40
12.102417346313359
 49
6.0512086731566779
 49
-3.025604336578338
 49
0.0
 49
-3.025604336578338
  0
LTYPE
  2
DASHED
 70
     0
  3
__ __ __ __ __
 72
    65
 73
     2
 40
9.0768130097350177
 49
6.0512086731566779
 49
-3.025604336578338
  0
LTYPE
  2
DIVIDE
 70
     0
  3
__ . . __ . . 
 72
    65
 73
     6
 40
15.128021682891699
 49
6.0512086731566779
 49
-3.025604336578338
 49
0.0
 49
-3.025604336578338
 49
0.0
 49
-3.025604336578338
  0
LTYPE
  2
DOT
 70
     0
  3
..............
 72
    65
 73
     4
 40
6.0512086731566779
 49
0.0
 49
-3.025604336578338
 49
0.0
 49
-3.025604336578338
  0
LTYPE
  2
HIDDEN
 70
     0
  3
_ _ _ _ _ _ _
 72
    65
 73
     2
 40
4.538406504867508
 49
3.025604336578338
 49
-1.512802168289169
  0
LTYPE
  2
PHANTOM
 70
     0
  3
_____ _ _ _____ _ _ 
 72
    65
 73
     6
 40
30.256043365783398
 49
15.128021682891699
 49
-3.025604336578338
 49
3.025604336578338
 49
-3.025604336578338
 49
3.025604336578338
 49
-3.025604336578338
  0
ENDTAB
  0
TABLE
  2
LAYER
 70
     2
  0
LAYER
  2
0
 70
     0
 62
     7
  6
CONTINUOUS
  0
LAYER
  2
1
 70
     0
 62
     7
  6
CONTINUOUS
  0
ENDTAB
  0
TABLE
  2
STYLE
 70
     4
  0
STYLE
  2
STANDARD
 70
     0
 40
0.0
 41
1.0
 50
0.0
 71
     0
 42
3.5
  3
txt
  4

  0
STYLE
  2
SIMPLEX
 70
     0
 40
0.0
 41
1.0
 50
0.0
 71
     0
 42
3.5
  3
simplex
  4

  0
STYLE
  2
COMPLEX
 70
     0
 40
0.0
 41
1.0
 50
0.0
 71
     0
 42
3.5
  3
complex
  4

  0
STYLE
  2
ITALIC
 70
     0
 40
0.0
 41
1.0
 50
0.0
 71
     0
 42
3.5
  3
italic
  4

  0
ENDTAB
  0
TABLE
  2
VIEW
 70
     0
  0
ENDTAB
  0
TABLE
  2
UCS
 70
     0
  0
ENDTAB
  0
TABLE
  2
APPID
 70
     1
  0
APPID
  2
ACAD
 70
     0
  0
ENDTAB
  0
TABLE
  2
DIMSTYLE
 70
     1
  0
DIMSTYLE
  2
STANDARD
 70
     0
  3

  4

  5

  6

  7

 40
1.0
 41
0.18
 42
0.0625
 43
0.38
 44
0.18
 45
0.0
 46
0.0
 47
0.0
 48
0.0
140
0.18
141
0.09
142
0.0
143
25.399999999999999
144
1.0
145
0.0
146
1.0
147
0.09
 71
     0
 72
     0
 73
     1
 74
     1
 75
     0
 76
     0
 77
     0
 78
     0
170
     0
171
     2
172
     0
173
     0
174
     0
175
     0
176
     0
177
     0
178
     0
  0
ENDTAB
  0
ENDSEC
  0
SECTION
  2
BLOCKS
  0
BLOCK
  8
0
  2
$MODEL_SPACE
 70
     0
 10
0.0
 20
0.0
 30
0.0
  3
$MODEL_SPACE
  1

  0
ENDBLK
  5
20
  8
0
  0
BLOCK
 67
     1
  8
0
  2
$PAPER_SPACE
 70
     0
 10
0.0
 20
0.0
 30
0.0
  3
$PAPER_SPACE
  1

  0
ENDBLK
  5
1C
 67
     1
  8
0
  0
ENDSEC
  0
SECTION
  2
ENTITIES
  0
POINT
  5
33
  8
1
  6
CENTER
 62
     7
 10
106.0
 20
498.02238805970183
 30
0.0
  0
POINT
  5
34
  8
1
  6
CENTER
 62
     7
 10
141.27394006583719
 20
488.02238805970211
 30
0.0
  0
POINT
  5
35
  8
1
  6
CENTER
 62
     7
 10
238.72605993416249
 20
488.02238805970183
 30
0.0
  0
POINT
  5
36
  8
1
  6
CENTER
 62
     7
 10
273.99999999999977
 20
498.02238805970183
 30
0.0
  0
POINT
  5
37
  8
1
  6
CENTER
 62
     7
 10
106.0
 20
388.02238805970183
 30
0.0
  0
POINT
  5
38
  8
1
  6
CENTER
 62
     7
 10
141.27394006583719
 20
398.02238805970183
 30
0.0
  0
POINT
  5
39
  8
1
  6
CENTER
 62
     7
 10
238.72605993416249
 20
398.02238805970183
 30
0.0
  0
POINT
  5
3A
  8
1
  6
CENTER
 62
     7
 10
273.99999999999977
 20
388.02238805970183
 30
0.0
  0
LINE
  5
3B
  8
1
 62
     7
 10
239.49999999999989
 20
486.1454940719957
 30
0.0
 11
239.49999999999989
 21
474.14549407199559
 31
0.0
  0
LINE
  5
3C
  8
1
 62
     7
 10
239.49999999999989
 20
411.89928204740812
 30
0.0
 11
239.49999999999989
 21
399.89928204740818
 31
0.0
  0
LINE
  5
3D
  8
1
 62
     7
 10
239.49999999999989
 20
295.12310601229382
 30
0.0
 11
239.49999999999989
 21
283.12310601229359
 31
0.0
  0
LINE
  5
3E
  8
1
 62
     7
 10
239.49999999999989
 20
220.87689398770621
 30
0.0
 11
239.49999999999989
 21
208.87689398770621
 31
0.0
  0
LINE
  5
3F
  8
1
 62
     7
 10
213.0
 20
366.02238805970183
 30
0.0
 11
213.0
 21
380.02238805970183
 31
0.0
  0
LINE
  5
40
  8
1
 62
     7
 10
167.0
 20
366.02238805970183
 30
0.0
 11
167.0
 21
380.02238805970183
 31
0.0
  0
LINE
  5
41
  8
1
 62
     7
 10
167.0
 20
369.02238805970183
 30
0.0
 11
213.0
 21
369.02238805970183
 31
0.0
  0
LINE
  5
42
  8
1
 62
     7
 10
191.5
 20
462.02238805970222
 30
0.0
 11
235.9999999999998
 21
462.02238805970222
 31
0.0
  0
LINE
  5
43
  8
1
 62
     7
 10
144.0
 20
462.02238805970222
 30
0.0
 11
188.49999999999989
 21
462.02238805970222
 31
0.0
  0
LINE
  5
44
  8
1
 62
     7
 10
238.0
 20
313.00000000000011
 30
0.0
 11
238.0
 21
209.71428571428561
 31
0.0
  0
LINE
  5
45
  8
1
 62
     7
 10
191.49999999999989
 20
270.0
 30
0.0
 11
238.0
 21
270.0
 31
0.0
  0
LINE
  5
46
  8
1
 62
     7
 10
141.99999999999989
 20
270.0
 30
0.0
 11
188.49999999999989
 21
270.0
 31
0.0
  0
LINE
  5
47
  8
1
 62
     7
 10
188.49999999999989
 20
279.49360351987059
 30
0.0
 11
141.99999999999989
 21
279.49360351987059
 31
0.0
  0
LINE
  5
48
  8
1
 62
     7
 10
238.0
 20
279.49360351987059
 30
0.0
 11
191.49999999999989
 21
279.49360351987059
 31
0.0
  0
LINE
  5
49
  8
1
 62
     7
 10
191.49999999999989
 20
286.98401871576817
 30
0.0
 11
238.0
 21
286.98401871576817
 31
0.0
  0
LINE
  5
4A
  8
1
 62
     7
 10
141.99999999999989
 20
286.98401871576817
 30
0.0
 11
188.49999999999989
 21
286.98401871576817
 31
0.0
  0
LINE
  5
4B
  8
1
 62
     7
 10
188.49999999999989
 20
293.70564403770982
 30
0.0
 11
141.99999999999989
 21
293.70564403770982
 31
0.0
  0
LINE
  5
4C
  8
1
 62
     7
 10
238.0
 20
293.70564403770982
 30
0.0
 11
191.49999999999989
 21
293.70564403770982
 31
0.0
  0
LINE
  5
4D
  8
1
 62
     7
 10
191.49999999999989
 20
299.71194077712562
 30
0.0
 11
238.0
 21
299.71194077712562
 31
0.0
  0
LINE
  5
4E
  8
1
 62
     7
 10
141.99999999999989
 20
299.71194077712562
 30
0.0
 11
188.49999999999989
 21
299.71194077712562
 31
0.0
  0
LINE
  5
4F
  8
1
 62
     7
 10
188.49999999999989
 20
305.0193525366941
 30
0.0
 11
141.99999999999989
 21
305.0193525366941
 31
0.0
  0
LINE
  5
50
  8
1
 62
     7
 10
238.0
 20
305.0193525366941
 30
0.0
 11
191.49999999999989
 21
305.0193525366941
 31
0.0
  0
LINE
  5
51
  8
1
 62
     7
 10
191.49999999999989
 20
309.61143571373691
 30
0.0
 11
238.0
 21
309.61143571373691
 31
0.0
  0
LINE
  5
52
  8
1
 62
     7
 10
141.99999999999989
 20
309.61143571373691
 30
0.0
 11
188.49999999999989
 21
309.61143571373691
 31
0.0
  0
LINE
  5
53
  8
1
 62
     7
 10
188.49999999999989
 20
313.43472901682401
 30
0.0
 11
142.04781899355311
 21
313.43472901682401
 31
0.0
  0
LINE
  5
54
  8
1
 62
     7
 10
191.49999999999989
 20
313.43472901682401
 30
0.0
 11
237.95218100644669
 21
313.43472901682401
 31
0.0
  0
LINE
  5
55
  8
1
  6
DASHDOT
 62
     3
 10
445.0
 20
256.5
 30
0.0
 11
445.0
 21
247.56926529633199
 31
0.0
  0
LINE
  5
56
  8
1
  6
DASHDOT
 62
     3
 10
449.01835196998599
 20
252.0
 30
0.0
 11
440.84419220299287
 21
252.0
 31
0.0
  0
LINE
  5
57
  8
1
 62
     7
 10
239.49999999999989
 20
399.89928204740818
 30
0.0
 11
238.99999999999989
 21
399.89928204740818
 31
0.0
  0
LINE
  5
58
  8
1
 62
     7
 10
140.5
 20
411.89928204740818
 30
0.0
 11
141.0
 21
411.89928204740818
 31
0.0
  0
LINE
  5
59
  8
1
 62
     7
 10
134.0000000000002
 20
401.58678204740829
 30
0.0
 11
134.0000000000002
 21
410.21178204740829
 31
0.0
  0
LINE
  5
5A
  8
1
 62
     7
 10
134.4907477288113
 20
400.14928204740829
 30
0.0
 11
138.50925227118901
 21
400.14928204740829
 31
0.0
  0
LINE
  5
5B
  8
1
 62
     7
 10
134.4907477288113
 20
403.02428204740818
 30
0.0
 11
138.50925227118901
 21
403.02428204740818
 31
0.0
  0
LINE
  5
5C
  8
1
 62
     7
 10
134.4907477288113
 20
408.77428204740818
 30
0.0
 11
138.50925227118901
 21
408.77428204740818
 31
0.0
  0
LINE
  5
5D
  8
1
 62
     7
 10
134.4907477288113
 20
411.64928204740829
 30
0.0
 11
138.50925227118901
 21
411.64928204740829
 31
0.0
  0
LINE
  5
5E
  8
1
 62
     7
 10
134.0000000000002
 20
408.89928204740818
 30
0.0
 11
132.09999999999951
 21
408.89928204740818
 31
0.0
  0
LINE
  5
5F
  8
1
 62
     7
 10
132.09999999999951
 20
408.89928204740818
 30
0.0
 11
131.5
 21
408.29928204740821
 31
0.0
  0
LINE
  5
60
  8
1
 62
     7
 10
131.5
 20
408.29928204740821
 30
0.0
 11
131.5
 21
403.49928204740831
 31
0.0
  0
LINE
  5
61
  8
1
 62
     7
 10
131.5
 20
403.49928204740831
 30
0.0
 11
132.09999999999951
 21
402.89928204740829
 31
0.0
  0
LINE
  5
62
  8
1
 62
     7
 10
132.09999999999951
 20
402.89928204740829
 30
0.0
 11
134.0000000000002
 21
402.89928204740829
 31
0.0
  0
LINE
  5
63
  8
1
 62
     3
 10
134.0000000000002
 20
403.49928204740831
 30
0.0
 11
131.5
 21
403.49928204740831
 31
0.0
  0
LINE
  5
64
  8
1
 62
     7
 10
132.09999999999951
 20
402.89928204740829
 30
0.0
 11
132.09999999999951
 21
408.89928204740818
 31
0.0
  0
LINE
  5
65
  8
1
 62
     3
 10
131.5
 20
408.29928204740821
 30
0.0
 11
134.0000000000002
 21
408.29928204740821
 31
0.0
  0
LINE
  5
66
  8
1
 62
     7
 10
140.5
 20
486.14549407199559
 30
0.0
 11
141.0
 21
486.14549407199559
 31
0.0
  0
LINE
  5
67
  8
1
 62
     7
 10
141.0
 20
474.14549407199559
 30
0.0
 11
140.5
 21
474.14549407199559
 31
0.0
  0
LINE
  5
68
  8
1
 62
     7
 10
134.0000000000002
 20
475.83299407199559
 30
0.0
 11
134.0000000000002
 21
484.45799407199559
 31
0.0
  0
LINE
  5
69
  8
1
 62
     7
 10
138.50925227118901
 20
485.89549407199559
 30
0.0
 11
134.4907477288113
 21
485.89549407199559
 31
0.0
  0
LINE
  5
6A
  8
1
 62
     7
 10
138.50925227118901
 20
483.02049407199559
 30
0.0
 11
134.4907477288113
 21
483.02049407199559
 31
0.0
  0
LINE
  5
6B
  8
1
 62
     7
 10
138.50925227118901
 20
477.27049407199559
 30
0.0
 11
134.4907477288113
 21
477.27049407199559
 31
0.0
  0
LINE
  5
6C
  8
1
 62
     7
 10
138.50925227118901
 20
474.39549407199559
 30
0.0
 11
134.4907477288113
 21
474.39549407199559
 31
0.0
  0
LINE
  5
6D
  8
1
 62
     7
 10
132.09999999999951
 20
477.14549407199559
 30
0.0
 11
134.0000000000002
 21
477.14549407199559
 31
0.0
  0
LINE
  5
6E
  8
1
 62
     7
 10
131.5
 20
477.74549407199572
 30
0.0
 11
132.09999999999951
 21
477.14549407199559
 31
0.0
  0
LINE
  5
6F
  8
1
 62
     7
 10
131.5
 20
482.54549407199562
 30
0.0
 11
131.5
 21
477.74549407199572
 31
0.0
  0
LINE
  5
70
  8
1
 62
     7
 10
132.09999999999951
 20
483.14549407199559
 30
0.0
 11
131.5
 21
482.54549407199562
 31
0.0
  0
LINE
  5
71
  8
1
 62
     7
 10
134.0000000000002
 20
483.14549407199559
 30
0.0
 11
132.09999999999951
 21
483.14549407199559
 31
0.0
  0
LINE
  5
72
  8
1
 62
     3
 10
131.5
 20
482.54549407199562
 30
0.0
 11
134.0000000000002
 21
482.54549407199562
 31
0.0
  0
LINE
  5
73
  8
1
 62
     7
 10
132.09999999999951
 20
477.14549407199559
 30
0.0
 11
132.09999999999951
 21
483.14549407199559
 31
0.0
  0
LINE
  5
74
  8
1
 62
     3
 10
134.0000000000002
 20
477.74549407199572
 30
0.0
 11
131.5
 21
477.74549407199572
 31
0.0
  0
LINE
  5
75
  8
1
 62
     7
 10
238.99999999999989
 20
411.89928204740812
 30
0.0
 11
239.49999999999989
 21
411.89928204740812
 31
0.0
  0
LINE
  5
76
  8
1
 62
     7
 10
139.0
 20
399.79928204740833
 30
0.0
 11
139.0
 21
411.99928204740831
 31
0.0
  0
LINE
  5
77
  8
1
 62
     7
 10
140.5
 20
399.79928204740833
 30
0.0
 11
139.0
 21
399.79928204740833
 31
0.0
  0
LINE
  5
78
  8
1
 62
     7
 10
140.5
 20
411.99928204740831
 30
0.0
 11
140.5
 21
399.79928204740833
 31
0.0
  0
LINE
  5
79
  8
1
 62
     7
 10
139.0
 20
411.99928204740831
 30
0.0
 11
140.5
 21
411.99928204740831
 31
0.0
  0
LINE
  5
7A
  8
1
 62
     7
 10
139.0
 20
404.39928204740818
 30
0.0
 11
140.5
 21
405.89928204740829
 31
0.0
  0
LINE
  5
7B
  8
1
 62
     7
 10
139.0
 20
405.89928204740829
 30
0.0
 11
140.5
 21
407.39928204740818
 31
0.0
  0
LINE
  5
7C
  8
1
 62
     7
 10
243.49999999999989
 20
410.21178204740818
 30
0.0
 11
243.49999999999989
 21
401.58678204740818
 31
0.0
  0
LINE
  5
7D
  8
1
 62
     7
 10
243.0092522711887
 20
411.64928204740818
 30
0.0
 11
239.49999999999989
 21
411.64928204740818
 31
0.0
  0
LINE
  5
7E
  8
1
 62
     7
 10
243.0092522711887
 20
408.77428204740812
 30
0.0
 11
239.49999999999989
 21
408.77428204740812
 31
0.0
  0
LINE
  5
7F
  8
1
 62
     7
 10
243.0092522711887
 20
403.02428204740818
 30
0.0
 11
239.49999999999989
 21
403.02428204740818
 31
0.0
  0
LINE
  5
80
  8
1
 62
     7
 10
243.0092522711887
 20
400.14928204740818
 30
0.0
 11
239.49999999999989
 21
400.14928204740818
 31
0.0
  0
LINE
  5
81
  8
1
 62
     7
 10
238.99999999999989
 20
486.1454940719957
 30
0.0
 11
239.49999999999989
 21
486.1454940719957
 31
0.0
  0
LINE
  5
82
  8
1
 62
     7
 10
239.49999999999989
 20
474.14549407199559
 30
0.0
 11
238.99999999999989
 21
474.14549407199559
 31
0.0
  0
LINE
  5
83
  8
1
 62
     7
 10
139.0
 20
474.04549407199551
 30
0.0
 11
139.0
 21
486.24549407199549
 31
0.0
  0
LINE
  5
84
  8
1
 62
     7
 10
139.0
 20
486.24549407199549
 30
0.0
 11
140.5
 21
486.24549407199549
 31
0.0
  0
LINE
  5
85
  8
1
 62
     7
 10
140.5
 20
486.24549407199549
 30
0.0
 11
140.5
 21
474.04549407199551
 31
0.0
  0
LINE
  5
86
  8
1
 62
     7
 10
140.5
 20
474.04549407199551
 30
0.0
 11
139.0
 21
474.04549407199551
 31
0.0
  0
LINE
  5
87
  8
1
 62
     7
 10
140.5
 20
480.14549407199559
 30
0.0
 11
139.0
 21
481.64549407199559
 31
0.0
  0
LINE
  5
88
  8
1
 62
     7
 10
140.5
 20
478.64549407199559
 30
0.0
 11
139.0
 21
480.14549407199559
 31
0.0
  0
LINE
  5
89
  8
1
 62
     7
 10
243.49999999999989
 20
484.45799407199559
 30
0.0
 11
243.49999999999989
 21
475.83299407199559
 31
0.0
  0
LINE
  5
8A
  8
1
 62
     7
 10
239.49999999999989
 20
474.39549407199559
 30
0.0
 11
243.0092522711887
 21
474.39549407199559
 31
0.0
  0
LINE
  5
8B
  8
1
 62
     7
 10
239.49999999999989
 20
477.27049407199559
 30
0.0
 11
243.0092522711887
 21
477.27049407199559
 31
0.0
  0
LINE
  5
8C
  8
1
 62
     7
 10
239.49999999999989
 20
483.02049407199559
 30
0.0
 11
243.0092522711887
 21
483.02049407199559
 31
0.0
  0
LINE
  5
8D
  8
1
 62
     7
 10
239.49999999999989
 20
485.89549407199559
 30
0.0
 11
243.0092522711887
 21
485.89549407199559
 31
0.0
  0
LINE
  5
8E
  8
1
 62
     7
 10
67.999999999999957
 20
261.5
 30
0.0
 11
67.999999999999957
 21
245.5
 31
0.0
  0
LINE
  5
8F
  8
1
 62
     7
 10
312.0
 20
245.5
 30
0.0
 11
312.0
 21
261.5
 31
0.0
  0
LINE
  5
90
  8
1
  6
DASHDOT
 62
     3
 10
84.799999999999955
 20
252.0
 30
0.0
 11
57.999999999999929
 21
252.0
 31
0.0
  0
LINE
  5
91
  8
1
  6
DASHDOT
 62
     3
 10
67.999999999999957
 20
443.02238805970188
 30
0.0
 11
57.999999999999929
 21
443.02238805970188
 31
0.0
  0
LINE
  5
92
  8
1
 62
     7
 10
140.5
 20
295.12310601229359
 30
0.0
 11
141.0
 21
295.12310601229359
 31
0.0
  0
LINE
  5
93
  8
1
 62
     7
 10
238.99999999999989
 20
295.12310601229382
 30
0.0
 11
239.49999999999989
 21
295.12310601229382
 31
0.0
  0
LINE
  5
94
  8
1
 62
     7
 10
141.0
 20
283.12310601229359
 30
0.0
 11
140.5
 21
283.12310601229359
 31
0.0
  0
LINE
  5
95
  8
1
 62
     7
 10
134.0000000000002
 20
284.81060601229359
 30
0.0
 11
134.0000000000002
 21
293.43560601229359
 31
0.0
  0
LINE
  5
96
  8
1
 62
     7
 10
138.50925227118901
 20
294.87310601229359
 30
0.0
 11
134.4907477288113
 21
294.87310601229359
 31
0.0
  0
LINE
  5
97
  8
1
 62
     7
 10
138.50925227118901
 20
291.99810601229359
 30
0.0
 11
134.4907477288113
 21
291.99810601229359
 31
0.0
  0
LINE
  5
98
  8
1
 62
     7
 10
138.50925227118901
 20
286.24810601229359
 30
0.0
 11
134.4907477288113
 21
286.24810601229359
 31
0.0
  0
LINE
  5
99
  8
1
 62
     7
 10
138.50925227118901
 20
283.37310601229359
 30
0.0
 11
134.4907477288113
 21
283.37310601229359
 31
0.0
  0
LINE
  5
9A
  8
1
 62
     7
 10
132.09999999999951
 20
286.12310601229359
 30
0.0
 11
134.0000000000002
 21
286.12310601229359
 31
0.0
  0
LINE
  5
9B
  8
1
 62
     7
 10
131.5
 20
286.72310601229373
 30
0.0
 11
132.09999999999951
 21
286.12310601229359
 31
0.0
  0
LINE
  5
9C
  8
1
 62
     7
 10
131.5
 20
291.52310601229362
 30
0.0
 11
131.5
 21
286.72310601229373
 31
0.0
  0
LINE
  5
9D
  8
1
 62
     7
 10
132.09999999999951
 20
292.12310601229359
 30
0.0
 11
131.5
 21
291.52310601229362
 31
0.0
  0
LINE
  5
9E
  8
1
 62
     7
 10
134.0000000000002
 20
292.12310601229359
 30
0.0
 11
132.09999999999951
 21
292.12310601229359
 31
0.0
  0
LINE
  5
9F
  8
1
 62
     3
 10
131.5
 20
291.52310601229362
 30
0.0
 11
134.0000000000002
 21
291.52310601229362
 31
0.0
  0
LINE
  5
A0
  8
1
 62
     7
 10
132.09999999999951
 20
286.12310601229359
 30
0.0
 11
132.09999999999951
 21
292.12310601229359
 31
0.0
  0
LINE
  5
A1
  8
1
 62
     3
 10
134.0000000000002
 20
286.72310601229373
 30
0.0
 11
131.5
 21
286.72310601229373
 31
0.0
  0
LINE
  5
A2
  8
1
 62
     7
 10
239.49999999999989
 20
283.12310601229359
 30
0.0
 11
238.99999999999989
 21
283.12310601229359
 31
0.0
  0
LINE
  5
A3
  8
1
 62
     7
 10
139.0
 20
283.02310601229362
 30
0.0
 11
139.0
 21
295.22310601229373
 31
0.0
  0
LINE
  5
A4
  8
1
 62
     7
 10
139.0
 20
295.22310601229373
 30
0.0
 11
140.5
 21
295.22310601229373
 31
0.0
  0
LINE
  5
A5
  8
1
 62
     7
 10
140.5
 20
295.22310601229373
 30
0.0
 11
140.5
 21
283.02310601229362
 31
0.0
  0
LINE
  5
A6
  8
1
 62
     7
 10
140.5
 20
283.02310601229362
 30
0.0
 11
139.0
 21
283.02310601229362
 31
0.0
  0
LINE
  5
A7
  8
1
 62
     7
 10
140.5
 20
289.12310601229359
 30
0.0
 11
139.0
 21
290.62310601229359
 31
0.0
  0
LINE
  5
A8
  8
1
 62
     7
 10
140.5
 20
287.62310601229359
 30
0.0
 11
139.0
 21
289.12310601229359
 31
0.0
  0
LINE
  5
A9
  8
1
 62
     7
 10
243.49999999999989
 20
293.43560601229359
 30
0.0
 11
243.49999999999989
 21
284.81060601229359
 31
0.0
  0
LINE
  5
AA
  8
1
 62
     7
 10
239.49999999999989
 20
283.37310601229359
 30
0.0
 11
243.0092522711887
 21
283.37310601229359
 31
0.0
  0
LINE
  5
AB
  8
1
 62
     7
 10
239.49999999999989
 20
286.24810601229359
 30
0.0
 11
243.0092522711887
 21
286.24810601229359
 31
0.0
  0
LINE
  5
AC
  8
1
 62
     7
 10
239.49999999999989
 20
291.99810601229359
 30
0.0
 11
243.0092522711887
 21
291.99810601229359
 31
0.0
  0
LINE
  5
AD
  8
1
 62
     7
 10
239.49999999999989
 20
294.87310601229359
 30
0.0
 11
243.0092522711887
 21
294.87310601229359
 31
0.0
  0
LINE
  5
AE
  8
1
 62
     7
 10
68.999999999999943
 20
450.52238805970211
 30
0.0
 11
68.999999999999943
 21
445.52238805970183
 31
0.0
  0
LINE
  5
AF
  8
1
 62
     7
 10
67.999999999999957
 20
436.522388059702
 30
0.0
 11
67.999999999999957
 21
449.52238805970222
 31
0.0
  0
LINE
  5
B0
  8
1
 62
     7
 10
67.999999999999957
 20
445.52238805970222
 30
0.0
 11
90.499999999999943
 21
445.52238805970222
 31
0.0
  0
LINE
  5
B1
  8
1
 62
     7
 10
67.999999999999957
 20
440.52238805970183
 30
0.0
 11
90.499999999999943
 21
440.52238805970183
 31
0.0
  0
LINE
  5
B2
  8
1
 62
     7
 10
68.999999999999943
 20
440.52238805970183
 30
0.0
 11
68.999999999999943
 21
435.52238805970188
 31
0.0
  0
LINE
  5
B3
  8
1
 62
     7
 10
96.799999999999969
 20
433.022388059702
 30
0.0
 11
94.999999999999957
 21
433.022388059702
 31
0.0
  0
LINE
  5
B4
  8
1
 62
     7
 10
96.799999999999969
 20
453.02238805970211
 30
0.0
 11
94.999999999999957
 21
453.02238805970211
 31
0.0
  0
LINE
  5
B5
  8
1
 62
     7
 10
96.799999999999969
 20
455.22238805970193
 30
0.0
 11
96.799999999999969
 21
429.82442908856927
 31
0.0
  0
LINE
  5
B6
  8
1
 62
     7
 10
96.799999999999969
 20
429.82442908856927
 30
0.0
 11
97.999999999999972
 21
429.82442908856927
 31
0.0
  0
LINE
  5
B7
  8
1
 62
     7
 10
97.999999999999972
 20
455.22238805970193
 30
0.0
 11
96.799999999999969
 21
455.22238805970193
 31
0.0
  0
LINE
  5
B8
  8
1
 62
     7
 10
94.999999999999957
 20
450.52238805970211
 30
0.0
 11
68.999999999999943
 21
450.52238805970211
 31
0.0
  0
LINE
  5
B9
  8
1
 62
     7
 10
68.999999999999943
 20
435.52238805970188
 30
0.0
 11
94.999999999999957
 21
435.52238805970188
 31
0.0
  0
LINE
  5
BA
  8
1
 62
     7
 10
94.999999999999957
 20
433.022388059702
 30
0.0
 11
94.999999999999957
 21
453.02238805970211
 31
0.0
  0
LINE
  5
BB
  8
1
 62
     7
 10
68.999999999999943
 20
435.52238805970188
 30
0.0
 11
67.999999999999957
 21
436.522388059702
 31
0.0
  0
LINE
  5
BC
  8
1
 62
     7
 10
67.999999999999957
 20
449.52238805970222
 30
0.0
 11
68.999999999999943
 21
450.52238805970211
 31
0.0
  0
LINE
  5
BD
  8
1
 62
     7
 10
311.0
 20
445.52238805970183
 30
0.0
 11
311.0
 21
450.52238805970211
 31
0.0
  0
LINE
  5
BE
  8
1
 62
     7
 10
312.0
 20
449.52238805970222
 30
0.0
 11
312.0
 21
436.522388059702
 31
0.0
  0
LINE
  5
BF
  8
1
 62
     7
 10
289.49999999999989
 20
445.52238805970222
 30
0.0
 11
312.0
 21
445.52238805970222
 31
0.0
  0
LINE
  5
C0
  8
1
 62
     7
 10
289.49999999999989
 20
440.52238805970183
 30
0.0
 11
312.0
 21
440.52238805970183
 31
0.0
  0
LINE
  5
C1
  8
1
 62
     7
 10
311.0
 20
435.52238805970188
 30
0.0
 11
311.0
 21
440.52238805970183
 31
0.0
  0
LINE
  5
C2
  8
1
  6
DASHDOT
 62
     3
 10
321.99999999999977
 20
443.02238805970183
 30
0.0
 11
312.0
 21
443.02238805970183
 31
0.0
  0
LINE
  5
C3
  8
1
 62
     7
 10
96.799999999999969
 20
242.0
 30
0.0
 11
94.999999999999957
 21
242.0
 31
0.0
  0
LINE
  5
C4
  8
1
 62
     7
 10
96.799999999999969
 20
262.0
 30
0.0
 11
94.999999999999957
 21
262.0
 31
0.0
  0
LINE
  5
C5
  8
1
 62
     7
 10
96.799999999999969
 20
264.19999999999987
 30
0.0
 11
96.799999999999969
 21
238.80204102886731
 31
0.0
  0
LINE
  5
C6
  8
1
 62
     7
 10
96.799999999999969
 20
238.80204102886731
 30
0.0
 11
97.999999999999972
 21
238.80204102886731
 31
0.0
  0
LINE
  5
C7
  8
1
 62
     7
 10
97.999999999999972
 20
264.19999999999987
 30
0.0
 11
96.799999999999969
 21
264.19999999999987
 31
0.0
  0
LINE
  5
C8
  8
1
 62
     7
 10
92.999999999999943
 20
261.5
 30
0.0
 11
67.999999999999957
 21
261.5
 31
0.0
  0
LINE
  5
C9
  8
1
  6
DASHED
 62
     7
 10
67.999999999999957
 20
256.5
 30
0.0
 11
92.999999999999943
 21
256.5
 31
0.0
  0
LINE
  5
CA
  8
1
  6
DASHED
 62
     7
 10
92.999999999999943
 20
256.5
 30
0.0
 11
92.999999999999943
 21
259.5
 31
0.0
  0
LINE
  5
CB
  8
1
 62
     7
 10
92.999999999999943
 20
259.5
 30
0.0
 11
92.999999999999943
 21
261.5
 31
0.0
  0
LINE
  5
CC
  8
1
 62
     7
 10
94.999999999999957
 20
259.5
 30
0.0
 11
68.999999999999943
 21
259.5
 31
0.0
  0
LINE
  5
CD
  8
1
 62
     7
 10
68.999999999999943
 20
259.5
 30
0.0
 11
68.999999999999943
 21
244.49999999999989
 31
0.0
  0
LINE
  5
CE
  8
1
 62
     7
 10
68.999999999999943
 20
244.49999999999989
 30
0.0
 11
94.999999999999957
 21
244.49999999999989
 31
0.0
  0
LINE
  5
CF
  8
1
 62
     7
 10
94.999999999999957
 20
242.0
 30
0.0
 11
94.999999999999957
 21
262.0
 31
0.0
  0
LINE
  5
D0
  8
1
 62
     7
 10
68.999999999999943
 20
244.49999999999989
 30
0.0
 11
67.999999999999957
 21
245.5
 31
0.0
  0
LINE
  5
D1
  8
1
 62
     7
 10
67.999999999999957
 20
258.5
 30
0.0
 11
68.999999999999943
 21
259.5
 31
0.0
  0
LINE
  5
D2
  8
1
  6
DASHED
 62
     7
 10
81.799999999999969
 20
250.09999999999991
 30
0.0
 11
67.999999999999957
 21
250.09999999999991
 31
0.0
  0
LINE
  5
D3
  8
1
  6
DASHED
 62
     7
 10
81.799999999999969
 20
253.90000000000001
 30
0.0
 11
81.799999999999969
 21
250.09999999999991
 31
0.0
  0
LINE
  5
D4
  8
1
  6
DASHED
 62
     7
 10
67.999999999999957
 20
253.90000000000001
 30
0.0
 11
81.799999999999969
 21
253.90000000000001
 31
0.0
  0
LINE
  5
D5
  8
1
  6
DASHED
 62
     7
 10
83.243375672974025
 20
252.0
 30
0.0
 11
81.799999999999969
 21
250.09999999999991
 31
0.0
  0
LINE
  5
D6
  8
1
  6
DASHED
 62
     7
 10
81.799999999999969
 20
253.90000000000001
 30
0.0
 11
83.243375672974025
 21
252.0
 31
0.0
  0
LINE
  5
D7
  8
1
  6
DASHED
 62
     3
 10
77.999999999999957
 20
249.5
 30
0.0
 11
68.0
 21
249.5
 31
0.0
  0
LINE
  5
D8
  8
1
  6
DASHED
 62
     3
 10
77.999999999999957
 20
254.49999999999989
 30
0.0
 11
77.999999999999957
 21
249.5
 31
0.0
  0
LINE
  5
D9
  8
1
  6
DASHED
 62
     3
 10
68.0
 20
254.49999999999989
 30
0.0
 11
77.999999999999957
 21
254.49999999999989
 31
0.0
  0
LINE
  5
DA
  8
1
  6
DASHED
 62
     3
 10
79.039230484541235
 20
250.09999999999991
 30
0.0
 11
77.999999999999957
 21
249.5
 31
0.0
  0
LINE
  5
DB
  8
1
  6
DASHED
 62
     3
 10
79.039230484541235
 20
253.90000000000001
 30
0.0
 11
77.999999999999957
 21
254.49999999999989
 31
0.0
  0
LINE
  5
DC
  8
1
 62
     7
 10
285.0
 20
433.022388059702
 30
0.0
 11
283.19999999999987
 21
433.022388059702
 31
0.0
  0
LINE
  5
DD
  8
1
 62
     7
 10
285.0
 20
453.02238805970211
 30
0.0
 11
283.19999999999987
 21
453.02238805970211
 31
0.0
  0
LINE
  5
DE
  8
1
 62
     7
 10
283.19999999999987
 20
429.82442908856927
 30
0.0
 11
283.19999999999987
 21
455.22238805970193
 31
0.0
  0
LINE
  5
DF
  8
1
 62
     7
 10
282.0
 20
429.82442908856927
 30
0.0
 11
283.19999999999987
 21
429.82442908856927
 31
0.0
  0
LINE
  5
E0
  8
1
 62
     7
 10
283.19999999999987
 20
455.22238805970193
 30
0.0
 11
282.0
 21
455.22238805970193
 31
0.0
  0
LINE
  5
E1
  8
1
 62
     7
 10
311.0
 20
450.52238805970211
 30
0.0
 11
285.0
 21
450.52238805970211
 31
0.0
  0
LINE
  5
E2
  8
1
 62
     7
 10
285.0
 20
435.52238805970188
 30
0.0
 11
311.0
 21
435.52238805970188
 31
0.0
  0
LINE
  5
E3
  8
1
 62
     7
 10
285.0
 20
453.02238805970211
 30
0.0
 11
285.0
 21
433.022388059702
 31
0.0
  0
LINE
  5
E4
  8
1
 62
     7
 10
312.0
 20
436.522388059702
 30
0.0
 11
311.0
 21
435.52238805970188
 31
0.0
  0
LINE
  5
E5
  8
1
 62
     7
 10
311.0
 20
450.52238805970211
 30
0.0
 11
312.0
 21
449.52238805970222
 31
0.0
  0
LINE
  5
E6
  8
1
 62
     7
 10
188.49999999999989
 20
380.02238805970183
 30
0.0
 11
188.49999999999989
 21
506.02238805970211
 31
0.0
  0
LINE
  5
E7
  8
1
 62
     7
 10
122.9999999999999
 20
481.48061093292432
 30
0.0
 11
122.9999999999999
 21
404.56416518647961
 31
0.0
  0
LINE
  5
E8
  8
1
 62
     7
 10
142.00146751066629
 20
503.11621188615197
 30
0.0
 11
130.36918048311961
 21
504.55864664122993
 31
0.0
  0
LINE
  5
E9
  8
1
 62
     7
 10
153.0
 20
511.02238805970171
 30
0.0
 11
107.0
 21
511.02238805970171
 31
0.0
  0
LINE
  5
EA
  8
1
 62
     7
 10
146.6845902415599
 20
508.58144613343683
 30
0.0
 11
127.0
 21
511.02238805970171
 31
0.0
  0
LINE
  5
EB
  8
1
 62
     7
 10
148.0
 20
506.02238805970183
 30
0.0
 11
148.0
 21
507.09284731484217
 31
0.0
  0
LINE
  5
EC
  8
1
 62
     7
 10
97.999999999999886
 20
416.02238805970183
 30
0.0
 11
97.999999999999886
 21
470.02238805970211
 31
0.0
  0
LINE
  5
ED
  8
1
 62
     7
 10
120.9999999999999
 20
472.02238805970211
 30
0.0
 11
99.999999999999872
 21
472.02238805970211
 31
0.0
  0
LINE
  5
EE
  8
1
 62
     7
 10
124.4910134014407
 20
483.41476000744962
 30
0.0
 11
140.5089865985592
 21
487.63001611195432
 31
0.0
  0
LINE
  5
EF
  8
1
 62
     7
 10
142.0
 20
503.11875680648211
 30
0.0
 11
142.0
 21
382.9260193129216
 31
0.0
  0
LINE
  5
F0
  8
1
 62
     7
 10
145.0
 20
506.02238805970183
 30
0.0
 11
188.49999999999989
 21
506.02238805970211
 31
0.0
  0
LINE
  5
F1
  8
1
 62
     7
 10
127.0
 20
506.32238805970178
 30
0.0
 11
127.0
 21
503.86721294558481
 31
0.0
  0
LINE
  5
F2
  8
1
  6
DASHDOT
 62
     3
 10
115.0
 20
505.27238805970183
 30
0.0
 11
115.0
 21
490.77238805970183
 31
0.0
  0
LINE
  5
F3
  8
1
 62
     7
 10
142.0
 20
489.02238805970183
 30
0.0
 11
115.0
 21
489.02238805970183
 31
0.0
  0
LINE
  5
F4
  8
1
 62
     7
 10
115.0
 20
507.02238805970183
 30
0.0
 11
126.0
 21
507.02238805970183
 31
0.0
  0
LINE
  5
F5
  8
1
  6
DASHDOT
 62
     3
 10
122.2499999999999
 20
498.02238805970183
 30
0.0
 11
107.75
 21
498.02238805970183
 31
0.0
  0
LINE
  5
F6
  8
1
 62
     7
 10
153.0
 20
511.02238805970171
 30
0.0
 11
153.0
 21
506.02238805970183
 31
0.0
  0
LINE
  5
F7
  8
1
 62
     7
 10
102.0
 20
506.02238805970183
 30
0.0
 11
102.0
 21
475.52238805970183
 31
0.0
  0
LINE
  5
F8
  8
1
 62
     7
 10
127.0
 20
510.02238805970183
 30
0.0
 11
127.0
 21
509.02238805970183
 31
0.0
  0
LINE
  5
F9
  8
1
 62
     7
 10
277.99999999999977
 20
475.52238805970183
 30
0.0
 11
277.99999999999977
 21
506.02238805970183
 31
0.0
  0
LINE
  5
FA
  8
1
 62
     7
 10
226.9999999999998
 20
506.02238805970183
 30
0.0
 11
226.9999999999998
 21
511.02238805970171
 31
0.0
  0
LINE
  5
FB
  8
1
  6
DASHDOT
 62
     3
 10
272.24999999999977
 20
498.02238805970183
 30
0.0
 11
257.74999999999977
 21
498.02238805970183
 31
0.0
  0
LINE
  5
FC
  8
1
 62
     7
 10
253.9999999999998
 20
507.02238805970183
 30
0.0
 11
264.99999999999977
 21
507.02238805970183
 31
0.0
  0
LINE
  5
FD
  8
1
 62
     7
 10
264.99999999999977
 20
489.02238805970183
 30
0.0
 11
237.9999999999998
 21
489.02238805970183
 31
0.0
  0
LINE
  5
FE
  8
1
  6
DASHDOT
 62
     3
 10
264.99999999999977
 20
490.77238805970183
 30
0.0
 11
264.99999999999977
 21
505.27238805970183
 31
0.0
  0
LINE
  5
FF
  8
1
 62
     7
 10
252.9999999999998
 20
503.86721294558481
 30
0.0
 11
252.9999999999998
 21
506.32238805970178
 31
0.0
  0
LINE
  5
100
  8
1
 62
     7
 10
191.5
 20
506.02238805970183
 30
0.0
 11
234.9999999999996
 21
506.02238805970183
 31
0.0
  0
LINE
  5
101
  8
1
 62
     7
 10
237.9999999999998
 20
382.9260193129216
 30
0.0
 11
237.9999999999998
 21
503.11875680648211
 31
0.0
  0
LINE
  5
102
  8
1
 62
     7
 10
239.49101340144051
 20
487.63001611195432
 30
0.0
 11
255.50898659855909
 21
483.41476000744927
 31
0.0
  0
LINE
  5
103
  8
1
 62
     7
 10
279.99999999999989
 20
472.02238805970183
 30
0.0
 11
259.0
 21
472.02238805970183
 31
0.0
  0
LINE
  5
104
  8
1
 62
     7
 10
281.99999999999977
 20
470.02238805970183
 30
0.0
 11
281.99999999999977
 21
416.02238805970183
 31
0.0
  0
LINE
  5
105
  8
1
 62
     7
 10
231.9999999999998
 20
507.09284731484217
 30
0.0
 11
231.9999999999998
 21
506.02238805970183
 31
0.0
  0
LINE
  5
106
  8
1
 62
     7
 10
252.9999999999998
 20
511.02238805970171
 30
0.0
 11
233.31540975844001
 21
508.5814461334366
 31
0.0
  0
LINE
  5
107
  8
1
 62
     7
 10
272.99999999999977
 20
511.02238805970171
 30
0.0
 11
226.9999999999998
 21
511.02238805970171
 31
0.0
  0
LINE
  5
108
  8
1
 62
     7
 10
249.63081951688011
 20
504.55864664122959
 30
0.0
 11
237.9985324893334
 21
503.11621188615192
 31
0.0
  0
LINE
  5
109
  8
1
 62
     7
 10
257.0
 20
404.56416518647961
 30
0.0
 11
257.0
 21
481.48061093292421
 31
0.0
  0
LINE
  5
10A
  8
1
 62
     7
 10
188.49999999999989
 20
503.02238805970183
 30
0.0
 11
191.49999999999989
 21
503.02238805970183
 31
0.0
  0
LINE
  5
10B
  8
1
 62
     7
 10
252.9999999999998
 20
509.02238805970183
 30
0.0
 11
252.9999999999998
 21
510.02238805970183
 31
0.0
  0
LINE
  5
10C
  8
1
 62
     7
 10
188.49999999999989
 20
424.02238805970183
 30
0.0
 11
144.0
 21
424.02238805970183
 31
0.0
  0
LINE
  5
10D
  8
1
 62
     7
 10
188.49999999999989
 20
415.52878453983141
 30
0.0
 11
144.0
 21
415.52878453983141
 31
0.0
  0
LINE
  5
10E
  8
1
 62
     7
 10
188.49999999999989
 20
408.03836934393388
 30
0.0
 11
144.0
 21
408.03836934393388
 31
0.0
  0
LINE
  5
10F
  8
1
 62
     7
 10
188.49999999999989
 20
401.31674402199201
 30
0.0
 11
144.0
 21
401.31674402199201
 31
0.0
  0
LINE
  5
110
  8
1
 62
     7
 10
188.49999999999989
 20
395.31044728257638
 30
0.0
 11
144.0
 21
395.31044728257638
 31
0.0
  0
LINE
  5
111
  8
1
 62
     7
 10
188.49999999999989
 20
390.00303552300761
 30
0.0
 11
144.0
 21
390.00303552300761
 31
0.0
  0
LINE
  5
112
  8
1
 62
     7
 10
188.49999999999989
 20
385.41095234596457
 30
0.0
 11
144.0
 21
385.41095234596457
 31
0.0
  0
LINE
  5
113
  8
1
 62
     7
 10
188.49999999999989
 20
381.58765904287759
 30
0.0
 11
144.0
 21
381.58765904287759
 31
0.0
  0
LINE
  5
114
  8
1
 62
     7
 10
130.36918048311961
 20
381.48612947817389
 30
0.0
 11
142.00146751066629
 21
382.92856423325168
 31
0.0
  0
LINE
  5
115
  8
1
 62
     7
 10
127.0
 20
375.02238805970183
 30
0.0
 11
146.6845902415599
 21
377.46332998596699
 31
0.0
  0
LINE
  5
116
  8
1
 62
     7
 10
148.0
 20
378.95192880456159
 30
0.0
 11
148.0
 21
380.02238805970183
 31
0.0
  0
LINE
  5
117
  8
1
 62
     7
 10
99.999999999999872
 20
414.02238805970183
 30
0.0
 11
120.9999999999999
 21
414.02238805970183
 31
0.0
  0
LINE
  5
118
  8
1
 62
     7
 10
140.5089865985592
 20
398.41476000744927
 30
0.0
 11
124.4910134014407
 21
402.63001611195432
 31
0.0
  0
LINE
  5
119
  8
1
 62
     7
 10
188.49999999999989
 20
380.02238805970183
 30
0.0
 11
145.0
 21
380.02238805970183
 31
0.0
  0
LINE
  5
11A
  8
1
 62
     7
 10
127.0
 20
382.1775631738189
 30
0.0
 11
127.0
 21
379.72238805970193
 31
0.0
  0
LINE
  5
11B
  8
1
  6
DASHDOT
 62
     3
 10
115.0
 20
395.27238805970183
 30
0.0
 11
115.0
 21
380.77238805970183
 31
0.0
  0
LINE
  5
11C
  8
1
 62
     7
 10
115.0
 20
397.02238805970183
 30
0.0
 11
142.0
 21
397.02238805970183
 31
0.0
  0
LINE
  5
11D
  8
1
 62
     7
 10
126.0
 20
379.02238805970183
 30
0.0
 11
115.0
 21
379.02238805970183
 31
0.0
  0
LINE
  5
11E
  8
1
  6
DASHDOT
 62
     3
 10
107.75
 20
388.02238805970183
 30
0.0
 11
122.2499999999999
 21
388.02238805970183
 31
0.0
  0
LINE
  5
11F
  8
1
 62
     7
 10
153.0
 20
380.02238805970183
 30
0.0
 11
153.0
 21
375.02238805970183
 31
0.0
  0
LINE
  5
120
  8
1
 62
     7
 10
102.0
 20
410.52238805970183
 30
0.0
 11
102.0
 21
380.02238805970183
 31
0.0
  0
LINE
  5
121
  8
1
 62
     7
 10
107.0
 20
375.02238805970183
 30
0.0
 11
153.0
 21
375.02238805970183
 31
0.0
  0
LINE
  5
122
  8
1
 62
     7
 10
127.0
 20
377.02238805970183
 30
0.0
 11
127.0
 21
376.02238805970183
 31
0.0
  0
LINE
  5
123
  8
1
 62
     7
 10
277.99999999999977
 20
380.02238805970183
 30
0.0
 11
277.99999999999977
 21
410.52238805970183
 31
0.0
  0
LINE
  5
124
  8
1
 62
     7
 10
226.9999999999998
 20
375.02238805970183
 30
0.0
 11
226.9999999999998
 21
380.02238805970183
 31
0.0
  0
LINE
  5
125
  8
1
  6
DASHDOT
 62
     3
 10
257.74999999999977
 20
388.02238805970183
 30
0.0
 11
272.24999999999977
 21
388.02238805970183
 31
0.0
  0
LINE
  5
126
  8
1
 62
     7
 10
264.99999999999977
 20
379.02238805970183
 30
0.0
 11
253.9999999999998
 21
379.02238805970183
 31
0.0
  0
LINE
  5
127
  8
1
 62
     7
 10
237.9999999999998
 20
397.02238805970183
 30
0.0
 11
264.99999999999977
 21
397.02238805970183
 31
0.0
  0
LINE
  5
128
  8
1
  6
DASHDOT
 62
     3
 10
264.99999999999977
 20
380.77238805970183
 30
0.0
 11
264.99999999999977
 21
395.27238805970183
 31
0.0
  0
LINE
  5
129
  8
1
 62
     7
 10
252.9999999999998
 20
379.72238805970181
 30
0.0
 11
252.9999999999998
 21
382.1775631738189
 31
0.0
  0
LINE
  5
12A
  8
1
 62
     7
 10
234.9999999999996
 20
380.02238805970183
 30
0.0
 11
191.5
 21
380.02238805970183
 31
0.0
  0
LINE
  5
12B
  8
1
 62
     7
 10
255.50898659855909
 20
402.63001611195432
 30
0.0
 11
239.49101340144051
 21
398.41476000744927
 31
0.0
  0
LINE
  5
12C
  8
1
 62
     7
 10
259.0
 20
414.02238805970183
 30
0.0
 11
279.99999999999989
 21
414.02238805970183
 31
0.0
  0
LINE
  5
12D
  8
1
 62
     7
 10
231.9999999999998
 20
380.02238805970183
 30
0.0
 11
231.9999999999998
 21
378.95192880456159
 31
0.0
  0
LINE
  5
12E
  8
1
 62
     7
 10
233.31540975844001
 20
377.46332998596699
 30
0.0
 11
252.9999999999998
 21
375.02238805970183
 31
0.0
  0
LINE
  5
12F
  8
1
 62
     7
 10
226.9999999999998
 20
375.02238805970183
 30
0.0
 11
272.99999999999977
 21
375.02238805970183
 31
0.0
  0
LINE
  5
130
  8
1
 62
     7
 10
237.9985324893334
 20
382.92856423325168
 30
0.0
 11
249.63081951688011
 21
381.48612947817412
 31
0.0
  0
LINE
  5
131
  8
1
 62
     7
 10
235.9999999999998
 20
381.58765904287782
 30
0.0
 11
191.5
 21
381.58765904287782
 31
0.0
  0
LINE
  5
132
  8
1
 62
     7
 10
235.9999999999998
 20
385.41095234596457
 30
0.0
 11
191.5
 21
385.41095234596457
 31
0.0
  0
LINE
  5
133
  8
1
 62
     7
 10
235.9999999999998
 20
390.0030355230075
 30
0.0
 11
191.5
 21
390.0030355230075
 31
0.0
  0
LINE
  5
134
  8
1
 62
     7
 10
235.9999999999998
 20
395.31044728257638
 30
0.0
 11
191.5
 21
395.31044728257638
 31
0.0
  0
LINE
  5
135
  8
1
 62
     7
 10
235.9999999999998
 20
401.31674402199201
 30
0.0
 11
191.5
 21
401.31674402199201
 31
0.0
  0
LINE
  5
136
  8
1
 62
     7
 10
235.9999999999998
 20
408.03836934393388
 30
0.0
 11
191.5
 21
408.03836934393388
 31
0.0
  0
LINE
  5
137
  8
1
 62
     7
 10
235.9999999999998
 20
415.52878453983141
 30
0.0
 11
191.5
 21
415.52878453983141
 31
0.0
  0
LINE
  5
138
  8
1
 62
     7
 10
235.9999999999998
 20
424.02238805970183
 30
0.0
 11
191.5
 21
424.02238805970183
 31
0.0
  0
LINE
  5
139
  8
1
 62
     7
 10
191.49999999999989
 20
383.02238805970183
 30
0.0
 11
188.49999999999989
 21
383.02238805970183
 31
0.0
  0
LINE
  5
13A
  8
1
 62
     7
 10
191.5
 20
380.02238805970183
 30
0.0
 11
191.5
 21
506.02238805970183
 31
0.0
  0
LINE
  5
13B
  8
1
 62
     7
 10
252.9999999999998
 20
376.02238805970183
 30
0.0
 11
252.9999999999998
 21
377.02238805970183
 31
0.0
  0
LINE
  5
13C
  8
1
 62
     7
 10
142.0
 20
209.71428571428561
 30
0.0
 11
141.99999999999989
 21
313.00000000000011
 31
0.0
  0
LINE
  5
13D
  8
1
 62
     7
 10
123.0
 20
213.5417771267779
 30
0.0
 11
123.0
 21
290.45822287322233
 31
0.0
  0
LINE
  5
13E
  8
1
  6
DASHED
 62
     7
 10
502.99999999999977
 20
199.0
 30
0.0
 11
502.99999999999977
 21
228.4000000000002
 31
0.0
  0
LINE
  5
13F
  8
1
 62
     7
 10
191.49999999999989
 20
190.0
 30
0.0
 11
191.49999999999989
 21
201.50000000000011
 31
0.0
  0
LINE
  5
140
  8
1
 62
     7
 10
188.49999999999989
 20
190.0
 30
0.0
 11
188.49999999999989
 21
201.50000000000011
 31
0.0
  0
LINE
  5
141
  8
1
 62
     7
 10
191.49999999999989
 20
226.50000000000011
 30
0.0
 11
191.49999999999989
 21
315.00000000000011
 31
0.0
  0
LINE
  5
142
  8
1
 62
     7
 10
256.99999999999989
 20
290.45822287322233
 30
0.0
 11
257.0
 21
213.37359819648981
 31
0.0
  0
LINE
  5
143
  8
1
 62
     7
 10
239.4910134014406
 20
296.60762805225249
 30
0.0
 11
255.50898659855909
 21
292.39237194774762
 31
0.0
  0
LINE
  5
144
  8
1
 62
     7
 10
240.77692307692311
 20
207.73076923076911
 30
0.0
 11
255.5089865985592
 21
211.60762805225249
 31
0.0
  0
LINE
  5
145
  8
1
 62
     7
 10
239.49999999999989
 20
208.87689398770621
 30
0.0
 11
239.1723484172112
 21
208.87689398770621
 31
0.0
  0
LINE
  5
146
  8
1
 62
     7
 10
231.99999999999989
 20
215.5438536858754
 30
0.0
 11
232.0
 21
231.0
 31
0.0
  0
LINE
  5
147
  8
1
 62
     7
 10
234.0
 20
233.0
 30
0.0
 11
236.0
 21
233.0
 31
0.0
  0
LINE
  5
148
  8
1
 62
     7
 10
238.99999999999989
 20
220.87689398770621
 30
0.0
 11
239.49999999999989
 21
220.87689398770621
 31
0.0
  0
LINE
  5
149
  8
1
 62
     7
 10
140.82765158278869
 20
208.87689398770621
 30
0.0
 11
140.5
 21
208.87689398770621
 31
0.0
  0
LINE
  5
14A
  8
1
 62
     7
 10
124.4910134014407
 20
211.60762805225249
 30
0.0
 11
139.22307692307689
 21
207.73076923076911
 31
0.0
  0
LINE
  5
14B
  8
1
 62
     7
 10
148.0
 20
231.0
 30
0.0
 11
148.0
 21
215.5438536858754
 31
0.0
  0
LINE
  5
14C
  8
1
 62
     7
 10
143.99999999999989
 20
233.0
 30
0.0
 11
146.0
 21
233.0
 31
0.0
  0
LINE
  5
14D
  8
1
 62
     7
 10
383.89123190219073
 20
202.45828818617849
 30
0.0
 11
385.2824250413243
 21
211.45828818617849
 31
0.0
  0
LINE
  5
14E
  8
1
 62
     7
 10
504.3246847323374
 20
214.0
 30
0.0
 11
509.38406723840558
 21
214.0
 31
0.0
  0
LINE
  5
14F
  8
1
 62
     7
 10
504.71757495867558
 20
211.45828818617849
 30
0.0
 11
506.10876809780927
 21
202.45828818617849
 31
0.0
  0
LINE
  5
150
  8
1
 62
     7
 10
377.02347421093248
 20
197.3055254574524
 30
0.0
 11
381.96478868360123
 21
229.27220858939299
 31
0.0
  0
LINE
  5
151
  8
1
 62
     7
 10
512.97652578906741
 20
197.3055254574524
 30
0.0
 11
508.03521131639877
 21
229.2722085893931
 31
0.0
  0
LINE
  5
152
  8
1
 62
     7
 10
508.0
 20
269.0
 30
0.0
 11
508.0
 21
229.73049677557159
 31
0.0
  0
LINE
  5
153
  8
1
 62
     7
 10
382.0
 20
269.0
 30
0.0
 11
382.0
 21
229.73049677557159
 31
0.0
  0
LINE
  5
154
  8
1
 62
     7
 10
97.999999999999972
 20
225.0
 30
0.0
 11
97.999999999999972
 21
279.0
 31
0.0
  0
LINE
  5
155
  8
1
 62
     7
 10
124.4910134014407
 20
292.39237194774762
 30
0.0
 11
140.5089865985592
 21
296.60762805225249
 31
0.0
  0
LINE
  5
156
  8
1
 62
     7
 10
121.0
 20
281.0
 30
0.0
 11
99.999999999999957
 21
281.0
 31
0.0
  0
LINE
  5
157
  8
1
 62
     7
 10
121.0
 20
223.0
 30
0.0
 11
99.999999999999957
 21
223.0
 31
0.0
  0
LINE
  5
158
  8
1
 62
     7
 10
104.0
 20
199.0
 30
0.0
 11
126.03860483977439
 21
199.0
 31
0.0
  0
LINE
  5
159
  8
1
 62
     7
 10
153.0
 20
189.0
 30
0.0
 11
102.0
 21
189.0
 31
0.0
  0
LINE
  5
15A
  8
1
  6
DASHDOT
 62
     3
 10
115.0
 20
186.00000000000011
 30
0.0
 11
115.0
 21
202.0
 31
0.0
  0
LINE
  5
15B
  8
1
  6
DASHED
 62
     7
 10
119.25
 20
199.0
 30
0.0
 11
119.25
 21
189.0
 31
0.0
  0
LINE
  5
15C
  8
1
  6
DASHED
 62
     7
 10
110.7499999999999
 20
189.0
 30
0.0
 11
110.7499999999999
 21
199.0
 31
0.0
  0
LINE
  5
15D
  8
1
 62
     7
 10
102.0
 20
189.0
 30
0.0
 11
102.0
 21
197.0
 31
0.0
  0
LINE
  5
15E
  8
1
 62
     7
 10
140.5
 20
220.87689398770621
 30
0.0
 11
141.0
 21
220.87689398770621
 31
0.0
  0
LINE
  5
15F
  8
1
 62
     7
 10
134.0000000000002
 20
210.56439398770621
 30
0.0
 11
134.0000000000002
 21
219.1893939877063
 31
0.0
  0
LINE
  5
160
  8
1
 62
     7
 10
134.4907477288113
 20
209.1268939877063
 30
0.0
 11
138.50925227118901
 21
209.1268939877063
 31
0.0
  0
LINE
  5
161
  8
1
 62
     7
 10
134.4907477288113
 20
212.00189398770621
 30
0.0
 11
138.50925227118901
 21
212.00189398770621
 31
0.0
  0
LINE
  5
162
  8
1
 62
     7
 10
134.4907477288113
 20
217.75189398770621
 30
0.0
 11
138.50925227118901
 21
217.75189398770621
 31
0.0
  0
LINE
  5
163
  8
1
 62
     7
 10
134.4907477288113
 20
220.62689398770621
 30
0.0
 11
138.50925227118901
 21
220.62689398770621
 31
0.0
  0
LINE
  5
164
  8
1
 62
     7
 10
134.0000000000002
 20
217.8768939877063
 30
0.0
 11
132.09999999999951
 21
217.8768939877063
 31
0.0
  0
LINE
  5
165
  8
1
 62
     7
 10
132.09999999999951
 20
217.8768939877063
 30
0.0
 11
131.5
 21
217.27689398770619
 31
0.0
  0
LINE
  5
166
  8
1
 62
     7
 10
131.5
 20
217.27689398770619
 30
0.0
 11
131.5
 21
212.47689398770621
 31
0.0
  0
LINE
  5
167
  8
1
 62
     7
 10
131.5
 20
212.47689398770621
 30
0.0
 11
132.09999999999951
 21
211.8768939877063
 31
0.0
  0
LINE
  5
168
  8
1
 62
     7
 10
132.09999999999951
 20
211.8768939877063
 30
0.0
 11
134.0000000000002
 21
211.8768939877063
 31
0.0
  0
LINE
  5
169
  8
1
 62
     3
 10
134.0000000000002
 20
212.47689398770621
 30
0.0
 11
131.5
 21
212.47689398770621
 31
0.0
  0
LINE
  5
16A
  8
1
 62
     7
 10
132.09999999999951
 20
211.8768939877063
 30
0.0
 11
132.09999999999951
 21
217.8768939877063
 31
0.0
  0
LINE
  5
16B
  8
1
 62
     3
 10
131.5
 20
217.27689398770619
 30
0.0
 11
134.0000000000002
 21
217.27689398770619
 31
0.0
  0
LINE
  5
16C
  8
1
 62
     7
 10
139.0
 20
208.77689398770619
 30
0.0
 11
139.0
 21
220.97689398770621
 31
0.0
  0
LINE
  5
16D
  8
1
 62
     7
 10
140.5
 20
208.77689398770619
 30
0.0
 11
139.0
 21
208.77689398770619
 31
0.0
  0
LINE
  5
16E
  8
1
 62
     7
 10
140.5
 20
220.97689398770621
 30
0.0
 11
140.5
 21
208.77689398770619
 31
0.0
  0
LINE
  5
16F
  8
1
 62
     7
 10
139.0
 20
220.97689398770621
 30
0.0
 11
140.5
 21
220.97689398770621
 31
0.0
  0
LINE
  5
170
  8
1
 62
     7
 10
139.0
 20
213.3768939877063
 30
0.0
 11
140.5
 21
214.87689398770621
 31
0.0
  0
LINE
  5
171
  8
1
 62
     7
 10
139.0
 20
214.87689398770621
 30
0.0
 11
140.5
 21
216.37689398770621
 31
0.0
  0
LINE
  5
172
  8
1
 62
     7
 10
243.49999999999989
 20
219.1893939877063
 30
0.0
 11
243.49999999999989
 21
210.56439398770621
 31
0.0
  0
LINE
  5
173
  8
1
 62
     7
 10
243.0092522711887
 20
220.62689398770621
 30
0.0
 11
239.49999999999989
 21
220.62689398770621
 31
0.0
  0
LINE
  5
174
  8
1
 62
     7
 10
243.0092522711887
 20
217.75189398770621
 30
0.0
 11
239.49999999999989
 21
217.75189398770621
 31
0.0
  0
LINE
  5
175
  8
1
 62
     7
 10
243.0092522711887
 20
212.00189398770621
 30
0.0
 11
239.49999999999989
 21
212.00189398770621
 31
0.0
  0
LINE
  5
176
  8
1
 62
     7
 10
243.0092522711887
 20
209.1268939877063
 30
0.0
 11
239.49999999999989
 21
209.1268939877063
 31
0.0
  0
LINE
  5
177
  8
1
 62
     7
 10
253.96139516022541
 20
199.0
 30
0.0
 11
276.0
 21
199.0
 31
0.0
  0
LINE
  5
178
  8
1
  6
DASHDOT
 62
     3
 10
265.0
 20
202.0
 30
0.0
 11
265.0
 21
186.00000000000011
 31
0.0
  0
LINE
  5
179
  8
1
  6
DASHED
 62
     7
 10
260.74999999999989
 20
189.0
 30
0.0
 11
260.74999999999989
 21
199.0
 31
0.0
  0
LINE
  5
17A
  8
1
  6
DASHED
 62
     7
 10
269.24999999999989
 20
199.0
 30
0.0
 11
269.24999999999989
 21
189.0
 31
0.0
  0
LINE
  5
17B
  8
1
 62
     7
 10
153.0
 20
237.9999999999994
 30
0.0
 11
153.0
 21
189.0
 31
0.0
  0
LINE
  5
17C
  8
1
 62
     7
 10
226.99999999999989
 20
237.9999999999994
 30
0.0
 11
226.99999999999989
 21
189.0
 31
0.0
  0
LINE
  5
17D
  8
1
 62
     7
 10
224.76393202250009
 20
190.0
 30
0.0
 11
155.2360679774998
 21
190.0
 31
0.0
  0
LINE
  5
17E
  8
1
 62
     7
 10
221.99999999999989
 20
229.0
 30
0.0
 11
193.49999999999989
 21
228.99999999999989
 31
0.0
  0
LINE
  5
17F
  8
1
 62
     7
 10
221.99999999999989
 20
240.99999999999929
 30
0.0
 11
193.49999999999989
 21
240.99999999999949
 31
0.0
  0
LINE
  5
180
  8
1
 62
     7
 10
186.5
 20
240.99999999999929
 30
0.0
 11
158.0
 21
240.99999999999949
 31
0.0
  0
LINE
  5
181
  8
1
 62
     7
 10
186.5
 20
228.99999999999989
 30
0.0
 11
158.0
 21
228.9999999999998
 31
0.0
  0
LINE
  5
182
  8
1
 62
     7
 10
278.0
 20
189.0
 30
0.0
 11
226.99999999999989
 21
189.0
 31
0.0
  0
LINE
  5
183
  8
1
 62
     7
 10
278.0
 20
197.0
 30
0.0
 11
278.0
 21
189.0
 31
0.0
  0
LINE
  5
184
  8
1
 62
     7
 10
280.0
 20
281.0
 30
0.0
 11
259.0
 21
281.0
 31
0.0
  0
LINE
  5
185
  8
1
 62
     7
 10
280.0
 20
223.0
 30
0.0
 11
259.0
 21
223.0
 31
0.0
  0
LINE
  5
186
  8
1
 62
     7
 10
282.0
 20
279.0
 30
0.0
 11
282.0
 21
225.0
 31
0.0
  0
LINE
  5
187
  8
1
 62
     7
 10
285.0
 20
242.0
 30
0.0
 11
283.19999999999987
 21
242.0
 31
0.0
  0
LINE
  5
188
  8
1
 62
     7
 10
285.0
 20
262.0
 30
0.0
 11
283.19999999999987
 21
262.0
 31
0.0
  0
LINE
  5
189
  8
1
 62
     7
 10
283.19999999999987
 20
238.80204102886731
 30
0.0
 11
283.19999999999987
 21
264.19999999999987
 31
0.0
  0
LINE
  5
18A
  8
1
 62
     7
 10
282.0
 20
238.80204102886731
 30
0.0
 11
283.19999999999987
 21
238.80204102886731
 31
0.0
  0
LINE
  5
18B
  8
1
 62
     7
 10
283.19999999999987
 20
264.19999999999987
 30
0.0
 11
282.0
 21
264.19999999999987
 31
0.0
  0
LINE
  5
18C
  8
1
 62
     7
 10
312.0
 20
261.5
 30
0.0
 11
287.0
 21
261.5
 31
0.0
  0
LINE
  5
18D
  8
1
  6
DASHED
 62
     7
 10
287.0
 20
256.5
 30
0.0
 11
312.0
 21
256.5
 31
0.0
  0
LINE
  5
18E
  8
1
  6
DASHED
 62
     7
 10
287.0
 20
259.5
 30
0.0
 11
287.0
 21
256.5
 31
0.0
  0
LINE
  5
18F
  8
1
 62
     7
 10
287.0
 20
261.5
 30
0.0
 11
287.0
 21
259.5
 31
0.0
  0
LINE
  5
190
  8
1
 62
     7
 10
311.0
 20
259.5
 30
0.0
 11
285.0
 21
259.5
 31
0.0
  0
LINE
  5
191
  8
1
 62
     7
 10
311.0
 20
244.49999999999989
 30
0.0
 11
311.0
 21
259.5
 31
0.0
  0
LINE
  5
192
  8
1
 62
     7
 10
285.0
 20
244.49999999999989
 30
0.0
 11
311.0
 21
244.49999999999989
 31
0.0
  0
LINE
  5
193
  8
1
 62
     7
 10
285.0
 20
262.0
 30
0.0
 11
285.0
 21
242.0
 31
0.0
  0
LINE
  5
194
  8
1
 62
     7
 10
312.0
 20
245.5
 30
0.0
 11
311.0
 21
244.49999999999989
 31
0.0
  0
LINE
  5
195
  8
1
 62
     7
 10
311.0
 20
259.5
 30
0.0
 11
312.0
 21
258.5
 31
0.0
  0
LINE
  5
196
  8
1
  6
DASHDOT
 62
     3
 10
322.0
 20
252.0
 30
0.0
 11
295.19999999999987
 21
252.0
 31
0.0
  0
LINE
  5
197
  8
1
 62
     7
 10
451.26666666666671
 20
240.80204102886731
 30
0.0
 11
451.26666666666671
 21
241.64528435196959
 31
0.0
  0
LINE
  5
198
  8
1
 62
     7
 10
438.73333333333329
 20
240.80204102886731
 30
0.0
 11
438.73333333333329
 21
241.64528435196959
 31
0.0
  0
LINE
  5
199
  8
1
 62
     7
 10
447.0
 20
242.20204102886731
 30
0.0
 11
447.0
 21
238.80204102886731
 31
0.0
  0
LINE
  5
19A
  8
1
 62
     7
 10
447.0
 20
238.80204102886731
 30
0.0
 11
449.26666666666671
 21
238.80204102886731
 31
0.0
  0
LINE
  5
19B
  8
1
 62
     7
 10
443.0
 20
242.20204102886731
 30
0.0
 11
443.0
 21
238.80204102886731
 31
0.0
  0
LINE
  5
19C
  8
1
 62
     7
 10
443.0
 20
238.80204102886731
 30
0.0
 11
440.73333333333329
 21
238.80204102886731
 31
0.0
  0
LINE
  5
19D
  8
1
 62
     7
 10
442.49999999999989
 20
256.5
 30
0.0
 11
447.5
 21
256.5
 31
0.0
  0
LINE
  5
19E
  8
1
 62
     7
 10
447.5
 20
256.5
 30
0.0
 11
447.5
 21
261.5
 31
0.0
  0
LINE
  5
19F
  8
1
 62
     7
 10
447.5
 20
261.5
 30
0.0
 11
442.49999999999989
 21
261.5
 31
0.0
  0
LINE
  5
1A0
  8
1
 62
     7
 10
442.49999999999989
 20
261.5
 30
0.0
 11
442.49999999999989
 21
256.5
 31
0.0
  0
LINE
  5
1A1
  8
1
 62
     7
 10
191.49999999999989
 20
315.00000000000011
 30
0.0
 11
236.0
 21
315.00000000000011
 31
0.0
  0
LINE
  5
1A2
  8
1
 62
     7
 10
461.99999999999977
 20
314.99999999999989
 30
0.0
 11
427.99999999999977
 21
314.99999999999989
 31
0.0
  0
LINE
  5
1A3
  8
1
 62
     7
 10
403.7944110830677
 20
293.20558891693241
 30
0.0
 11
402.30011862945412
 21
287.62881355868041
 31
0.0
  0
LINE
  5
1A4
  8
1
 62
     7
 10
402.30011862945412
 20
287.62881355868041
 30
0.0
 11
406.38260153409271
 21
283.54633065404181
 31
0.0
  0
LINE
  5
1A5
  8
1
 62
     7
 10
406.38260153409271
 20
283.54633065404181
 30
0.0
 11
411.95937689234478
 21
285.04062310765511
 31
0.0
  0
LINE
  5
1A6
  8
1
 62
     7
 10
411.95937689234478
 20
285.04062310765511
 30
0.0
 11
413.45366934595819
 21
290.61739846590712
 31
0.0
  0
LINE
  5
1A7
  8
1
 62
     7
 10
413.45366934595819
 20
290.61739846590712
 30
0.0
 11
409.37118644131959
 21
294.69988137054582
 31
0.0
  0
LINE
  5
1A8
  8
1
 62
     7
 10
409.37118644131959
 20
294.69988137054582
 30
0.0
 11
403.7944110830677
 21
293.20558891693241
 31
0.0
  0
LINE
  5
1A9
  8
1
 62
     7
 10
403.79441108306759
 20
210.79441108306759
 30
0.0
 11
409.37118644131959
 21
209.3001186294542
 31
0.0
  0
LINE
  5
1AA
  8
1
 62
     7
 10
409.37118644131959
 20
209.3001186294542
 30
0.0
 11
413.45366934595819
 21
213.3826015340928
 31
0.0
  0
LINE
  5
1AB
  8
1
 62
     7
 10
413.45366934595819
 20
213.3826015340928
 30
0.0
 11
411.95937689234489
 21
218.95937689234481
 31
0.0
  0
LINE
  5
1AC
  8
1
 62
     7
 10
411.95937689234489
 20
218.95937689234481
 30
0.0
 11
406.38260153409271
 21
220.45366934595839
 31
0.0
  0
LINE
  5
1AD
  8
1
 62
     7
 10
406.38260153409271
 20
220.45366934595839
 30
0.0
 11
402.30011862945412
 21
216.37118644131979
 31
0.0
  0
LINE
  5
1AE
  8
1
 62
     7
 10
402.30011862945412
 20
216.37118644131979
 30
0.0
 11
403.79441108306759
 21
210.79441108306759
 31
0.0
  0
LINE
  5
1AF
  8
1
 62
     7
 10
486.2055889169323
 20
210.79441108306759
 30
0.0
 11
487.6998813705456
 21
216.37118644131971
 31
0.0
  0
LINE
  5
1B0
  8
1
 62
     7
 10
487.6998813705456
 20
216.37118644131971
 30
0.0
 11
483.61739846590717
 21
220.45366934595839
 31
0.0
  0
LINE
  5
1B1
  8
1
 62
     7
 10
483.61739846590717
 20
220.45366934595839
 30
0.0
 11
478.04062310765511
 21
218.95937689234481
 31
0.0
  0
LINE
  5
1B2
  8
1
 62
     7
 10
478.04062310765511
 20
218.95937689234481
 30
0.0
 11
476.54633065404153
 21
213.3826015340928
 31
0.0
  0
LINE
  5
1B3
  8
1
 62
     7
 10
476.54633065404153
 20
213.3826015340928
 30
0.0
 11
480.62881355868012
 21
209.30011862945429
 31
0.0
  0
LINE
  5
1B4
  8
1
 62
     7
 10
480.62881355868012
 20
209.30011862945429
 30
0.0
 11
486.2055889169323
 21
210.79441108306759
 31
0.0
  0
LINE
  5
1B5
  8
1
 62
     7
 10
486.2055889169323
 20
293.2055889169323
 30
0.0
 11
480.62881355868029
 21
294.69988137054582
 31
0.0
  0
LINE
  5
1B6
  8
1
 62
     7
 10
480.62881355868029
 20
294.69988137054582
 30
0.0
 11
476.54633065404153
 21
290.61739846590712
 31
0.0
  0
LINE
  5
1B7
  8
1
 62
     7
 10
476.54633065404153
 20
290.61739846590712
 30
0.0
 11
478.04062310765511
 21
285.04062310765511
 31
0.0
  0
LINE
  5
1B8
  8
1
 62
     7
 10
478.04062310765511
 20
285.04062310765511
 30
0.0
 11
483.61739846590717
 21
283.54633065404158
 31
0.0
  0
LINE
  5
1B9
  8
1
 62
     7
 10
483.61739846590717
 20
283.54633065404158
 30
0.0
 11
487.69988137054582
 21
287.62881355868012
 31
0.0
  0
LINE
  5
1BA
  8
1
 62
     7
 10
487.69988137054582
 20
287.62881355868012
 30
0.0
 11
486.2055889169323
 21
293.2055889169323
 31
0.0
  0
LINE
  5
1BB
  8
1
 62
     7
 10
513.0
 20
189.0
 30
0.0
 11
513.0
 21
197.0
 31
0.0
  0
LINE
  5
1BC
  8
1
 62
     7
 10
513.0
 20
189.0
 30
0.0
 11
472.5
 21
189.0
 31
0.0
  0
LINE
  5
1BD
  8
1
 62
     7
 10
511.0
 20
199.0
 30
0.0
 11
485.42820323027559
 21
199.0
 31
0.0
  0
LINE
  5
1BE
  8
1
  6
DASHED
 62
     7
 10
504.25
 20
199.0
 30
0.0
 11
504.25
 21
189.0
 31
0.0
  0
LINE
  5
1BF
  8
1
  6
DASHED
 62
     7
 10
495.75
 20
189.0
 30
0.0
 11
495.75
 21
199.0
 31
0.0
  0
LINE
  5
1C0
  8
1
  6
DASHDOT
 62
     3
 10
500.0
 20
202.0
 30
0.0
 11
500.0
 21
186.0
 31
0.0
  0
LINE
  5
1C1
  8
1
 62
     7
 10
472.5
 20
190.84529946162061
 30
0.0
 11
472.5
 21
189.0
 31
0.0
  0
LINE
  5
1C2
  8
1
 62
     7
 10
483.92820323027559
 20
198.59807621135329
 30
0.0
 11
473.5
 21
192.57735026918959
 31
0.0
  0
LINE
  5
1C3
  8
1
 62
     7
 10
417.49999999999989
 20
189.0
 30
0.0
 11
417.49999999999989
 21
190.84529946162061
 31
0.0
  0
LINE
  5
1C4
  8
1
 62
     7
 10
416.5
 20
192.57735026918959
 30
0.0
 11
406.07179676972447
 21
198.59807621135329
 31
0.0
  0
LINE
  5
1C5
  8
1
 62
     7
 10
377.0
 20
197.0
 30
0.0
 11
377.0
 21
189.0
 31
0.0
  0
LINE
  5
1C6
  8
1
 62
     7
 10
417.49999999999989
 20
189.0
 30
0.0
 11
377.0
 21
189.0
 31
0.0
  0
LINE
  5
1C7
  8
1
  6
DASHED
 62
     7
 10
385.74999999999989
 20
189.0
 30
0.0
 11
385.74999999999989
 21
199.0
 31
0.0
  0
LINE
  5
1C8
  8
1
  6
DASHDOT
 62
     3
 10
390.0
 20
186.0
 30
0.0
 11
390.0
 21
202.0
 31
0.0
  0
LINE
  5
1C9
  8
1
  6
DASHED
 62
     7
 10
394.24999999999989
 20
199.0
 30
0.0
 11
394.24999999999989
 21
189.0
 31
0.0
  0
LINE
  5
1CA
  8
1
 62
     7
 10
404.57179676972447
 20
199.0
 30
0.0
 11
379.0
 21
199.0
 31
0.0
  0
LINE
  5
1CB
  8
1
  6
DASHED
 62
     7
 10
382.0
 20
241.0
 30
0.0
 11
386.76923076923077
 21
229.55384615384631
 31
0.0
  0
LINE
  5
1CC
  8
1
  6
DASHED
 62
     7
 10
387.0
 20
228.4000000000002
 30
0.0
 11
387.0
 21
199.0
 31
0.0
  0
LINE
  5
1CD
  8
1
  6
DASHED
 62
     7
 10
312.0
 20
250.09999999999991
 30
0.0
 11
298.19999999999987
 21
250.09999999999991
 31
0.0
  0
LINE
  5
1CE
  8
1
  6
DASHED
 62
     7
 10
298.19999999999987
 20
250.09999999999991
 30
0.0
 11
298.19999999999987
 21
253.90000000000001
 31
0.0
  0
LINE
  5
1CF
  8
1
  6
DASHED
 62
     7
 10
298.19999999999987
 20
253.90000000000001
 30
0.0
 11
312.0
 21
253.90000000000001
 31
0.0
  0
LINE
  5
1D0
  8
1
  6
DASHED
 62
     7
 10
298.19999999999987
 20
250.09999999999991
 30
0.0
 11
296.7566243270258
 21
252.0
 31
0.0
  0
LINE
  5
1D1
  8
1
  6
DASHED
 62
     7
 10
296.7566243270258
 20
252.0
 30
0.0
 11
298.19999999999987
 21
253.90000000000001
 31
0.0
  0
LINE
  5
1D2
  8
1
  6
DASHED
 62
     3
 10
312.0
 20
249.5
 30
0.0
 11
302.0
 21
249.5
 31
0.0
  0
LINE
  5
1D3
  8
1
  6
DASHED
 62
     3
 10
302.0
 20
249.5
 30
0.0
 11
302.0
 21
254.49999999999989
 31
0.0
  0
LINE
  5
1D4
  8
1
  6
DASHED
 62
     3
 10
302.0
 20
254.49999999999989
 30
0.0
 11
312.0
 21
254.49999999999989
 31
0.0
  0
LINE
  5
1D5
  8
1
  6
DASHED
 62
     3
 10
302.0
 20
249.5
 30
0.0
 11
300.96076951545859
 21
250.09999999999991
 31
0.0
  0
LINE
  5
1D6
  8
1
  6
DASHED
 62
     3
 10
302.0
 20
254.49999999999989
 30
0.0
 11
300.96076951545859
 21
253.90000000000001
 31
0.0
  0
LINE
  5
1D7
  8
1
  6
DASHED
 62
     7
 10
503.23076923076911
 20
229.55384615384631
 30
0.0
 11
507.99999999999977
 21
241.0
 31
0.0
  0
LINE
  5
1D8
  8
1
 62
     7
 10
127.7823194209317
 20
199.55879958637979
 30
0.0
 11
146.74371458115729
 21
213.10265327225511
 31
0.0
  0
LINE
  5
1D9
  8
1
 62
     7
 10
233.25628541884259
 20
213.10265327225511
 30
0.0
 11
252.21768057906809
 21
199.55879958637979
 31
0.0
  0
LINE
  5
1DA
  8
1
 62
     7
 10
191.49999999999989
 20
314.00000000000011
 30
0.0
 11
188.49999999999989
 21
313.99999999999977
 31
0.0
  0
LINE
  5
1DB
  8
1
 62
     7
 10
188.49999999999989
 20
226.50000000000011
 30
0.0
 11
188.49999999999989
 21
314.99999999999989
 31
0.0
  0
LINE
  5
1DC
  8
1
 62
     7
 10
188.49999999999989
 20
314.99999999999989
 30
0.0
 11
143.99999999999989
 21
315.00000000000011
 31
0.0
  0
LINE
  5
1DD
  8
1
 62
     7
 10
470.26393202250023
 20
189.99999999999989
 30
0.0
 11
419.73606797749977
 21
189.99999999999989
 31
0.0
  0
LINE
  5
1DE
  8
1
 62
     7
 10
485.78519458394669
 20
202.61521757417631
 30
0.0
 11
485.78519458394669
 21
202.0
 31
0.0
  0
LINE
  5
1DF
  8
1
 62
     7
 10
404.21480541605331
 20
202.0
 30
0.0
 11
404.21480541605331
 21
202.61521757417631
 31
0.0
  0
LINE
  5
1E0
  8
1
 62
     7
 10
398.54952574325011
 20
295.97560052259712
 30
0.0
 11
397.80062235579783
 21
296.72450391004929
 31
0.0
  0
LINE
  5
1E1
  8
1
 62
     7
 10
400.27549608995071
 20
299.19937764420212
 30
0.0
 11
401.02439947740271
 21
298.45047425674983
 31
0.0
  0
LINE
  5
1E2
  8
1
 62
     7
 10
394.968084330382
 20
293.19308090478631
 30
0.0
 11
395.47826837540782
 21
292.68289685976032
 31
0.0
  0
LINE
  5
1E3
  8
1
 62
     7
 10
393.49384106779269
 20
289.71757669906981
 30
0.0
 11
392.49321059622912
 21
290.71820717063309
 31
0.0
  0
LINE
  5
1E4
  8
1
 62
     7
 10
390.37600115333908
 20
286.47145558284461
 30
0.0
 11
390.64937066524072
 21
286.19808607094302
 31
0.0
  0
LINE
  5
1E5
  8
1
 62
     7
 10
389.17971147163428
 20
282.71799779624371
 30
0.0
 11
387.90112741918642
 21
283.99658184869111
 31
0.0
  0
LINE
  5
1E6
  8
1
 62
     7
 10
386.55270785025209
 20
278.98104038694692
 30
0.0
 11
386.57941987265031
 21
278.95432836454881
 31
0.0
  0
LINE
  5
1E7
  8
1
 62
     7
 10
384.07783411609933
 20
276.50616665279392
 30
0.0
 11
385.6797303181998
 21
274.90427045069367
 31
0.0
  0
LINE
  5
1E8
  8
1
 62
     7
 10
384.0
 20
271.0
 30
0.0
 11
384.2052633857171
 21
271.0
 31
0.0
  0
LINE
  5
1E9
  8
1
 62
     7
 10
404.31710314023951
 20
301.52173162459189
 30
0.0
 11
403.80691909521357
 21
302.03191566961777
 31
0.0
  0
LINE
  5
1EA
  8
1
 62
     7
 10
406.28179282936691
 20
304.5067894037706
 30
0.0
 11
407.28242330092991
 21
303.5061589322072
 31
0.0
  0
LINE
  5
1EB
  8
1
 62
     7
 10
410.80191392905692
 20
306.35062933475911
 30
0.0
 11
410.52854441715527
 21
306.6239988466607
 31
0.0
  0
LINE
  5
1EC
  8
1
 62
     7
 10
413.00341815130861
 20
309.09887258081358
 30
0.0
 11
414.28200220375629
 21
307.82028852836538
 31
0.0
  0
LINE
  5
1ED
  8
1
 62
     7
 10
418.04567163545107
 20
310.42058012734952
 30
0.0
 11
418.01895961305291
 21
310.44729214974762
 31
0.0
  0
LINE
  5
1EE
  8
1
 62
     7
 10
422.09572954930599
 20
311.32026968180003
 30
0.0
 11
420.49383334720602
 21
312.92216588390022
 31
0.0
  0
LINE
  5
1EF
  8
1
 62
     7
 10
425.99999999999977
 20
312.79473661428273
 30
0.0
 11
425.99999999999977
 21
312.99999999999989
 31
0.0
  0
LINE
  5
1F0
  8
1
 62
     7
 10
492.19937764420177
 20
296.72450391004929
 30
0.0
 11
491.45047425674989
 21
295.97560052259712
 31
0.0
  0
LINE
  5
1F1
  8
1
 62
     7
 10
488.97560052259712
 20
298.45047425674983
 30
0.0
 11
489.72450391004918
 21
299.19937764420212
 31
0.0
  0
LINE
  5
1F2
  8
1
 62
     7
 10
486.19308090478631
 20
302.03191566961777
 30
0.0
 11
485.68289685976038
 21
301.52173162459189
 31
0.0
  0
LINE
  5
1F3
  8
1
 62
     7
 10
482.71757669906981
 20
303.5061589322072
 30
0.0
 11
483.71820717063298
 21
304.5067894037706
 31
0.0
  0
LINE
  5
1F4
  8
1
 62
     7
 10
479.47145558284478
 20
306.6239988466607
 30
0.0
 11
479.19808607094302
 21
306.35062933475911
 31
0.0
  0
LINE
  5
1F5
  8
1
 62
     7
 10
475.71799779624371
 20
307.82028852836538
 30
0.0
 11
476.99658184869128
 21
309.09887258081358
 31
0.0
  0
LINE
  5
1F6
  8
1
 62
     7
 10
471.98104038694709
 20
310.44729214974762
 30
0.0
 11
471.95432836454893
 21
310.42058012734952
 31
0.0
  0
LINE
  5
1F7
  8
1
 62
     7
 10
469.50616665279398
 20
312.92216588390022
 30
0.0
 11
467.9042704506939
 21
311.32026968180003
 31
0.0
  0
LINE
  5
1F8
  8
1
 62
     7
 10
464.00000000000011
 20
312.99999999999989
 30
0.0
 11
464.00000000000011
 21
312.79473661428273
 31
0.0
  0
LINE
  5
1F9
  8
1
 62
     7
 10
494.52173162459212
 20
292.68289685976032
 30
0.0
 11
495.03191566961789
 21
293.19308090478631
 31
0.0
  0
LINE
  5
1FA
  8
1
 62
     7
 10
497.50678940377082
 20
290.71820717063309
 30
0.0
 11
496.50615893220731
 21
289.71757669906981
 31
0.0
  0
LINE
  5
1FB
  8
1
 62
     7
 10
499.35062933475922
 20
286.19808607094302
 30
0.0
 11
499.62399884666092
 21
286.47145558284461
 31
0.0
  0
LINE
  5
1FC
  8
1
 62
     7
 10
502.09887258081358
 20
283.99658184869111
 30
0.0
 11
500.8202885283655
 21
282.71799779624371
 31
0.0
  0
LINE
  5
1FD
  8
1
 62
     7
 10
503.42058012734969
 20
278.95432836454881
 30
0.0
 11
503.4472921497478
 21
278.98104038694692
 31
0.0
  0
LINE
  5
1FE
  8
1
 62
     7
 10
504.32026968180008
 20
274.90427045069367
 30
0.0
 11
505.92216588390062
 21
276.50616665279392
 31
0.0
  0
LINE
  5
1FF
  8
1
 62
     7
 10
505.79473661428278
 20
271.0
 30
0.0
 11
506.0
 21
271.0
 31
0.0
  0
LINE
  5
200
  8
1
 62
     7
 10
491.45047425674989
 20
208.02439947740271
 30
0.0
 11
492.19937764420212
 21
207.27549608995059
 31
0.0
  0
LINE
  5
201
  8
1
 62
     7
 10
489.72450391004918
 20
204.80062235579771
 30
0.0
 11
488.97560052259712
 21
205.54952574325
 31
0.0
  0
LINE
  5
202
  8
1
 62
     7
 10
495.03191566961789
 20
210.8069190952136
 30
0.0
 11
494.52173162459212
 21
211.3171031402396
 31
0.0
  0
LINE
  5
203
  8
1
 62
     7
 10
496.50615893220731
 20
214.28242330093011
 30
0.0
 11
497.50678940377082
 21
213.28179282936691
 31
0.0
  0
LINE
  5
204
  8
1
 62
     7
 10
499.62399884666092
 20
217.52854441715539
 30
0.0
 11
499.35062933475922
 21
217.80191392905701
 31
0.0
  0
LINE
  5
205
  8
1
 62
     7
 10
500.8202885283655
 20
221.28200220375629
 30
0.0
 11
502.09887258081358
 21
220.00341815130881
 31
0.0
  0
LINE
  5
206
  8
1
 62
     7
 10
503.4472921497478
 20
225.018959613053
 30
0.0
 11
503.42058012734969
 21
225.04567163545121
 31
0.0
  0
LINE
  5
207
  8
1
 62
     7
 10
505.92216588390062
 20
227.49383334720599
 30
0.0
 11
504.32026968180008
 21
229.0957295493063
 31
0.0
  0
LINE
  5
208
  8
1
 62
     7
 10
506.0
 20
233.0
 30
0.0
 11
505.79473661428278
 21
233.0
 31
0.0
  0
LINE
  5
209
  8
1
 62
     7
 10
397.80062235579783
 20
207.27549608995059
 30
0.0
 11
398.54952574325011
 21
208.02439947740271
 31
0.0
  0
LINE
  5
20A
  8
1
 62
     7
 10
401.02439947740271
 20
205.54952574325
 30
0.0
 11
400.27549608995071
 21
204.80062235579771
 31
0.0
  0
LINE
  5
20B
  8
1
 62
     7
 10
395.47826837540782
 20
211.3171031402396
 30
0.0
 11
394.968084330382
 21
210.8069190952136
 31
0.0
  0
LINE
  5
20C
  8
1
 62
     7
 10
392.49321059622912
 20
213.28179282936691
 30
0.0
 11
393.49384106779269
 21
214.28242330093011
 31
0.0
  0
LINE
  5
20D
  8
1
 62
     7
 10
390.64937066524072
 20
217.80191392905701
 30
0.0
 11
390.37600115333908
 21
217.52854441715539
 31
0.0
  0
LINE
  5
20E
  8
1
 62
     7
 10
387.90112741918642
 20
220.00341815130881
 30
0.0
 11
389.17971147163428
 21
221.28200220375629
 31
0.0
  0
LINE
  5
20F
  8
1
 62
     7
 10
386.57941987265031
 20
225.04567163545121
 30
0.0
 11
386.55270785025209
 21
225.018959613053
 31
0.0
  0
LINE
  5
210
  8
1
 62
     7
 10
385.6797303181998
 20
229.0957295493063
 30
0.0
 11
384.07783411609933
 21
227.49383334720599
 31
0.0
  0
LINE
  5
211
  8
1
 62
     7
 10
384.2052633857171
 20
233.0
 30
0.0
 11
384.0
 21
233.0
 31
0.0
  0
LINE
  5
212
  8
1
 62
     7
 10
168.0
 20
365.02238805970183
 30
0.0
 11
212.0
 21
365.02238805970183
 31
0.0
  0
LINE
  5
213
  8
1
 62
     7
 10
141.0
 20
399.89928204740829
 30
0.0
 11
140.5
 21
399.89928204740829
 31
0.0
  0
LINE
  5
214
  8
1
 62
     7
 10
193.49999999999989
 20
201.50000000000011
 30
0.0
 11
193.49999999999989
 21
190.0
 31
0.0
  0
LINE
  5
215
  8
1
 62
     7
 10
186.4999999999998
 20
190.0
 30
0.0
 11
186.4999999999998
 21
201.50000000000011
 31
0.0
  0
LINE
  5
216
  8
1
 62
     7
 10
380.51006911942011
 20
217.0
 30
0.0
 11
376.50889210214791
 21
217.0
 31
0.0
  0
LINE
  5
217
  8
1
 62
     7
 10
368.0
 20
226.50000000000011
 30
0.0
 11
381.53626895362208
 21
226.50000000000011
 31
0.0
  0
LINE
  5
218
  8
1
  6
DASHED
 62
     7
 10
382.0
 20
217.00648467481611
 30
0.0
 11
382.0
 21
210.99351532518381
 31
0.0
  0
LINE
  5
219
  8
1
  6
DASHED
 62
     7
 10
381.30000000000018
 20
211.25
 30
0.0
 11
382.0
 21
211.25
 31
0.0
  0
LINE
  5
21A
  8
1
  6
DASHED
 62
     7
 10
381.30000000000018
 20
216.75
 30
0.0
 11
381.30000000000018
 21
211.25
 31
0.0
  0
LINE
  5
21B
  8
1
  6
DASHED
 62
     7
 10
382.0
 20
216.75
 30
0.0
 11
381.30000000000018
 21
216.75
 31
0.0
  0
LINE
  5
21C
  8
1
  6
DASHED
 62
     7
 10
381.30000000000018
 20
213.30000000000001
 30
0.0
 11
382.0
 21
214.00000000000011
 31
0.0
  0
LINE
  5
21D
  8
1
  6
DASHED
 62
     7
 10
381.30000000000013
 20
214.00000000000011
 30
0.0
 11
382.0
 21
214.70000000000019
 31
0.0
  0
LINE
  5
21E
  8
1
  6
DASHED
 62
     7
 10
381.0
 20
211.25
 30
0.0
 11
380.56087985837547
 21
211.25
 31
0.0
  0
LINE
  5
21F
  8
1
  6
DASHED
 62
     7
 10
380.56087985837542
 20
216.75
 30
0.0
 11
381.0
 21
216.75
 31
0.0
  0
LINE
  5
220
  8
1
 62
     7
 10
367.0
 20
202.5
 30
0.0
 11
367.0
 21
225.5
 31
0.0
  0
LINE
  5
221
  8
1
 62
     7
 10
371.0
 20
226.50000000000011
 30
0.0
 11
371.0
 21
201.50000000000011
 31
0.0
  0
LINE
  5
222
  8
1
 62
     7
 10
373.28903397914911
 20
219.00648467481611
 30
0.0
 11
380.0
 21
219.00648467481611
 31
0.0
  0
LINE
  5
223
  8
1
 62
     7
 10
191.0
 20
210.5193992307793
 30
0.0
 11
191.0
 21
206.5
 31
0.0
  0
LINE
  5
224
  8
1
 62
     7
 10
189.0
 20
217.4806007692209
 30
0.0
 11
189.0
 21
221.5
 31
0.0
  0
LINE
  5
225
  8
1
 62
     7
 10
161.73750000000001
 20
212.25
 30
0.0
 11
162.26249999999979
 21
212.25
 31
0.0
  0
LINE
  5
226
  8
1
 62
     7
 10
160.25
 20
214.26250000000019
 30
0.0
 11
160.25
 21
213.73750000000001
 31
0.0
  0
LINE
  5
227
  8
1
 62
     7
 10
162.26249999999979
 20
215.75000000000011
 30
0.0
 11
161.73750000000001
 21
215.75000000000011
 31
0.0
  0
LINE
  5
228
  8
1
 62
     7
 10
163.75
 20
213.73750000000001
 30
0.0
 11
163.75
 21
214.26250000000019
 31
0.0
  0
LINE
  5
229
  8
1
 62
     7
 10
217.73750000000001
 20
212.25
 30
0.0
 11
218.26249999999979
 21
212.25
 31
0.0
  0
LINE
  5
22A
  8
1
 62
     7
 10
216.25
 20
214.26250000000019
 30
0.0
 11
216.25
 21
213.73750000000001
 31
0.0
  0
LINE
  5
22B
  8
1
 62
     7
 10
218.26249999999979
 20
215.75000000000011
 30
0.0
 11
217.73750000000001
 21
215.75000000000011
 31
0.0
  0
LINE
  5
22C
  8
1
 62
     7
 10
219.75000000000011
 20
213.73750000000001
 30
0.0
 11
219.75000000000011
 21
214.26250000000019
 31
0.0
  0
LINE
  5
22D
  8
1
 62
     7
 10
189.0
 20
206.5
 30
0.0
 11
189.0
 21
210.5193992307793
 31
0.0
  0
LINE
  5
22E
  8
1
 62
     7
 10
191.0
 20
221.5
 30
0.0
 11
191.0
 21
217.4806007692209
 31
0.0
  0
LINE
  5
22F
  8
1
 62
     7
 10
213.0
 20
203.50000000000011
 30
0.0
 11
222.1724137931034
 21
211.93103448275861
 31
0.0
  0
LINE
  5
230
  8
1
 62
     7
 10
213.0
 20
224.5
 30
0.0
 11
222.1724137931034
 21
216.06896551724151
 31
0.0
  0
LINE
  5
231
  8
1
 62
     7
 10
205.6837553418911
 20
207.4230784942138
 30
0.0
 11
208.31624465810859
 21
208.94294690957091
 31
0.0
  0
LINE
  5
232
  8
1
 62
     7
 10
208.81624465810859
 20
208.07692150578629
 30
0.0
 11
206.1837553418911
 21
206.55705309042941
 31
0.0
  0
LINE
  5
233
  8
1
 62
     7
 10
194.6837553418911
 20
208.94294690957091
 30
0.0
 11
197.31624465810859
 21
207.4230784942138
 31
0.0
  0
LINE
  5
234
  8
1
 62
     7
 10
196.81624465810859
 20
206.55705309042941
 30
0.0
 11
194.1837553418911
 21
208.07692150578629
 31
0.0
  0
LINE
  5
235
  8
1
 62
     7
 10
197.31624465810859
 20
220.57692150578629
 30
0.0
 11
194.6837553418911
 21
219.05705309042941
 31
0.0
  0
LINE
  5
236
  8
1
 62
     7
 10
194.1837553418911
 20
219.9230784942138
 30
0.0
 11
196.81624465810859
 21
221.44294690957091
 31
0.0
  0
LINE
  5
237
  8
1
 62
     7
 10
202.5
 20
221.5
 30
0.0
 11
202.5
 21
206.5
 31
0.0
  0
LINE
  5
238
  8
1
 62
     7
 10
200.5
 20
206.5
 30
0.0
 11
200.5
 21
221.5
 31
0.0
  0
LINE
  5
239
  8
1
 62
     7
 10
208.31624465810859
 20
219.05705309042941
 30
0.0
 11
205.6837553418911
 21
220.57692150578629
 31
0.0
  0
LINE
  5
23A
  8
1
 62
     7
 10
206.1837553418911
 20
221.44294690957091
 30
0.0
 11
208.81624465810859
 21
219.9230784942138
 31
0.0
  0
LINE
  5
23B
  8
1
 62
     7
 10
213.0
 20
224.5
 30
0.0
 11
213.0
 21
203.50000000000011
 31
0.0
  0
LINE
  5
23C
  8
1
 62
     7
 10
211.0
 20
201.50000000000011
 30
0.0
 11
169.0
 21
201.50000000000011
 31
0.0
  0
LINE
  5
23D
  8
1
 62
     7
 10
157.82758620689651
 20
211.93103448275861
 30
0.0
 11
167.0
 21
203.50000000000011
 31
0.0
  0
LINE
  5
23E
  8
1
 62
     7
 10
157.82758620689651
 20
216.06896551724151
 30
0.0
 11
167.0
 21
224.5
 31
0.0
  0
LINE
  5
23F
  8
1
 62
     7
 10
171.6837553418911
 20
208.94294690957091
 30
0.0
 11
174.31624465810859
 21
207.4230784942138
 31
0.0
  0
LINE
  5
240
  8
1
 62
     7
 10
173.81624465810859
 20
206.55705309042941
 30
0.0
 11
171.1837553418911
 21
208.07692150578629
 31
0.0
  0
LINE
  5
241
  8
1
 62
     7
 10
182.6837553418911
 20
207.4230784942138
 30
0.0
 11
185.31624465810859
 21
208.94294690957091
 31
0.0
  0
LINE
  5
242
  8
1
 62
     7
 10
185.81624465810859
 20
208.07692150578629
 30
0.0
 11
183.1837553418911
 21
206.55705309042941
 31
0.0
  0
LINE
  5
243
  8
1
 62
     7
 10
185.31624465810859
 20
219.05705309042941
 30
0.0
 11
182.6837553418911
 21
220.57692150578629
 31
0.0
  0
LINE
  5
244
  8
1
 62
     7
 10
183.1837553418911
 20
221.44294690957091
 30
0.0
 11
185.81624465810859
 21
219.9230784942138
 31
0.0
  0
LINE
  5
245
  8
1
 62
     7
 10
177.5
 20
206.5
 30
0.0
 11
177.5
 21
221.5
 31
0.0
  0
LINE
  5
246
  8
1
 62
     7
 10
179.5
 20
221.5
 30
0.0
 11
179.5
 21
206.5
 31
0.0
  0
LINE
  5
247
  8
1
 62
     7
 10
174.31624465810859
 20
220.57692150578629
 30
0.0
 11
171.6837553418911
 21
219.05705309042941
 31
0.0
  0
LINE
  5
248
  8
1
 62
     7
 10
171.1837553418911
 20
219.9230784942138
 30
0.0
 11
173.81624465810859
 21
221.44294690957091
 31
0.0
  0
LINE
  5
249
  8
1
 62
     7
 10
167.0
 20
203.50000000000011
 30
0.0
 11
167.0
 21
224.5
 31
0.0
  0
LINE
  5
24A
  8
1
 62
     7
 10
169.0
 20
226.50000000000011
 30
0.0
 11
211.0
 21
226.50000000000011
 31
0.0
  0
LINE
  5
24B
  8
1
 62
     7
 10
208.2500001983048
 20
201.50000000000011
 30
0.0
 11
208.2500001983048
 21
201.0
 31
0.0
  0
LINE
  5
24C
  8
1
 62
     7
 10
206.2500001983046
 20
201.49999978112899
 30
0.0
 11
206.2500001983046
 21
201.0
 31
0.0
  0
LINE
  5
24D
  8
1
 62
     7
 10
196.74999956714879
 20
201.50000000000011
 30
0.0
 11
196.74999956714879
 21
199.0
 31
0.0
  0
LINE
  5
24E
  8
1
 62
     7
 10
194.74999956714879
 20
201.49999978112899
 30
0.0
 11
194.74999956714879
 21
199.0
 31
0.0
  0
LINE
  5
24F
  8
1
 62
     7
 10
219.0
 20
199.0
 30
0.0
 11
210.2500001983048
 21
199.0
 31
0.0
  0
LINE
  5
250
  8
1
 62
     7
 10
219.0
 20
197.0
 30
0.0
 11
198.74999956714879
 21
197.0
 31
0.0
  0
LINE
  5
251
  8
1
 62
     7
 10
219.0
 20
195.0
 30
0.0
 11
198.74999956714879
 21
195.0
 31
0.0
  0
LINE
  5
252
  8
1
 62
     7
 10
171.74999980169531
 20
201.0
 30
0.0
 11
171.74999980169531
 21
201.50000000000011
 31
0.0
  0
LINE
  5
253
  8
1
 62
     7
 10
173.7499998016954
 20
201.0
 30
0.0
 11
173.7499998016954
 21
201.49999978112899
 31
0.0
  0
LINE
  5
254
  8
1
 62
     7
 10
183.25000043285121
 20
199.0
 30
0.0
 11
183.25000043285121
 21
201.50000000000011
 31
0.0
  0
LINE
  5
255
  8
1
 62
     7
 10
185.25000043285129
 20
199.0
 30
0.0
 11
185.25000043285121
 21
201.49999978112899
 31
0.0
  0
LINE
  5
256
  8
1
 62
     7
 10
169.74999980169531
 20
199.0
 30
0.0
 11
161.00000000000011
 21
199.0
 31
0.0
  0
LINE
  5
257
  8
1
 62
     7
 10
181.25000043285121
 20
197.0
 30
0.0
 11
161.00000000000011
 21
197.0
 31
0.0
  0
LINE
  5
258
  8
1
 62
     7
 10
181.25000043285121
 20
195.0
 30
0.0
 11
161.00000000000011
 21
195.0
 31
0.0
  0
LINE
  5
259
  8
1
  6
DASHED
 62
     7
 10
380.0
 20
208.99351532518381
 30
0.0
 11
378.83016880140502
 21
208.99351532518381
 31
0.0
  0
LINE
  5
25A
  8
1
  6
DASHED
 62
     7
 10
387.0
 20
201.50000000000011
 30
0.0
 11
377.6718435671396
 21
201.50000000000011
 31
0.0
  0
LINE
  5
25B
  8
1
 62
     7
 10
378.83016880140502
 20
208.99351532518381
 30
0.0
 11
373.28903397914843
 21
208.99351532518381
 31
0.0
  0
LINE
  5
25C
  8
1
 62
     7
 10
377.6718435671396
 20
201.50000000000011
 30
0.0
 11
368.0
 21
201.50000000000011
 31
0.0
  0
LINE
  5
25D
  8
1
  6
DASHED
 62
     7
 10
381.53626895362208
 20
226.50000000000011
 30
0.0
 11
387.0
 21
226.50000000000011
 31
0.0
  0
ARC
  5
25E
  8
1
 62
     7
 10
136.35073893151039
 20
401.58678204740829
 30
0.0
 40
2.3507389315101732
 50
142.3012451533175
 51
217.69875484668239
  0
ARC
  5
25F
  8
1
 62
     7
 10
142.66683413282411
 20
405.89928204740829
 30
0.0
 40
8.6668341328239684
 50
160.6265294576767
 51
199.37347054232319
  0
ARC
  5
260
  8
1
 62
     7
 10
136.35073893151039
 20
410.21178204740829
 30
0.0
 40
2.3507389315101732
 50
142.3012451533175
 51
217.69875484668239
  0
ARC
  5
261
  8
1
 62
     7
 10
136.64926106848989
 20
401.58678204740829
 30
0.0
 40
2.350738931510286
 50
322.30124515331971
 51
37.698754846680252
  0
ARC
  5
262
  8
1
 62
     7
 10
130.33316586717601
 20
405.89928204740829
 30
0.0
 40
8.6668341328241034
 50
340.6265294576769
 51
19.373470542322998
  0
ARC
  5
263
  8
1
 62
     7
 10
136.64926106848989
 20
410.21178204740829
 30
0.0
 40
2.350738931510286
 50
322.30124515331971
 51
37.698754846680252
  0
ARC
  5
264
  8
1
 62
     7
 10
136.35073893151039
 20
484.45799407199559
 30
0.0
 40
2.3507389315101732
 50
142.3012451533175
 51
217.69875484668239
  0
ARC
  5
265
  8
1
 62
     7
 10
142.66683413282411
 20
480.14549407199559
 30
0.0
 40
8.6668341328239684
 50
160.6265294576767
 51
199.37347054232319
  0
ARC
  5
266
  8
1
 62
     7
 10
136.35073893151039
 20
475.83299407199559
 30
0.0
 40
2.3507389315101732
 50
142.3012451533175
 51
217.69875484668239
  0
ARC
  5
267
  8
1
 62
     7
 10
136.64926106848989
 20
484.45799407199559
 30
0.0
 40
2.350738931510286
 50
322.30124515331971
 51
37.698754846680252
  0
ARC
  5
268
  8
1
 62
     7
 10
130.33316586717601
 20
480.14549407199559
 30
0.0
 40
8.6668341328241034
 50
340.6265294576769
 51
19.373470542322998
  0
ARC
  5
269
  8
1
 62
     7
 10
136.64926106848989
 20
475.83299407199559
 30
0.0
 40
2.350738931510286
 50
322.30124515331971
 51
37.698754846680252
  0
ARC
  5
26A
  8
1
 62
     7
 10
241.14926106848961
 20
410.21178204740818
 30
0.0
 40
2.350738931510195
 50
322.30124515331812
 51
37.698754846681929
  0
ARC
  5
26B
  8
1
 62
     7
 10
234.83316586717561
 20
405.89928204740818
 30
0.0
 40
8.6668341328241851
 50
340.62652945767718
 51
19.373470542322799
  0
ARC
  5
26C
  8
1
 62
     7
 10
241.14926106848961
 20
401.58678204740818
 30
0.0
 40
2.350738931510195
 50
322.30124515331812
 51
37.698754846681929
  0
ARC
  5
26D
  8
1
 62
     7
 10
241.14926106848961
 20
475.83299407199559
 30
0.0
 40
2.350738931510195
 50
322.30124515331812
 51
37.698754846681929
  0
ARC
  5
26E
  8
1
 62
     7
 10
234.83316586717561
 20
480.14549407199559
 30
0.0
 40
8.6668341328241851
 50
340.62652945767718
 51
19.373470542322799
  0
ARC
  5
26F
  8
1
 62
     7
 10
241.14926106848961
 20
484.45799407199559
 30
0.0
 40
2.350738931510195
 50
322.30124515331812
 51
37.698754846681929
  0
ARC
  5
270
  8
1
 62
     7
 10
136.35073893151039
 20
293.43560601229359
 30
0.0
 40
2.3507389315101732
 50
142.3012451533175
 51
217.69875484668239
  0
ARC
  5
271
  8
1
 62
     7
 10
142.66683413282411
 20
289.12310601229359
 30
0.0
 40
8.6668341328239684
 50
160.6265294576767
 51
199.37347054232319
  0
ARC
  5
272
  8
1
 62
     7
 10
136.35073893151039
 20
284.81060601229359
 30
0.0
 40
2.3507389315101732
 50
142.3012451533175
 51
217.69875484668239
  0
ARC
  5
273
  8
1
 62
     7
 10
136.64926106848989
 20
293.43560601229359
 30
0.0
 40
2.350738931510286
 50
322.30124515331971
 51
37.698754846680252
  0
ARC
  5
274
  8
1
 62
     7
 10
130.33316586717601
 20
289.12310601229359
 30
0.0
 40
8.6668341328241034
 50
340.6265294576769
 51
19.373470542322998
  0
ARC
  5
275
  8
1
 62
     7
 10
136.64926106848989
 20
284.81060601229359
 30
0.0
 40
2.350738931510286
 50
322.30124515331971
 51
37.698754846680252
  0
ARC
  5
276
  8
1
 62
     7
 10
241.14926106848961
 20
284.81060601229359
 30
0.0
 40
2.350738931510195
 50
322.30124515331812
 51
37.698754846681929
  0
ARC
  5
277
  8
1
 62
     7
 10
234.83316586717561
 20
289.12310601229359
 30
0.0
 40
8.6668341328241851
 50
340.62652945767718
 51
19.373470542322799
  0
ARC
  5
278
  8
1
 62
     7
 10
241.14926106848961
 20
293.43560601229359
 30
0.0
 40
2.350738931510195
 50
322.30124515331812
 51
37.698754846681929
  0
ARC
  5
279
  8
1
 62
     7
 10
90.499999999999943
 20
443.02238805970188
 30
0.0
 40
2.5000000000001141
 50
270.0
 51
90.0
  0
ARC
  5
27A
  8
1
 62
     7
 10
289.49999999999989
 20
443.02238805970188
 30
0.0
 40
2.5000000000001141
 50
90.0
 51
270.0
  0
ARC
  5
27B
  8
1
 62
     7
 10
115.0
 20
498.02238805970183
 30
0.0
 40
9.0
 50
90.0
 51
270.0
  0
ARC
  5
27C
  8
1
 62
     7
 10
264.99999999999977
 20
498.02238805970183
 30
0.0
 40
9.0
 50
270.0
 51
90.0
  0
ARC
  5
27D
  8
1
 62
     7
 10
115.0
 20
388.02238805970183
 30
0.0
 40
9.0
 50
90.0
 51
270.0
  0
ARC
  5
27E
  8
1
 62
     7
 10
264.99999999999977
 20
388.02238805970183
 30
0.0
 40
9.0
 50
270.0
 51
90.0
  0
ARC
  5
27F
  8
1
 62
     7
 10
136.35073893151039
 20
210.56439398770621
 30
0.0
 40
2.3507389315101732
 50
142.3012451533175
 51
217.69875484668239
  0
ARC
  5
280
  8
1
 62
     7
 10
142.66683413282411
 20
214.87689398770621
 30
0.0
 40
8.6668341328239684
 50
160.6265294576767
 51
199.37347054232319
  0
ARC
  5
281
  8
1
 62
     7
 10
136.35073893151039
 20
219.1893939877063
 30
0.0
 40
2.3507389315101732
 50
142.3012451533175
 51
217.69875484668239
  0
ARC
  5
282
  8
1
 62
     7
 10
136.64926106848989
 20
210.56439398770621
 30
0.0
 40
2.350738931510286
 50
322.30124515331971
 51
37.698754846680252
  0
ARC
  5
283
  8
1
 62
     7
 10
130.33316586717601
 20
214.87689398770621
 30
0.0
 40
8.6668341328241034
 50
340.6265294576769
 51
19.373470542322998
  0
ARC
  5
284
  8
1
 62
     7
 10
136.64926106848989
 20
219.1893939877063
 30
0.0
 40
2.350738931510286
 50
322.30124515331971
 51
37.698754846680252
  0
ARC
  5
285
  8
1
 62
     7
 10
241.14926106848961
 20
219.1893939877063
 30
0.0
 40
2.350738931510195
 50
322.30124515331812
 51
37.698754846681929
  0
ARC
  5
286
  8
1
 62
     7
 10
234.83316586717561
 20
214.87689398770621
 30
0.0
 40
8.6668341328241851
 50
340.62652945767718
 51
19.373470542322799
  0
ARC
  5
287
  8
1
 62
     7
 10
241.14926106848961
 20
210.56439398770621
 30
0.0
 40
2.350738931510195
 50
322.30124515331812
 51
37.698754846681929
  0
ARC
  5
288
  8
1
 62
     7
 10
445.0
 20
252.74250000000001
 30
0.0
 40
11.4574999999999
 50
309.86337687322032
 51
230.13662312677951
  0
ARC
  5
289
  8
1
 62
     7
 10
445.0
 20
252.0
 30
0.0
 40
7.5
 50
109.47122063449071
 51
70.528779365509308
  0
ARC
  5
28A
  8
1
 62
     7
 10
445.0
 20
252.0
 30
0.0
 40
63.000000000000142
 50
159.7064124541491
 51
161.7900431357169
  0
ARC
  5
28B
  8
1
 62
     7
 10
445.0
 20
252.0
 30
0.0
 40
63.000000000000362
 50
137.46268623789061
 51
139.7053316376539
  0
ARC
  5
28C
  8
1
 62
     7
 10
445.0
 20
252.0
 30
0.0
 40
63.000000000000092
 50
152.03577462304531
 51
154.39211055490361
  0
ARC
  5
28D
  8
1
 62
     7
 10
445.0
 20
252.0
 30
0.0
 40
63.000000000000092
 50
144.66973883867291
 51
146.94843239922881
  0
ARC
  5
28E
  8
1
 62
     7
 10
445.0
 20
252.0
 30
0.0
 40
63.000000000000043
 50
108.209956864283
 51
110.2935875458511
  0
ARC
  5
28F
  8
1
 62
     7
 10
445.0
 20
252.0
 30
0.0
 40
63.0
 50
115.6078894450965
 51
117.9642253769547
  0
ARC
  5
290
  8
1
 62
     7
 10
445.0
 20
252.0
 30
0.0
 40
62.999999999999993
 50
123.05156760077151
 51
125.3302611613272
  0
ARC
  5
291
  8
1
 62
     7
 10
445.0
 20
252.0
 30
0.0
 40
63.000000000000107
 50
130.29466836234641
 51
132.53731376210899
  0
ARC
  5
292
  8
1
 62
     7
 10
445.0
 20
252.0
 30
0.0
 40
63.000000000000057
 50
69.706412454148989
 51
71.790043135716886
  0
ARC
  5
293
  8
1
 62
     7
 10
445.0
 20
252.0
 30
0.0
 40
63.000000000000043
 50
62.03577462304532
 51
64.392110554903525
  0
ARC
  5
294
  8
1
 62
     7
 10
445.0
 20
252.0
 30
0.0
 40
62.999999999999993
 50
54.669738838672863
 51
56.948432399228558
  0
ARC
  5
295
  8
1
 62
     7
 10
445.0
 20
252.0
 30
0.0
 40
63.000000000000092
 50
47.462686237890921
 51
49.705331637653629
  0
ARC
  5
296
  8
1
 62
     7
 10
445.0
 20
252.0
 30
0.0
 40
63.000000000000107
 50
18.209956864282979
 51
20.293587545850869
  0
ARC
  5
297
  8
1
 62
     7
 10
445.0
 20
252.0
 30
0.0
 40
63.000000000000057
 50
25.607889445096301
 51
27.964225376954609
  0
ARC
  5
298
  8
1
 62
     7
 10
445.0
 20
252.0
 30
0.0
 40
63.00000000000022
 50
33.051567600771193
 51
35.330261161327087
  0
ARC
  5
299
  8
1
 62
     7
 10
445.0
 20
252.0
 30
0.0
 40
63.000000000000277
 50
40.294668362346052
 51
42.537313762109342
  0
ARC
  5
29A
  8
1
 62
     7
 10
445.0
 20
252.0
 30
0.0
 40
63.000000000000057
 50
311.56061639149459
 51
312.53731376210908
  0
ARC
  5
29B
  8
1
 62
     7
 10
445.0
 20
252.0
 30
0.0
 40
63.000000000000142
 50
339.70641245414907
 51
341.79004313571693
  0
ARC
  5
29C
  8
1
 62
     7
 10
445.0
 20
252.0
 30
0.0
 40
63.000000000000171
 50
332.03577462304531
 51
334.39211055490358
  0
ARC
  5
29D
  8
1
 62
     7
 10
445.0
 20
252.0
 30
0.0
 40
63.000000000000071
 50
324.6697388386728
 51
326.94843239922869
  0
ARC
  5
29E
  8
1
 62
     7
 10
445.0
 20
252.0
 30
0.0
 40
63.00000000000032
 50
317.46268623789058
 51
319.7053316376539
  0
ARC
  5
29F
  8
1
 62
     7
 10
445.0
 20
252.0
 30
0.0
 40
63.000000000000107
 50
198.20995686428299
 51
200.2935875458509
  0
ARC
  5
2A0
  8
1
 62
     7
 10
445.0
 20
252.0
 30
0.0
 40
63.000000000000142
 50
220.2946683623461
 51
222.53731376210931
  0
ARC
  5
2A1
  8
1
 62
     7
 10
445.0
 20
252.0
 30
0.0
 40
63.000000000000057
 50
205.6078894450963
 51
207.9642253769546
  0
ARC
  5
2A2
  8
1
 62
     7
 10
445.0
 20
252.0
 30
0.0
 40
63.000000000000107
 50
213.05156760077131
 51
215.330261161327
  0
ARC
  5
2A3
  8
1
 62
     7
 10
445.0
 20
252.0
 30
0.0
 40
63.000000000000107
 50
227.46268623789101
 51
228.43938360850541
  0
ARC
  5
2A4
  8
1
  6
DASHED
 62
     7
 10
386.30000000000013
 20
214.00000000000011
 30
0.0
 40
7.0000000000001954
 50
190.24502136841019
 51
196.9577633000041
  0
ARC
  5
2A5
  8
1
 62
     7
 10
190.0
 20
214.00000000000011
 30
0.0
 40
3.6214060411255078
 50
106.0297142583964
 51
253.97028574160359
  0
ARC
  5
2A6
  8
1
 62
     7
 10
190.0
 20
214.00000000000011
 30
0.0
 40
3.6214060411255349
 50
286.02971425839633
 51
0.0
  0
ARC
  5
2A7
  8
1
 62
     7
 10
190.0
 20
214.00000000000011
 30
0.0
 40
3.6214060411253972
 50
0.0
 51
73.970285741603576
  0
ARC
  5
2A8
  8
1
 62
     7
 10
160.25
 20
212.25
 30
0.0
 40
1.487500000000096
 50
0.0
 51
90.0
  0
ARC
  5
2A9
  8
1
 62
     7
 10
160.25
 20
215.75000000000011
 30
0.0
 40
1.4874999999999261
 50
270.0
 51
0.0
  0
ARC
  5
2AA
  8
1
 62
     7
 10
163.75
 20
215.75000000000011
 30
0.0
 40
1.4875000000002101
 50
180.0
 51
270.0
  0
ARC
  5
2AB
  8
1
 62
     7
 10
163.75
 20
212.25
 30
0.0
 40
1.4874999999999821
 50
90.0
 51
180.0
  0
ARC
  5
2AC
  8
1
 62
     7
 10
216.25
 20
212.25
 30
0.0
 40
1.4874999999998979
 50
0.0
 51
90.0
  0
ARC
  5
2AD
  8
1
 62
     7
 10
216.25
 20
215.75000000000011
 30
0.0
 40
1.4874999999999261
 50
270.0
 51
0.0
  0
ARC
  5
2AE
  8
1
 62
     7
 10
219.75000000000011
 20
215.75000000000011
 30
0.0
 40
1.487500000000324
 50
180.0
 51
270.0
  0
ARC
  5
2AF
  8
1
 62
     7
 10
219.75000000000011
 20
212.25
 30
0.0
 40
1.4874999999999821
 50
90.0
 51
180.0
  0
ARC
  5
2B0
  8
1
 62
     7
 10
219.0
 20
196.0
 30
0.0
 40
1.0
 50
270.0
 51
90.0
  0
ARC
  5
2B1
  8
1
 62
     7
 10
219.0
 20
198.0
 30
0.0
 40
1.0
 50
270.0
 51
90.0
  0
ARC
  5
2B2
  8
1
 62
     7
 10
219.0
 20
197.0
 30
0.0
 40
3.9999999999999578
 50
210.00000000000031
 51
149.99999999999969
  0
ARC
  5
2B3
  8
1
 62
     7
 10
161.00000000000011
 20
196.0
 30
0.0
 40
1.0
 50
90.0
 51
270.0
  0
ARC
  5
2B4
  8
1
 62
     7
 10
161.00000000000011
 20
198.0
 30
0.0
 40
1.0
 50
90.0
 51
270.0
  0
ARC
  5
2B5
  8
1
 62
     7
 10
161.00000000000011
 20
197.0
 30
0.0
 40
3.9999999999999352
 50
30.00000000000054
 51
329.99999999999932
  0
ARC
  5
2B6
  8
1
 62
     7
 10
386.30000000000013
 20
214.00000000000011
 30
0.0
 40
7.0000000000000684
 50
163.0422366999949
 51
190.24502136841019
  0
CIRCLE
  5
2B7
  8
1
 62
     7
 10
115.0
 20
498.02238805970183
 30
0.0
 40
4.25
  0
CIRCLE
  5
2B8
  8
1
 62
     7
 10
264.99999999999977
 20
498.02238805970183
 30
0.0
 40
4.250000000000056
  0
CIRCLE
  5
2B9
  8
1
 62
     7
 10
115.0
 20
388.02238805970183
 30
0.0
 40
4.25
  0
CIRCLE
  5
2BA
  8
1
 62
     7
 10
264.99999999999977
 20
388.02238805970183
 30
0.0
 40
4.250000000000056
  0
CIRCLE
  5
2BB
  8
1
 62
     7
 10
445.0
 20
252.0
 30
0.0
 40
23.5
  0
CIRCLE
  5
2BC
  8
1
 62
     7
 10
445.0
 20
252.0
 30
0.0
 40
10.0
  0
CIRCLE
  5
2BD
  8
1
 62
     7
 10
449.13333333333321
 20
240.5020410288673
 30
0.0
 40
1.0
  0
CIRCLE
  5
2BE
  8
1
 62
     7
 10
440.86666666666667
 20
240.5020410288673
 30
0.0
 40
1.0
  0
CIRCLE
  5
2BF
  8
1
 62
     7
 10
445.0
 20
252.0
 30
0.0
 40
29.0
  0
CIRCLE
  5
2C0
  8
1
 62
     7
 10
445.0
 20
252.0
 30
0.0
 40
40.0
  0
CIRCLE
  5
2C1
  8
1
 62
     7
 10
445.0
 20
252.0
 30
0.0
 40
45.0
  0
CIRCLE
  5
2C2
  8
1
 62
     7
 10
407.8768939877063
 20
289.12310601229382
 30
0.0
 40
6.0
  0
CIRCLE
  5
2C3
  8
1
 62
     7
 10
407.8768939877063
 20
289.12310601229382
 30
0.0
 40
5.0
  0
CIRCLE
  5
2C4
  8
1
 62
     7
 10
407.8768939877063
 20
214.87689398770621
 30
0.0
 40
6.0
  0
CIRCLE
  5
2C5
  8
1
 62
     7
 10
407.8768939877063
 20
214.87689398770621
 30
0.0
 40
5.0
  0
CIRCLE
  5
2C6
  8
1
 62
     7
 10
482.12310601229359
 20
214.87689398770621
 30
0.0
 40
6.0
  0
CIRCLE
  5
2C7
  8
1
 62
     7
 10
482.12310601229359
 20
214.87689398770621
 30
0.0
 40
5.0
  0
CIRCLE
  5
2C8
  8
1
 62
     7
 10
482.12310601229359
 20
289.1231060122937
 30
0.0
 40
6.0
  0
CIRCLE
  5
2C9
  8
1
 62
     7
 10
482.12310601229359
 20
289.1231060122937
 30
0.0
 40
5.0
  0
CIRCLE
  5
2CA
  8
1
 62
     7
 10
445.0
 20
252.0
 30
0.0
 40
1.8999999999999759
  0
CIRCLE
  5
2CB
  8
1
 62
     3
 10
445.0
 20
252.0
 30
0.0
 40
2.5
  0
CIRCLE
  5
2CC
  8
1
 62
     7
 10
162.0
 20
214.00000000000011
 30
0.0
 40
2.75
  0
CIRCLE
  5
2CD
  8
1
 62
     7
 10
218.00000000000011
 20
214.00000000000011
 30
0.0
 40
2.75
  0
CIRCLE
  5
2CE
  8
1
 62
     7
 10
207.25
 20
207.75000000000011
 30
0.0
 40
2.4421347818824022
  0
CIRCLE
  5
2CF
  8
1
 62
     7
 10
207.25
 20
207.75000000000011
 30
0.0
 40
1.600000000000108
  0
CIRCLE
  5
2D0
  8
1
 62
     7
 10
195.75
 20
207.75000000000011
 30
0.0
 40
2.4421347818822881
  0
CIRCLE
  5
2D1
  8
1
 62
     7
 10
195.75
 20
207.75000000000011
 30
0.0
 40
1.5999999999999941
  0
CIRCLE
  5
2D2
  8
1
 62
     7
 10
195.75
 20
220.25000000000011
 30
0.0
 40
2.4421347818822881
  0
CIRCLE
  5
2D3
  8
1
 62
     7
 10
195.75
 20
220.25000000000011
 30
0.0
 40
1.5999999999999941
  0
CIRCLE
  5
2D4
  8
1
 62
     7
 10
207.25
 20
220.25000000000011
 30
0.0
 40
2.4421347818824022
  0
CIRCLE
  5
2D5
  8
1
 62
     7
 10
207.25
 20
220.25000000000011
 30
0.0
 40
1.600000000000108
  0
CIRCLE
  5
2D6
  8
1
 62
     7
 10
172.75
 20
207.75000000000011
 30
0.0
 40
2.4421347818822881
  0
CIRCLE
  5
2D7
  8
1
 62
     7
 10
172.75
 20
207.75000000000011
 30
0.0
 40
1.5999999999999941
  0
CIRCLE
  5
2D8
  8
1
 62
     7
 10
184.25
 20
207.75000000000011
 30
0.0
 40
2.4421347818824022
  0
CIRCLE
  5
2D9
  8
1
 62
     7
 10
184.25
 20
207.75000000000011
 30
0.0
 40
1.600000000000108
  0
CIRCLE
  5
2DA
  8
1
 62
     7
 10
184.25
 20
220.25000000000011
 30
0.0
 40
2.4421347818824022
  0
CIRCLE
  5
2DB
  8
1
 62
     7
 10
184.25
 20
220.25000000000011
 30
0.0
 40
1.600000000000108
  0
CIRCLE
  5
2DC
  8
1
 62
     7
 10
172.75
 20
220.25000000000011
 30
0.0
 40
2.4421347818822881
  0
CIRCLE
  5
2DD
  8
1
 62
     7
 10
172.75
 20
220.25000000000011
 30
0.0
 40
1.5999999999999941
  0
ARC
  5
2DE
  8
1
 62
     7
 10
168.0
 20
366.02238805970183
 30
0.0
 40
1.0
 50
180.0
 51
270.0
  0
ARC
  5
2DF
  8
1
 62
     7
 10
212.0
 20
366.02238805970183
 30
0.0
 40
1.0
 50
270.0
 51
0.0
  0
ARC
  5
2E0
  8
1
 62
     7
 10
235.9999999999998
 20
460.02238805970222
 30
0.0
 40
2.0
 50
0.0
 51
90.0
  0
ARC
  5
2E1
  8
1
 62
     7
 10
144.0
 20
460.02238805970222
 30
0.0
 40
2.0
 50
90.0
 51
180.0
  0
ARC
  5
2E2
  8
1
 62
     7
 10
239.00000000000011
 20
398.89928204740818
 30
0.0
 40
1.0
 50
90.0
 51
180.0
  0
ARC
  5
2E3
  8
1
 62
     7
 10
141.0
 20
412.89928204740818
 30
0.0
 40
1.0
 50
270.0
 51
0.0
  0
ARC
  5
2E4
  8
1
 62
     7
 10
141.0
 20
487.14549407199559
 30
0.0
 40
1.0
 50
270.0
 51
0.0
  0
ARC
  5
2E5
  8
1
 62
     7
 10
141.0
 20
473.14549407199559
 30
0.0
 40
1.0
 50
0.0
 51
90.0
  0
ARC
  5
2E6
  8
1
 62
     7
 10
140.0
 20
489.56416518647973
 30
0.0
 40
2.0000000000000351
 50
284.74356283646802
 51
0.0
  0
ARC
  5
2E7
  8
1
 62
     7
 10
239.00000000000011
 20
412.89928204740818
 30
0.0
 40
1.0000000000002269
 50
180.0
 51
270.0
  0
ARC
  5
2E8
  8
1
 62
     7
 10
239.00000000000011
 20
487.14549407199559
 30
0.0
 40
1.0000000000002269
 50
180.0
 51
270.0
  0
ARC
  5
2E9
  8
1
 62
     7
 10
239.00000000000011
 20
473.14549407199559
 30
0.0
 40
1.0
 50
90.0
 51
180.0
  0
ARC
  5
2EA
  8
1
 62
     7
 10
141.0
 20
296.12310601229359
 30
0.0
 40
1.0
 50
270.0
 51
0.0
  0
ARC
  5
2EB
  8
1
 62
     7
 10
239.00000000000011
 20
296.12310601229382
 30
0.0
 40
1.0000000000002269
 50
180.0
 51
270.0
  0
ARC
  5
2EC
  8
1
 62
     7
 10
141.0
 20
282.12310601229359
 30
0.0
 40
1.0
 50
0.0
 51
90.0
  0
ARC
  5
2ED
  8
1
 62
     7
 10
239.00000000000011
 20
282.12310601229359
 30
0.0
 40
1.0
 50
90.0
 51
180.0
  0
ARC
  5
2EE
  8
1
 62
     7
 10
146.5
 20
507.09284731484217
 30
0.0
 40
1.5
 50
0.0
 51
82.931253708349615
  0
ARC
  5
2EF
  8
1
 62
     7
 10
130.0
 20
501.58144900404079
 30
0.0
 40
3.0000000000000631
 50
82.931253708347356
 51
180.0
  0
ARC
  5
2F0
  8
1
 62
     7
 10
107.0
 20
475.52238805970183
 30
0.0
 40
5.0
 50
180.0
 51
224.42700400080241
  0
ARC
  5
2F1
  8
1
 62
     7
 10
124.9999999999999
 20
481.48061093292432
 30
0.0
 40
1.99999999999998
 50
104.7435628364684
 51
180.0
  0
ARC
  5
2F2
  8
1
 62
     7
 10
140.0
 20
489.56416518647973
 30
0.0
 40
2.0000000000000351
 50
284.74356283646802
 51
0.0
  0
ARC
  5
2F3
  8
1
 62
     7
 10
120.9999999999999
 20
474.02238805970211
 30
0.0
 40
2.0
 50
270.0
 51
0.0
  0
ARC
  5
2F4
  8
1
 62
     7
 10
145.0
 20
503.02238805970183
 30
0.0
 40
3.0
 50
90.0
 51
180.0
  0
ARC
  5
2F5
  8
1
 62
     7
 10
126.0
 20
508.02238805970183
 30
0.0
 40
1.0
 50
270.0
 51
0.0
  0
ARC
  5
2F6
  8
1
 62
     7
 10
107.0
 20
506.02238805970183
 30
0.0
 40
5.0
 50
90.0
 51
180.0
  0
ARC
  5
2F7
  8
1
 62
     7
 10
99.999999999999872
 20
470.02238805970211
 30
0.0
 40
2.0
 50
90.0
 51
180.0
  0
ARC
  5
2F8
  8
1
 62
     7
 10
279.99999999999989
 20
470.02238805970183
 30
0.0
 40
2.0
 50
0.0
 51
90.0
  0
ARC
  5
2F9
  8
1
 62
     7
 10
272.99999999999977
 20
506.02238805970183
 30
0.0
 40
5.0
 50
0.0
 51
90.0
  0
ARC
  5
2FA
  8
1
 62
     7
 10
253.9999999999998
 20
508.02238805970183
 30
0.0
 40
1.0
 50
180.0
 51
270.0
  0
ARC
  5
2FB
  8
1
 62
     7
 10
234.99999999999969
 20
503.02238805970183
 30
0.0
 40
2.9999999999998859
 50
0.0
 51
90.0
  0
ARC
  5
2FC
  8
1
 62
     7
 10
259.0
 20
474.02238805970183
 30
0.0
 40
2.0
 50
180.0
 51
270.0
  0
ARC
  5
2FD
  8
1
 62
     7
 10
239.9999999999998
 20
489.56416518647973
 30
0.0
 40
2.0
 50
180.0
 51
255.25643716353159
  0
ARC
  5
2FE
  8
1
 62
     7
 10
255.0
 20
481.48061093292421
 30
0.0
 40
2.0
 50
0.0
 51
75.256437163530762
  0
ARC
  5
2FF
  8
1
 62
     7
 10
272.99999999999977
 20
475.52238805970183
 30
0.0
 40
5.0000000000000977
 50
315.57299599919639
 51
0.0
  0
ARC
  5
300
  8
1
 62
     7
 10
249.9999999999998
 20
501.58144900404068
 30
0.0
 40
2.9999999999998859
 50
0.0
 51
97.068746291652943
  0
ARC
  5
301
  8
1
 62
     7
 10
233.4999999999998
 20
507.09284731484217
 30
0.0
 40
1.5000000000000531
 50
97.068746291650413
 51
180.0
  0
ARC
  5
302
  8
1
 62
     7
 10
144.0
 20
383.58765904287759
 30
0.0
 40
2.0
 50
180.0
 51
270.0
  0
ARC
  5
303
  8
1
 62
     7
 10
144.0
 20
387.41095234596457
 30
0.0
 40
2.0
 50
180.0
 51
270.0
  0
ARC
  5
304
  8
1
 62
     7
 10
144.0
 20
392.00303552300761
 30
0.0
 40
2.0
 50
180.0
 51
270.0
  0
ARC
  5
305
  8
1
 62
     7
 10
144.0
 20
397.31044728257632
 30
0.0
 40
2.0
 50
180.0
 51
270.0
  0
ARC
  5
306
  8
1
 62
     7
 10
144.0
 20
403.31674402199189
 30
0.0
 40
2.0
 50
180.0
 51
270.0
  0
ARC
  5
307
  8
1
 62
     7
 10
144.0
 20
410.03836934393382
 30
0.0
 40
2.0
 50
180.0
 51
270.0
  0
ARC
  5
308
  8
1
 62
     7
 10
144.0
 20
417.52878453983141
 30
0.0
 40
2.0
 50
180.0
 51
270.0
  0
ARC
  5
309
  8
1
 62
     7
 10
144.0
 20
426.02238805970183
 30
0.0
 40
2.0
 50
180.0
 51
270.0
  0
ARC
  5
30A
  8
1
 62
     7
 10
146.5
 20
378.95192880456159
 30
0.0
 40
1.499999999999996
 50
277.06874629165071
 51
0.0
  0
ARC
  5
30B
  8
1
 62
     7
 10
130.0
 20
384.46332711536297
 30
0.0
 40
3.0
 50
180.0
 51
277.06874629165281
  0
ARC
  5
30C
  8
1
 62
     7
 10
107.0
 20
410.52238805970183
 30
0.0
 40
5.000000000000087
 50
135.57299599919611
 51
180.0
  0
ARC
  5
30D
  8
1
 62
     7
 10
124.9999999999999
 20
404.56416518647961
 30
0.0
 40
2.0
 50
180.0
 51
255.25643716353159
  0
ARC
  5
30E
  8
1
 62
     7
 10
140.0
 20
396.48061093292421
 30
0.0
 40
2.0
 50
0.0
 51
75.256437163530762
  0
ARC
  5
30F
  8
1
 62
     7
 10
120.9999999999999
 20
412.02238805970183
 30
0.0
 40
2.0
 50
0.0
 51
90.0
  0
ARC
  5
310
  8
1
 62
     7
 10
145.0
 20
383.02238805970183
 30
0.0
 40
3.0
 50
180.0
 51
270.0
  0
ARC
  5
311
  8
1
 62
     7
 10
126.0
 20
378.02238805970183
 30
0.0
 40
1.0
 50
0.0
 51
90.0
  0
ARC
  5
312
  8
1
 62
     7
 10
107.0
 20
380.02238805970183
 30
0.0
 40
5.0
 50
180.0
 51
270.0
  0
ARC
  5
313
  8
1
 62
     7
 10
99.999999999999872
 20
416.02238805970183
 30
0.0
 40
2.0
 50
180.0
 51
270.0
  0
ARC
  5
314
  8
1
 62
     7
 10
279.99999999999989
 20
416.02238805970183
 30
0.0
 40
2.0
 50
270.0
 51
0.0
  0
ARC
  5
315
  8
1
 62
     7
 10
272.99999999999977
 20
380.02238805970183
 30
0.0
 40
5.0
 50
270.0
 51
0.0
  0
ARC
  5
316
  8
1
 62
     7
 10
253.9999999999998
 20
378.02238805970183
 30
0.0
 40
1.0
 50
90.0
 51
180.0
  0
ARC
  5
317
  8
1
 62
     7
 10
234.99999999999969
 20
383.02238805970183
 30
0.0
 40
3.0
 50
270.0
 51
0.0
  0
ARC
  5
318
  8
1
 62
     7
 10
259.0
 20
412.02238805970183
 30
0.0
 40
2.0
 50
90.0
 51
180.0
  0
ARC
  5
319
  8
1
 62
     7
 10
239.9999999999998
 20
396.48061093292421
 30
0.0
 40
1.9999999999998701
 50
104.7435628364692
 51
180.0
  0
ARC
  5
31A
  8
1
 62
     7
 10
255.0
 20
404.56416518647961
 30
0.0
 40
1.99999999999998
 50
284.74356283646841
 51
0.0
  0
ARC
  5
31B
  8
1
 62
     7
 10
272.99999999999977
 20
410.52238805970183
 30
0.0
 40
5.0
 50
0.0
 51
44.427004000803691
  0
ARC
  5
31C
  8
1
 62
     7
 10
249.9999999999998
 20
384.46332711536309
 30
0.0
 40
3.0000000000000062
 50
262.93125370834719
 51
0.0
  0
ARC
  5
31D
  8
1
 62
     7
 10
233.4999999999998
 20
378.95192880456159
 30
0.0
 40
1.5
 50
180.0
 51
262.9312537083494
  0
ARC
  5
31E
  8
1
 62
     7
 10
235.9999999999998
 20
426.02238805970183
 30
0.0
 40
2.0
 50
270.0
 51
0.0
  0
ARC
  5
31F
  8
1
 62
     7
 10
235.9999999999998
 20
417.52878453983141
 30
0.0
 40
2.0
 50
270.0
 51
0.0
  0
ARC
  5
320
  8
1
 62
     7
 10
235.9999999999998
 20
410.03836934393382
 30
0.0
 40
2.0
 50
270.0
 51
0.0
  0
ARC
  5
321
  8
1
 62
     7
 10
235.9999999999998
 20
403.31674402199189
 30
0.0
 40
2.0
 50
270.0
 51
0.0
  0
ARC
  5
322
  8
1
 62
     7
 10
235.9999999999998
 20
397.31044728257632
 30
0.0
 40
2.0
 50
270.0
 51
0.0
  0
ARC
  5
323
  8
1
 62
     7
 10
235.9999999999998
 20
392.00303552300761
 30
0.0
 40
2.0000000000001141
 50
270.0
 51
0.0
  0
ARC
  5
324
  8
1
 62
     7
 10
235.9999999999998
 20
387.41095234596457
 30
0.0
 40
2.0
 50
270.0
 51
0.0
  0
ARC
  5
325
  8
1
 62
     7
 10
235.9999999999998
 20
383.58765904287782
 30
0.0
 40
2.0
 50
270.0
 51
0.0
  0
ARC
  5
326
  8
1
 62
     7
 10
99.999999999999957
 20
279.0
 30
0.0
 40
2.0
 50
90.0
 51
180.0
  0
ARC
  5
327
  8
1
 62
     7
 10
99.999999999999957
 20
225.0
 30
0.0
 40
2.0
 50
180.0
 51
270.0
  0
ARC
  5
328
  8
1
 62
     7
 10
280.0
 20
225.0
 30
0.0
 40
2.0
 50
270.0
 51
0.0
  0
ARC
  5
329
  8
1
 62
     7
 10
280.0
 20
279.0
 30
0.0
 40
2.0
 50
0.0
 51
90.0
  0
ARC
  5
32A
  8
1
 62
     7
 10
254.99999999999989
 20
290.45822287322233
 30
0.0
 40
2.0
 50
0.0
 51
75.256437163528446
  0
ARC
  5
32B
  8
1
 62
     7
 10
258.99999999999989
 20
283.00000000000011
 30
0.0
 40
2.0
 50
180.0
 51
270.0
  0
ARC
  5
32C
  8
1
 62
     7
 10
240.0
 20
298.54177712677779
 30
0.0
 40
2.0
 50
180.0
 51
255.25643716352931
  0
ARC
  5
32D
  8
1
 62
     7
 10
236.0
 20
313.00000000000011
 30
0.0
 40
2.0
 50
0.0
 51
90.0
  0
ARC
  5
32E
  8
1
 62
     7
 10
255.0
 20
213.5417771267779
 30
0.0
 40
2.0000000000000022
 50
284.7435628364708
 51
0.0
  0
ARC
  5
32F
  8
1
 62
     7
 10
234.0
 20
231.0
 30
0.0
 40
2.0
 50
90.0
 51
180.0
  0
ARC
  5
330
  8
1
 62
     7
 10
236.0
 20
235.0
 30
0.0
 40
2.0
 50
270.0
 51
0.0
  0
ARC
  5
331
  8
1
 62
     7
 10
239.00000000000011
 20
221.8768939877063
 30
0.0
 40
1.0000000000002269
 50
180.0
 51
270.0
  0
ARC
  5
332
  8
1
 62
     7
 10
234.99999999999989
 20
215.5438536858754
 30
0.0
 40
3.0
 50
180.0
 51
234.4623222080256
  0
ARC
  5
333
  8
1
 62
     7
 10
125.0
 20
290.45822287322233
 30
0.0
 40
2.000000000000004
 50
104.7435628364711
 51
180.0
  0
ARC
  5
334
  8
1
 62
     7
 10
139.99999999999989
 20
298.54177712677779
 30
0.0
 40
2.000000000000008
 50
284.74356283647143
 51
0.0
  0
ARC
  5
335
  8
1
 62
     7
 10
125.0
 20
213.5417771267779
 30
0.0
 40
2.0
 50
180.0
 51
255.25643716352889
  0
ARC
  5
336
  8
1
 62
     7
 10
146.0
 20
231.0
 30
0.0
 40
2.0
 50
0.0
 51
90.0
  0
ARC
  5
337
  8
1
 62
     7
 10
143.99999999999989
 20
235.0
 30
0.0
 40
2.0
 50
180.0
 51
270.0
  0
ARC
  5
338
  8
1
 62
     7
 10
379.0
 20
229.73049677557159
 30
0.0
 40
3.0000000000000169
 50
351.21293516601122
 51
0.0
  0
ARC
  5
339
  8
1
 62
     7
 10
511.0
 20
229.73049677557159
 30
0.0
 40
3.0
 50
180.0
 51
188.78706483398659
  0
ARC
  5
33A
  8
1
 62
     7
 10
388.24721372492547
 20
211.0
 30
0.0
 40
3.0
 50
90.0
 51
171.2129351660131
  0
ARC
  5
33B
  8
1
 62
     7
 10
386.85602058579173
 20
202.0
 30
0.0
 40
2.999999999999944
 50
171.2129351660131
 51
270.0
  0
ARC
  5
33C
  8
1
 62
     7
 10
501.75278627507441
 20
211.0
 30
0.0
 40
2.999999999999944
 50
8.7870648339868396
 51
90.0
  0
ARC
  5
33D
  8
1
 62
     7
 10
503.14397941420822
 20
202.0
 30
0.0
 40
3.0
 50
270.0
 51
8.7870648339868396
  0
ARC
  5
33E
  8
1
 62
     7
 10
143.99999999999989
 20
313.00000000000011
 30
0.0
 40
2.0
 50
90.0
 51
180.0
  0
ARC
  5
33F
  8
1
 62
     7
 10
121.0
 20
283.00000000000011
 30
0.0
 40
2.0
 50
270.0
 51
0.0
  0
ARC
  5
340
  8
1
 62
     7
 10
121.0
 20
221.0
 30
0.0
 40
2.0
 50
0.0
 51
90.0
  0
ARC
  5
341
  8
1
 62
     7
 10
104.0
 20
197.0
 30
0.0
 40
2.0
 50
90.0
 51
180.0
  0
ARC
  5
342
  8
1
 62
     7
 10
141.0
 20
221.8768939877063
 30
0.0
 40
1.0
 50
270.0
 51
0.0
  0
ARC
  5
343
  8
1
  6
DASHED
 62
     7
 10
384.0
 20
228.4000000000002
 30
0.0
 40
3.0
 50
0.0
 51
22.619864948041009
  0
ARC
  5
344
  8
1
 62
     7
 10
259.0
 20
221.0
 30
0.0
 40
2.0
 50
90.0
 51
180.0
  0
ARC
  5
345
  8
1
 62
     7
 10
276.0
 20
197.0
 30
0.0
 40
2.0
 50
0.0
 51
90.0
  0
ARC
  5
346
  8
1
 62
     7
 10
224.76393202250009
 20
187.0
 30
0.0
 40
3.000000000000083
 50
41.810314895780067
 51
90.0
  0
ARC
  5
347
  8
1
 62
     7
 10
155.50000000000031
 20
226.49999999999969
 30
0.0
 40
2.5495097567966201
 50
78.690067525989932
 51
168.69006752599029
  0
ARC
  5
348
  8
1
 62
     7
 10
223.99999999999989
 20
226.0
 30
0.0
 40
3.0
 50
0.0
 51
90.0
  0
ARC
  5
349
  8
1
 62
     7
 10
156.0
 20
237.9999999999994
 30
0.0
 40
2.9999999999998859
 50
90.0
 51
180.0
  0
ARC
  5
34A
  8
1
 62
     7
 10
223.99999999999989
 20
237.9999999999994
 30
0.0
 40
3.0
 50
0.0
 51
90.0
  0
ARC
  5
34B
  8
1
 62
     7
 10
449.26666666666671
 20
240.80204102886731
 30
0.0
 40
2.0
 50
270.0
 51
0.0
  0
ARC
  5
34C
  8
1
 62
     7
 10
440.73333333333329
 20
240.80204102886731
 30
0.0
 40
2.0
 50
180.0
 51
270.0
  0
ARC
  5
34D
  8
1
 62
     7
 10
454.26666666666671
 20
241.64528435196959
 30
0.0
 40
3.000000000000103
 50
129.863376873221
 51
180.0
  0
ARC
  5
34E
  8
1
 62
     7
 10
435.73333333333329
 20
241.64528435196959
 30
0.0
 40
3.0
 50
0.0
 51
50.136623126780549
  0
ARC
  5
34F
  8
1
 62
     7
 10
155.2360679774998
 20
187.0
 30
0.0
 40
2.9999999999998859
 50
90.0
 51
138.18968510422141
  0
ARC
  5
350
  8
1
 62
     7
 10
474.5
 20
190.84529946162061
 30
0.0
 40
2.0000000000000151
 50
119.9999999999997
 51
180.0
  0
ARC
  5
351
  8
1
 62
     7
 10
485.42820323027559
 20
196.0
 30
0.0
 40
3.0
 50
90.0
 51
120.0000000000003
  0
ARC
  5
352
  8
1
 62
     7
 10
470.26393202250023
 20
186.99999999999989
 30
0.0
 40
3.00000000000002
 50
41.810314895781168
 51
90.0
  0
ARC
  5
353
  8
1
 62
     7
 10
415.5
 20
190.84529946162061
 30
0.0
 40
2.0
 50
0.0
 51
60.000000000000277
  0
ARC
  5
354
  8
1
 62
     7
 10
419.73606797749977
 20
186.99999999999989
 30
0.0
 40
3.0
 50
90.0
 51
138.18968510421951
  0
ARC
  5
355
  8
1
 62
     7
 10
404.57179676972447
 20
196.0
 30
0.0
 40
2.9999999999999751
 50
59.99999999999973
 51
90.0
  0
ARC
  5
356
  8
1
 62
     7
 10
511.0
 20
197.0
 30
0.0
 40
2.0
 50
0.0
 51
90.0
  0
ARC
  5
357
  8
1
 62
     7
 10
379.0
 20
197.0
 30
0.0
 40
2.0
 50
90.0
 51
180.0
  0
ARC
  5
358
  8
1
  6
DASHED
 62
     7
 10
505.99999999999977
 20
228.4000000000002
 30
0.0
 40
3.0000000000000169
 50
157.38013505195889
 51
180.0
  0
ARC
  5
359
  8
1
 62
     7
 10
145.0
 20
215.5438536858754
 30
0.0
 40
3.0000000000000031
 50
305.53767779197432
 51
0.0
  0
ARC
  5
35A
  8
1
 62
     7
 10
126.03860483977439
 20
202.0
 30
0.0
 40
3.0
 50
270.0
 51
305.5376777919746
  0
ARC
  5
35B
  8
1
 62
     7
 10
234.99999999999989
 20
215.5438536858754
 30
0.0
 40
3.0
 50
180.0
 51
234.4623222080256
  0
ARC
  5
35C
  8
1
 62
     7
 10
253.96139516022541
 20
202.0
 30
0.0
 40
2.9999999999999551
 50
234.4623222080269
 51
270.0
  0
ARC
  5
35D
  8
1
 62
     7
 10
488.78519458394658
 20
202.0
 30
0.0
 40
3.0
 50
180.0
 51
270.0
  0
ARC
  5
35E
  8
1
 62
     7
 10
401.2148054160532
 20
202.0
 30
0.0
 40
3.0
 50
270.0
 51
0.0
  0
ARC
  5
35F
  8
1
 62
     7
 10
399.03805922287432
 20
297.96194077712562
 30
0.0
 40
1.750000000000054
 50
45.000000000002643
 51
224.9999999999946
  0
ARC
  5
360
  8
1
 62
     7
 10
393.73064746330562
 20
291.95564403770959
 30
0.0
 40
1.750000000000014
 50
45.000000000006587
 51
225.0000000000025
  0
ARC
  5
361
  8
1
 62
     7
 10
389.13856428626292
 20
285.23401871576789
 30
0.0
 40
1.749999999999974
 50
45.000000000007873
 51
225.00000000000659
  0
ARC
  5
362
  8
1
 62
     7
 10
385.31527098317582
 20
277.74360351987042
 30
0.0
 40
1.749999999999893
 50
45.000000000002643
 51
225.00000000000131
  0
ARC
  5
363
  8
1
 62
     7
 10
397.84241896206362
 20
295.26849374141062
 30
0.0
 40
0.9999999999998642
 50
317.46268623789462
 51
45.000000000002302
  0
ARC
  5
364
  8
1
 62
     7
 10
401.73150625858932
 20
299.1575810379361
 30
0.0
 40
0.9999999999998472
 50
224.9999999999815
 51
312.53731376213329
  0
ARC
  5
365
  8
1
 62
     7
 10
396.18537515659432
 20
293.39000364094682
 30
0.0
 40
0.9999999999998877
 50
224.99999999999761
 51
319.7053316376539
  0
ARC
  5
366
  8
1
 62
     7
 10
392.78673428660619
 20
289.01046991788331
 30
0.0
 40
0.9999999999999985
 50
324.6697388386753
 51
45.000000000004597
  0
ARC
  5
367
  8
1
 62
     7
 10
387.28652665383692
 20
279.66143514573542
 30
0.0
 40
1.0000000000000071
 50
225.0000000000046
 51
334.39211055490262
  0
ARC
  5
368
  8
1
 62
     7
 10
388.47260469044789
 20
282.01089101505693
 30
0.0
 40
0.9999999999998188
 50
332.03577462305981
 51
45.000000000013813
  0
ARC
  5
369
  8
1
 62
     7
 10
391.35647744642728
 20
286.90519285212952
 30
0.0
 40
0.9999999999999275
 50
225.0
 51
326.94843239923011
  0
ARC
  5
36A
  8
1
 62
     7
 10
384.97262353701342
 20
274.19716366950712
 30
0.0
 40
0.9999999999999021
 50
339.70641245415231
 51
45.0
  0
ARC
  5
36B
  8
1
 62
     7
 10
384.2052633857171
 20
272.0
 30
0.0
 40
1.0
 50
270.0
 51
341.79004313571721
  0
ARC
  5
36C
  8
1
 62
     7
 10
384.0
 20
269.0
 30
0.0
 40
2.0
 50
90.0
 51
180.0
  0
ARC
  5
36D
  8
1
 62
     7
 10
405.04435596229018
 20
303.2693525366941
 30
0.0
 40
1.7500000000002149
 50
44.999999999994742
 51
224.99999999999341
  0
ARC
  5
36E
  8
1
 62
     7
 10
411.76598128423183
 20
307.86143571373691
 30
0.0
 40
1.750000000000254
 50
44.999999999996056
 51
224.99999999999341
  0
ARC
  5
36F
  8
1
 62
     7
 10
419.25639648012941
 20
311.68472901682401
 30
0.0
 40
1.7499999999998921
 50
44.999999999994742
 51
224.99999999999341
  0
ARC
  5
370
  8
1
 62
     7
 10
403.6099963590529
 20
300.81462484340551
 30
0.0
 40
1.000000000000093
 50
310.29466836234161
 51
45.0
  0
ARC
  5
371
  8
1
 62
     7
 10
407.9895300821164
 20
304.21326571339358
 30
0.0
 40
0.9999999999998472
 50
224.99999999999531
 51
305.33026116133362
  0
ARC
  5
372
  8
1
 62
     7
 10
417.33856485426429
 20
309.71347334616291
 30
0.0
 40
1.0000000000000451
 50
295.60788944509881
 51
44.999999999993094
  0
ARC
  5
373
  8
1
 62
     7
 10
414.98910898494262
 20
308.52739530955182
 30
0.0
 40
0.9999999999997267
 50
224.99999999999761
 51
297.96422537696031
  0
ARC
  5
374
  8
1
 62
     7
 10
410.09480714787043
 20
305.64352255357261
 30
0.0
 40
1.0000000000001921
 50
303.05156760076011
 51
44.999999999993094
  0
ARC
  5
375
  8
1
 62
     7
 10
422.80283633049271
 20
312.02737646298641
 30
0.0
 40
1.000000000000089
 50
224.99999999999079
 51
290.29358754584331
  0
ARC
  5
376
  8
1
 62
     7
 10
424.99999999999977
 20
312.79473661428273
 30
0.0
 40
1.000000000000119
 50
288.20995686428063
 51
0.0
  0
ARC
  5
377
  8
1
 62
     7
 10
427.99999999999977
 20
312.99999999999989
 30
0.0
 40
2.0
 50
90.0
 51
180.0
  0
ARC
  5
378
  8
1
 62
     7
 10
490.96194077712562
 20
297.96194077712562
 30
0.0
 40
1.7499999999996929
 50
314.99999999999602
 51
134.99999999999741
  0
ARC
  5
379
  8
1
 62
     7
 10
492.15758103793632
 20
295.26849374141062
 30
0.0
 40
0.9999999999999275
 50
134.99999999999531
 51
222.5373137621076
  0
ARC
  5
37A
  8
1
 62
     7
 10
488.26849374141062
 20
299.1575810379361
 30
0.0
 40
0.9999999999999237
 50
227.46268623786659
 51
315.00000000001381
  0
ARC
  5
37B
  8
1
 62
     7
 10
484.95564403770982
 20
303.2693525366941
 30
0.0
 40
1.7499999999999341
 50
315.00000000000381
 51
135.00000000000529
  0
ARC
  5
37C
  8
1
 62
     7
 10
478.234018715768
 20
307.86143571373691
 30
0.0
 40
1.750000000000054
 50
315.00000000000779
 51
135.00000000000401
  0
ARC
  5
37D
  8
1
 62
     7
 10
470.74360351987048
 20
311.68472901682401
 30
0.0
 40
1.750000000000014
 50
315.00000000000659
 51
135.00000000000529
  0
ARC
  5
37E
  8
1
 62
     7
 10
486.39000364094699
 20
300.81462484340551
 30
0.0
 40
0.9999999999999275
 50
135.0
 51
229.7053316376583
  0
ARC
  5
37F
  8
1
 62
     7
 10
482.01046991788348
 20
304.21326571339358
 30
0.0
 40
1.0000000000000031
 50
234.66973883866359
 51
315.00000000000227
  0
ARC
  5
380
  8
1
 62
     7
 10
472.6614351457356
 20
309.71347334616291
 30
0.0
 40
1.0000000000000471
 50
135.00000000000691
 51
244.39211055490111
  0
ARC
  5
381
  8
1
 62
     7
 10
475.01089101505733
 20
308.52739530955182
 30
0.0
 40
0.9999999999998784
 50
242.03577462303949
 51
315.00000000000682
  0
ARC
  5
382
  8
1
 62
     7
 10
479.90519285212952
 20
305.64352255357261
 30
0.0
 40
0.9999999999998877
 50
135.00000000000691
 51
236.94843239923989
  0
ARC
  5
383
  8
1
 62
     7
 10
467.19716366950718
 20
312.02737646298641
 30
0.0
 40
0.9999999999999555
 50
249.70641245415339
 51
315.00000000000921
  0
ARC
  5
384
  8
1
 62
     7
 10
465.00000000000023
 20
312.79473661428273
 30
0.0
 40
1.0
 50
180.0
 51
251.79004313571929
  0
ARC
  5
385
  8
1
 62
     7
 10
461.99999999999977
 20
312.99999999999989
 30
0.0
 40
2.000000000000226
 50
0.0
 51
90.0
  0
ARC
  5
386
  8
1
 62
     7
 10
496.26935253669433
 20
291.95564403770959
 30
0.0
 40
1.7500000000001741
 50
314.99999999999869
 51
134.99999999999341
  0
ARC
  5
387
  8
1
 62
     7
 10
500.86143571373702
 20
285.23401871576789
 30
0.0
 40
1.750000000000254
 50
314.99999999999329
 51
134.99999999999201
  0
ARC
  5
388
  8
1
 62
     7
 10
504.68472901682412
 20
277.74360351987042
 30
0.0
 40
1.750000000000093
 50
314.99999999999869
 51
134.99999999999741
  0
ARC
  5
389
  8
1
 62
     7
 10
493.81462484340568
 20
293.39000364094682
 30
0.0
 40
0.999999999999963
 50
220.29466836234789
 51
315.0
  0
ARC
  5
38A
  8
1
 62
     7
 10
497.21326571339381
 20
289.01046991788331
 30
0.0
 40
1.000000000000089
 50
135.0
 51
215.33026116132081
  0
ARC
  5
38B
  8
1
 62
     7
 10
502.71347334616303
 20
279.66143514573542
 30
0.0
 40
0.9999999999999175
 50
205.60788944509881
 51
315.00000000000227
  0
ARC
  5
38C
  8
1
 62
     7
 10
501.52739530955199
 20
282.01089101505693
 30
0.0
 40
1.0000000000000071
 50
134.99999999998619
 51
207.96422537694309
  0
ARC
  5
38D
  8
1
 62
     7
 10
498.64352255357272
 20
286.90519285212952
 30
0.0
 40
0.9999999999999381
 50
213.0515676007735
 51
315.0
  0
ARC
  5
38E
  8
1
 62
     7
 10
505.02737646298658
 20
274.19716366950712
 30
0.0
 40
1.0000000000000071
 50
135.0000000000046
 51
200.2935875458453
  0
ARC
  5
38F
  8
1
 62
     7
 10
505.79473661428278
 20
272.0
 30
0.0
 40
1.0000000000000111
 50
198.2099568642827
 51
270.0
  0
ARC
  5
390
  8
1
 62
     7
 10
506.0
 20
269.0
 30
0.0
 40
2.0
 50
0.0
 51
90.0
  0
ARC
  5
391
  8
1
 62
     7
 10
490.96194077712562
 20
206.03805922287441
 30
0.0
 40
1.750000000000095
 50
225.00000000000401
 51
44.999999999995389
  0
ARC
  5
392
  8
1
 62
     7
 10
492.15758103793632
 20
208.73150625858941
 30
0.0
 40
0.9999999999998223
 50
137.46268623789231
 51
225.00000000000691
  0
ARC
  5
393
  8
1
 62
     7
 10
488.26849374141062
 20
204.84241896206379
 30
0.0
 40
0.9999999999997467
 50
44.999999999985029
 51
132.5373137621344
  0
ARC
  5
394
  8
1
 62
     7
 10
496.26935253669433
 20
212.04435596229021
 30
0.0
 40
1.750000000000014
 50
225.00000000000659
 51
45.000000000001307
  0
ARC
  5
395
  8
1
 62
     7
 10
500.86143571373702
 20
218.765981284232
 30
0.0
 40
1.749999999999974
 50
225.0000000000079
 51
45.000000000007233
  0
ARC
  5
396
  8
1
 62
     7
 10
504.68472901682412
 20
226.25639648012941
 30
0.0
 40
1.749999999999853
 50
225.00000000000131
 51
45.000000000002643
  0
ARC
  5
397
  8
1
 62
     7
 10
493.81462484340568
 20
210.6099963590531
 30
0.0
 40
0.999999999999807
 50
44.999999999997691
 51
139.70533163765191
  0
ARC
  5
398
  8
1
 62
     7
 10
497.21326571339381
 20
214.9895300821166
 30
0.0
 40
1.000000000000107
 50
144.6697388386778
 51
224.99999999999881
  0
ARC
  5
399
  8
1
 62
     7
 10
502.71347334616303
 20
224.3385648542646
 30
0.0
 40
1.000000000000129
 50
44.999999999997691
 51
154.39211055490259
  0
ARC
  5
39A
  8
1
 62
     7
 10
501.52739530955199
 20
221.98910898494299
 30
0.0
 40
0.9999999999997452
 50
152.0357746230539
 51
225.0000000000127
  0
ARC
  5
39B
  8
1
 62
     7
 10
498.64352255357272
 20
217.0948071478704
 30
0.0
 40
0.9999999999999275
 50
45.0
 51
146.94843239922781
  0
ARC
  5
39C
  8
1
 62
     7
 10
505.02737646298658
 20
229.8028363304928
 30
0.0
 40
1.0000000000000191
 50
159.70641245415311
 51
224.99999999999531
  0
ARC
  5
39D
  8
1
 62
     7
 10
505.79473661428278
 20
232.0
 30
0.0
 40
1.0
 50
90.0
 51
161.79004313571721
  0
ARC
  5
39E
  8
1
 62
     7
 10
506.0
 20
235.0
 30
0.0
 40
2.0
 50
270.0
 51
0.0
  0
ARC
  5
39F
  8
1
 62
     7
 10
399.03805922287432
 20
206.03805922287441
 30
0.0
 40
1.7499999999999529
 50
135.00000000000591
 51
314.99999999999602
  0
ARC
  5
3A0
  8
1
 62
     7
 10
393.73064746330562
 20
212.04435596229021
 30
0.0
 40
1.750000000000135
 50
134.99999999999741
 51
314.99999999999329
  0
ARC
  5
3A1
  8
1
 62
     7
 10
389.13856428626292
 20
218.765981284232
 30
0.0
 40
1.750000000000274
 50
134.9999999999927
 51
314.9999999999921
  0
ARC
  5
3A2
  8
1
 62
     7
 10
385.31527098317582
 20
226.25639648012941
 30
0.0
 40
1.750000000000135
 50
134.99999999999741
 51
314.99999999999869
  0
ARC
  5
3A3
  8
1
 62
     7
 10
397.84241896206362
 20
208.73150625858941
 30
0.0
 40
1.0000000000000071
 50
314.9999999999954
 51
42.537313762105477
  0
ARC
  5
3A4
  8
1
 62
     7
 10
401.73150625858932
 20
204.84241896206379
 30
0.0
 40
0.9999999999999029
 50
47.462686237865611
 51
135.0000000000195
  0
ARC
  5
3A5
  8
1
 62
     7
 10
396.18537515659432
 20
210.6099963590531
 30
0.0
 40
1.0000000000000051
 50
40.294668362345952
 51
135.0000000000046
  0
ARC
  5
3A6
  8
1
 62
     7
 10
392.78673428660619
 20
214.9895300821166
 30
0.0
 40
0.9999999999999879
 50
314.99999999999642
 51
35.330261161325929
  0
ARC
  5
3A7
  8
1
 62
     7
 10
387.28652665383692
 20
224.3385648542646
 30
0.0
 40
0.9999999999999566
 50
25.607889445095889
 51
134.99999999999531
  0
ARC
  5
3A8
  8
1
 62
     7
 10
388.47260469044789
 20
221.98910898494299
 30
0.0
 40
0.9999999999999879
 50
314.99999999998732
 51
27.964225376943009
  0
ARC
  5
3A9
  8
1
 62
     7
 10
391.35647744642728
 20
217.0948071478704
 30
0.0
 40
1.0000000000000171
 50
33.051567600768593
 51
135.0
  0
ARC
  5
3AA
  8
1
 62
     7
 10
384.97262353701342
 20
229.8028363304928
 30
0.0
 40
0.9999999999999275
 50
315.0
 51
20.293587545849121
  0
ARC
  5
3AB
  8
1
 62
     7
 10
384.2052633857171
 20
232.0
 30
0.0
 40
1.0000000000000111
 50
18.20995686428278
 51
90.0
  0
ARC
  5
3AC
  8
1
 62
     7
 10
384.0
 20
235.0
 30
0.0
 40
2.0
 50
180.0
 51
270.0
  0
ARC
  5
3AD
  8
1
 62
     7
 10
401.2148054160532
 20
202.61521757417631
 30
0.0
 40
3.0
 50
0.0
 51
48.439383608505587
  0
ARC
  5
3AE
  8
1
 62
     7
 10
488.78519458394658
 20
202.61521757417631
 30
0.0
 40
3.0000000000000222
 50
131.560616391493
 51
180.0
  0
ARC
  5
3AF
  8
1
 62
     7
 10
141.0
 20
398.89928204740818
 30
0.0
 40
1.0
 50
0.0
 51
90.0
  0
ARC
  5
3B0
  8
1
  6
DASHED
 62
     7
 10
380.0
 20
210.99351532518381
 30
0.0
 40
2.0
 50
270.0
 51
0.0
  0
ARC
  5
3B1
  8
1
 62
     7
 10
380.0
 20
217.00648467481611
 30
0.0
 40
1.9999999999999869
 50
79.265010599726537
 51
90.0
  0
ARC
  5
3B2
  8
1
  6
DASHED
 62
     7
 10
381.0
 20
211.55000000000001
 30
0.0
 40
0.299999999999983
 50
270.0
 51
0.0
  0
ARC
  5
3B3
  8
1
  6
DASHED
 62
     7
 10
381.0
 20
216.45000000000019
 30
0.0
 40
0.3000000000002956
 50
0.0
 51
90.0
  0
ARC
  5
3B4
  8
1
  6
DASHED
 62
     7
 10
380.56087985837547
 20
212.25
 30
0.0
 40
1.0000000000000011
 50
196.957763300007
 51
270.0
  0
ARC
  5
3B5
  8
1
 62
     7
 10
380.56087985837542
 20
215.75000000000011
 30
0.0
 40
0.9999999999998968
 50
123.920639381683
 51
163.04223669998541
  0
ARC
  5
3B6
  8
1
 62
     7
 10
368.0
 20
225.5
 30
0.0
 40
1.0
 50
90.0
 51
180.0
  0
ARC
  5
3B7
  8
1
 62
     7
 10
368.0
 20
202.5
 30
0.0
 40
1.0
 50
180.0
 51
270.0
  0
ARC
  5
3B8
  8
1
 62
     7
 10
190.0
 20
206.5
 30
0.0
 40
1.0
 50
270.0
 51
0.0
  0
ARC
  5
3B9
  8
1
 62
     7
 10
190.0
 20
206.5
 30
0.0
 40
1.0
 50
180.0
 51
270.0
  0
ARC
  5
3BA
  8
1
 62
     7
 10
190.0
 20
221.5
 30
0.0
 40
1.0
 50
0.0
 51
90.0
  0
ARC
  5
3BB
  8
1
 62
     7
 10
190.0
 20
221.5
 30
0.0
 40
1.0
 50
90.0
 51
180.0
  0
ARC
  5
3BC
  8
1
 62
     7
 10
220.00000000000011
 20
214.00000000000011
 30
0.0
 40
2.9999999999999138
 50
316.39718102729358
 51
43.60281897270594
  0
ARC
  5
3BD
  8
1
 62
     7
 10
211.0
 20
203.50000000000011
 30
0.0
 40
2.0
 50
270.0
 51
0.0
  0
ARC
  5
3BE
  8
1
 62
     7
 10
211.0
 20
224.5
 30
0.0
 40
2.0
 50
0.0
 51
90.0
  0
ARC
  5
3BF
  8
1
 62
     7
 10
201.50000000000011
 20
206.5
 30
0.0
 40
1.0
 50
180.0
 51
270.0
  0
ARC
  5
3C0
  8
1
 62
     7
 10
201.50000000000011
 20
206.5
 30
0.0
 40
1.0
 50
270.0
 51
0.0
  0
ARC
  5
3C1
  8
1
 62
     7
 10
201.50000000000011
 20
221.5
 30
0.0
 40
1.0
 50
90.0
 51
180.0
  0
ARC
  5
3C2
  8
1
 62
     7
 10
201.50000000000011
 20
221.5
 30
0.0
 40
1.0
 50
0.0
 51
90.0
  0
ARC
  5
3C3
  8
1
 62
     7
 10
160.0
 20
214.00000000000011
 30
0.0
 40
3.0000000000000382
 50
136.3971810272966
 51
223.60281897270369
  0
ARC
  5
3C4
  8
1
 62
     7
 10
169.0
 20
203.50000000000011
 30
0.0
 40
2.0
 50
180.0
 51
270.0
  0
ARC
  5
3C5
  8
1
 62
     7
 10
169.0
 20
224.5
 30
0.0
 40
2.0
 50
90.0
 51
180.0
  0
ARC
  5
3C6
  8
1
 62
     7
 10
178.5
 20
206.5
 30
0.0
 40
1.0
 50
270.0
 51
0.0
  0
ARC
  5
3C7
  8
1
 62
     7
 10
178.5
 20
206.5
 30
0.0
 40
1.0
 50
180.0
 51
270.0
  0
ARC
  5
3C8
  8
1
 62
     7
 10
178.5
 20
221.5
 30
0.0
 40
1.0
 50
0.0
 51
90.0
  0
ARC
  5
3C9
  8
1
 62
     7
 10
178.5
 20
221.5
 30
0.0
 40
1.0
 50
90.0
 51
180.0
  0
ARC
  5
3CA
  8
1
 62
     7
 10
210.2500001983048
 20
201.0
 30
0.0
 40
2.0
 50
180.0
 51
270.0
  0
ARC
  5
3CB
  8
1
 62
     7
 10
198.74999956714879
 20
199.0
 30
0.0
 40
2.0
 50
180.0
 51
270.0
  0
ARC
  5
3CC
  8
1
 62
     7
 10
210.2500001983048
 20
201.0
 30
0.0
 40
4.0000000000001128
 50
180.0
 51
270.0
  0
ARC
  5
3CD
  8
1
 62
     7
 10
198.74999956714879
 20
199.0
 30
0.0
 40
4.0
 50
180.0
 51
270.0
  0
ARC
  5
3CE
  8
1
 62
     7
 10
169.74999980169531
 20
201.0
 30
0.0
 40
2.0
 50
270.0
 51
0.0
  0
ARC
  5
3CF
  8
1
 62
     7
 10
181.25000043285121
 20
199.0
 30
0.0
 40
2.0
 50
270.0
 51
0.0
  0
ARC
  5
3D0
  8
1
 62
     7
 10
169.74999980169531
 20
201.0
 30
0.0
 40
4.0
 50
270.0
 51
0.0
  0
ARC
  5
3D1
  8
1
 62
     7
 10
181.25000043285121
 20
199.0
 30
0.0
 40
4.0
 50
270.0
 51
0.0
  0
ARC
  5
3D2
  8
1
  6
DASHED
 62
     7
 10
380.56087985837542
 20
215.75000000000011
 30
0.0
 40
1.0
 50
90.0
 51
123.920639381683
  0
ARC
  5
3D3
  8
1
  6
DASHED
 62
     7
 10
380.0
 20
217.00648467481611
 30
0.0
 40
2.0
 50
0.0
 51
79.265010599726537
  0
TEXT
  5
3D4
  8
1
 62
     7
 10
414.10820895522397
 20
452.79340796019898
 30
0.0
 40
8.0
  1
VSAU 1.2
 41
0.9
  7
SIMPLEX
  0
TEXT
  5
3D6
  8
1
 62
     7
 10
304.21304701674501
 20
268.5
 30
0.0
 40
5.0
  1
INPUT
 41
0.9
  7
SIMPLEX
  0
TEXT
  5
3D7
  8
1
 62
     7
 10
53.10814084009241
 20
268.5
 30
0.0
 40
5.0
  1
OUTPUT
 41
0.9
  7
SIMPLEX
  0
ENDSEC
  0
EOF
