  0
SECTION
  2
HEADER
  9
$ACADVER
  1
AC1009
  9
$INSBASE
 10
0.0
 20
0.0
 30
0.0
  9
$EXTMIN
 10
30.000724208349979
 20
168.99999999999989
 30
0.0
  9
$EXTMAX
 10
532.62132034355955
 20
531.36836972682761
 30
0.0
  9
$LIMMIN
 10
30.000724208349979
 20
168.99999999999989
  9
$LIMMAX
 10
532.0
 20
530.33283582089473
  9
$ORTHOMODE
 70
     0
  9
$REGENMODE
 70
     1
  9
$FILLMODE
 70
     1
  9
$QTEXTMODE
 70
     0
  9
$MIRRTEXT
 70
     1
  9
$DRAGMODE
 70
     2
  9
$LTSCALE
 40
1.0
  9
$OSMODE
 70
    37
  9
$ATTMODE
 70
     1
  9
$TEXTSIZE
 40
3.5
  9
$TRACEWID
 40
0.5
  9
$TEXTSTYLE
  7
STANDARD
  9
$CLAYER
  8
0
  9
$CELTYPE
  6
BYLAYER
  9
$CECOLOR
 62
   256
  9
$DIMSCALE
 40
1.0
  9
$DIMASZ
 40
0.18
  9
$DIMEXO
 40
0.0625
  9
$DIMDLI
 40
0.38
  9
$DIMRND
 40
0.0
  9
$DIMDLE
 40
0.0
  9
$DIMEXE
 40
0.18
  9
$DIMTP
 40
0.0
  9
$DIMTM
 40
0.0
  9
$DIMTXT
 40
0.18
  9
$DIMCEN
 40
0.09
  9
$DIMTSZ
 40
0.0
  9
$DIMTOL
 70
     0
  9
$DIMLIM
 70
     0
  9
$DIMTIH
 70
     1
  9
$DIMTOH
 70
     1
  9
$DIMSE1
 70
     0
  9
$DIMSE2
 70
     0
  9
$DIMTAD
 70
     0
  9
$DIMZIN
 70
     0
  9
$DIMBLK
  1

  9
$DIMASO
 70
     1
  9
$DIMSHO
 70
     1
  9
$DIMPOST
  1

  9
$DIMAPOST
  1

  9
$DIMALT
 70
     0
  9
$DIMALTD
 70
     2
  9
$DIMALTF
 40
25.399999999999999
  9
$DIMLFAC
 40
1.0
  9
$DIMTOFL
 70
     0
  9
$DIMTVP
 40
0.0
  9
$DIMTIX
 70
     0
  9
$DIMSOXD
 70
     0
  9
$DIMSAH
 70
     0
  9
$DIMBLK1
  1

  9
$DIMBLK2
  1

  9
$DIMSTYLE
  2
STANDARD
  9
$DIMCLRD
 70
     0
  9
$DIMCLRE
 70
     0
  9
$DIMCLRT
 70
     0
  9
$DIMTFAC
 40
1.0
  9
$DIMGAP
 40
0.09
  9
$LUNITS
 70
     2
  9
$LUPREC
 70
     4
  9
$SKETCHINC
 40
0.1
  9
$FILLETRAD
 40
2.0
  9
$AUNITS
 70
     0
  9
$AUPREC
 70
     0
  9
$MENU
  1
ACAD
  9
$ELEVATION
 40
0.0
  9
$PELEVATION
 40
0.0
  9
$THICKNESS
 40
0.0
  9
$LIMCHECK
 70
     0
  9
$BLIPMODE
 70
     0
  9
$CHAMFERA
 40
0.0
  9
$CHAMFERB
 40
0.0
  9
$SKPOLY
 70
     0
  9
$TDCREATE
 40
2452095.4464564808
  9
$TDUPDATE
 40
2452095.447530787
  9
$TDINDWG
 40
0.0010915509
  9
$TDUSRTIMER
 40
0.0010915509
  9
$USRTIMER
 70
     1
  9
$ANGBASE
 50
0.0
  9
$ANGDIR
 70
     0
  9
$PDMODE
 70
     0
  9
$PDSIZE
 40
0.0
  9
$PLINEWID
 40
0.0
  9
$COORDS
 70
     1
  9
$SPLFRAME
 70
     0
  9
$SPLINETYPE
 70
     6
  9
$SPLINESEGS
 70
     8
  9
$ATTDIA
 70
     0
  9
$ATTREQ
 70
     1
  9
$HANDLING
 70
 10241
  9
$HANDSEED
  5
3FD
  9
$SURFTAB1
 70
     6
  9
$SURFTAB2
 70
     6
  9
$SURFTYPE
 70
     6
  9
$SURFU
 70
     6
  9
$SURFV
 70
     6
  9
$UCSNAME
  2

  9
$UCSORG
 10
0.0
 20
0.0
 30
0.0
  9
$UCSXDIR
 10
1.0
 20
0.0
 30
0.0
  9
$UCSYDIR
 10
0.0
 20
1.0
 30
0.0
  9
$PUCSNAME
  2

  9
$PUCSORG
 10
0.0
 20
0.0
 30
0.0
  9
$PUCSXDIR
 10
1.0
 20
0.0
 30
0.0
  9
$PUCSYDIR
 10
0.0
 20
1.0
 30
0.0
  9
$USERI1
 70
     0
  9
$USERI2
 70
     0
  9
$USERI3
 70
     0
  9
$USERI4
 70
     0
  9
$USERI5
 70
     0
  9
$USERR1
 40
0.0
  9
$USERR2
 40
0.0
  9
$USERR3
 40
0.0
  9
$USERR4
 40
0.0
  9
$USERR5
 40
0.0
  9
$WORLDVIEW
 70
     1
  9
$SHADEDGE
 70
     3
  9
$SHADEDIF
 70
    70
  9
$TILEMODE
 70
     1
  9
$MAXACTVP
 70
    64
  9
$PLIMCHECK
 70
     0
  9
$PEXTMIN
 10
1.0000000000000000E+020
 20
1.0000000000000000E+020
 30
1.0000000000000000E+020
  9
$PEXTMAX
 10
-1.0000000000000000E+020
 20
-1.0000000000000000E+020
 30
-1.0000000000000000E+020
  9
$PLIMMIN
 10
0.0
 20
0.0
  9
$PLIMMAX
 10
12.0
 20
9.0
  9
$UNITMODE
 70
     0
  9
$VISRETAIN
 70
     1
  9
$PLINEGEN
 70
     0
  9
$PSLTSCALE
 70
     1
  0
ENDSEC
  0
SECTION
  2
TABLES
  0
TABLE
  2
VPORT
 70
     2
  0
VPORT
  2
*ACTIVE
 70
     0
 10
0.0
 20
0.0
 11
1.0
 21
1.0
 12
434.43965295535219
 22
454.4217984277355
 13
0.0
 23
0.0
 14
1.0
 24
1.0
 15
0.0
 25
0.0
 16
0.0
 26
0.0
 36
1.0
 17
0.0
 27
0.0
 37
0.0
 40
9.0000007426117463
 41
3.0569948186528491
 42
50.0
 43
0.0
 44
0.0
 50
0.0
 51
0.0
 71
     0
 72
   100
 73
     1
 74
     1
 75
     0
 76
     0
 77
     0
 78
     0
  0
ENDTAB
  0
TABLE
  2
LTYPE
 70
     9
  0
LTYPE
  2
CONTINUOUS
 70
     0
  3
Solid line
 72
    65
 73
     0
 40
0.0
  0
LTYPE
  2
BORDER
 70
     0
  3
__ __ . __ __ .
 72
    65
 73
     6
 40
23.11838770093124
 49
6.6052536288374988
 49
-3.3026268144187489
 49
6.6052536288374988
 49
-3.3026268144187489
 49
0.0
 49
-3.3026268144187489
  0
LTYPE
  2
CENTER
 70
     0
  3
____ _ ____ _
 72
    65
 73
     4
 40
26.421014515349992
 49
16.513134072093742
 49
-3.3026268144187489
 49
3.3026268144187489
 49
-3.3026268144187489
  0
LTYPE
  2
DASHDOT
 70
     0
  3
__ . __ . __ .
 72
    65
 73
     4
 40
13.21050725767499
 49
6.6052536288374988
 49
-3.3026268144187489
 49
0.0
 49
-3.3026268144187489
  0
LTYPE
  2
DASHED
 70
     0
  3
__ __ __ __ __
 72
    65
 73
     2
 40
9.9078804432562482
 49
6.6052536288374988
 49
-3.3026268144187489
  0
LTYPE
  2
DIVIDE
 70
     0
  3
__ . . __ . . 
 72
    65
 73
     6
 40
16.513134072093742
 49
6.6052536288374988
 49
-3.3026268144187489
 49
0.0
 49
-3.3026268144187489
 49
0.0
 49
-3.3026268144187489
  0
LTYPE
  2
DOT
 70
     0
  3
..............
 72
    65
 73
     4
 40
6.6052536288374988
 49
0.0
 49
-3.3026268144187489
 49
0.0
 49
-3.3026268144187489
  0
LTYPE
  2
HIDDEN
 70
     0
  3
_ _ _ _ _ _ _
 72
    65
 73
     2
 40
4.9539402216281241
 49
3.3026268144187489
 49
-1.651313407209374
  0
LTYPE
  2
PHANTOM
 70
     0
  3
_____ _ _ _____ _ _ 
 72
    65
 73
     6
 40
33.02626814418749
 49
16.513134072093742
 49
-3.3026268144187489
 49
3.3026268144187489
 49
-3.3026268144187489
 49
3.3026268144187489
 49
-3.3026268144187489
  0
ENDTAB
  0
TABLE
  2
LAYER
 70
     2
  0
LAYER
  2
0
 70
     0
 62
     7
  6
CONTINUOUS
  0
LAYER
  2
1
 70
     0
 62
     7
  6
CONTINUOUS
  0
ENDTAB
  0
TABLE
  2
STYLE
 70
     4
  0
STYLE
  2
STANDARD
 70
     0
 40
0.0
 41
1.0
 50
0.0
 71
     0
 42
3.5
  3
txt
  4

  0
STYLE
  2
SIMPLEX
 70
     0
 40
0.0
 41
1.0
 50
0.0
 71
     0
 42
3.5
  3
simplex
  4

  0
STYLE
  2
COMPLEX
 70
     0
 40
0.0
 41
1.0
 50
0.0
 71
     0
 42
3.5
  3
complex
  4

  0
STYLE
  2
ITALIC
 70
     0
 40
0.0
 41
1.0
 50
0.0
 71
     0
 42
3.5
  3
italic
  4

  0
ENDTAB
  0
TABLE
  2
VIEW
 70
     0
  0
ENDTAB
  0
TABLE
  2
UCS
 70
     0
  0
ENDTAB
  0
TABLE
  2
APPID
 70
     1
  0
APPID
  2
ACAD
 70
     0
  0
ENDTAB
  0
TABLE
  2
DIMSTYLE
 70
     1
  0
DIMSTYLE
  2
STANDARD
 70
     0
  3

  4

  5

  6

  7

 40
1.0
 41
0.18
 42
0.0625
 43
0.38
 44
0.18
 45
0.0
 46
0.0
 47
0.0
 48
0.0
140
0.18
141
0.09
142
0.0
143
25.399999999999999
144
1.0
145
0.0
146
1.0
147
0.09
 71
     0
 72
     0
 73
     1
 74
     1
 75
     0
 76
     0
 77
     0
 78
     0
170
     0
171
     2
172
     0
173
     0
174
     0
175
     0
176
     0
177
     0
178
     0
  0
ENDTAB
  0
ENDSEC
  0
SECTION
  2
BLOCKS
  0
BLOCK
  8
0
  2
$MODEL_SPACE
 70
     0
 10
0.0
 20
0.0
 30
0.0
  3
$MODEL_SPACE
  1

  0
ENDBLK
  5
20
  8
0
  0
BLOCK
 67
     1
  8
0
  2
$PAPER_SPACE
 70
     0
 10
0.0
 20
0.0
 30
0.0
  3
$PAPER_SPACE
  1

  0
ENDBLK
  5
1C
 67
     1
  8
0
  0
ENDSEC
  0
SECTION
  2
ENTITIES
  0
POINT
  5
33
  8
1
  6
CENTER
 62
     7
 10
98.500000000000014
 20
517.33283582089473
 30
0.0
  0
POINT
  5
34
  8
1
  6
CENTER
 62
     7
 10
281.49999999999989
 20
517.33283582089473
 30
0.0
  0
POINT
  5
35
  8
1
  6
CENTER
 62
     7
 10
98.500000000000014
 20
387.33283582089513
 30
0.0
  0
POINT
  5
36
  8
1
  6
CENTER
 62
     7
 10
281.49999999999989
 20
387.33283582089513
 30
0.0
  0
LINE
  5
37
  8
1
 62
     7
 10
245.49999999999989
 20
504.29477659802058
 30
0.0
 11
245.49999999999989
 21
492.29477659802058
 31
0.0
  0
LINE
  5
38
  8
1
 62
     7
 10
128.02245710769171
 20
401.7342387959618
 30
0.0
 11
122.5338453141773
 21
404.76243840617673
 31
0.0
  0
LINE
  5
39
  8
1
 62
     7
 10
245.49999999999989
 20
412.37089504376922
 30
0.0
 11
245.49999999999989
 21
400.37089504376922
 31
0.0
  0
LINE
  5
3A
  8
1
 62
     7
 10
245.49999999999989
 20
303.96194077712551
 30
0.0
 11
245.49999999999989
 21
291.96194077712539
 31
0.0
  0
LINE
  5
3B
  8
1
 62
     7
 10
128.02245710769171
 20
201.40140297506659
 30
0.0
 11
122.5338453141775
 21
204.4296025852814
 31
0.0
  0
LINE
  5
3C
  8
1
 62
     7
 10
245.49999999999989
 20
212.0380592228741
 30
0.0
 11
245.49999999999989
 21
200.0380592228741
 31
0.0
  0
LINE
  5
3D
  8
1
 62
     7
 10
213.0
 20
375.33283582089541
 30
0.0
 11
213.0
 21
367.33283582089501
 31
0.0
  0
LINE
  5
3E
  8
1
 62
     7
 10
167.0
 20
375.33283582089541
 30
0.0
 11
167.0
 21
367.33283582089501
 31
0.0
  0
LINE
  5
3F
  8
1
 62
     7
 10
167.0
 20
370.33283582089501
 30
0.0
 11
213.0
 21
370.33283582089501
 31
0.0
  0
LINE
  5
40
  8
1
 62
     7
 10
168.0
 20
366.33283582089501
 30
0.0
 11
212.0
 21
366.33283582089501
 31
0.0
  0
LINE
  5
41
  8
1
 62
     7
 10
191.5
 20
375.33283582089541
 30
0.0
 11
240.99999999999949
 21
375.33283582089541
 31
0.0
  0
LINE
  5
42
  8
1
 62
     7
 10
139.0000000000004
 20
375.33283582089541
 30
0.0
 11
188.49999999999989
 21
375.33283582089541
 31
0.0
  0
LINE
  5
43
  8
1
 62
     7
 10
130.0403926585405
 20
504.04477659802058
 30
0.0
 11
134.96615468582289
 21
506.76243840617622
 31
0.0
  0
LINE
  5
44
  8
1
 62
     7
 10
245.03384531417711
 20
506.76243840617627
 30
0.0
 11
257.46615468582252
 21
499.90323323561307
 31
0.0
  0
LINE
  5
45
  8
1
 62
     7
 10
257.46615468582252
 20
404.76243840617673
 30
0.0
 11
245.03384531417711
 21
397.90323323561358
 31
0.0
  0
LINE
  5
46
  8
1
 62
     7
 10
130.0403926585405
 20
504.04477659802058
 30
0.0
 11
134.9661546858224
 21
506.76243840617821
 31
0.0
  0
LINE
  5
47
  8
1
 62
     3
 10
128.0000000000004
 20
495.8947765980206
 30
0.0
 11
125.5000000000004
 21
495.8947765980206
 31
0.0
  0
LINE
  5
48
  8
1
 62
     7
 10
126.09999999999989
 20
495.29477659802058
 30
0.0
 11
126.09999999999989
 21
501.29477659802058
 31
0.0
  0
LINE
  5
49
  8
1
 62
     3
 10
125.5000000000004
 20
500.69477659802061
 30
0.0
 11
128.0000000000004
 21
500.69477659802061
 31
0.0
  0
LINE
  5
4A
  8
1
 62
     7
 10
128.0000000000004
 20
501.29477659802058
 30
0.0
 11
126.09999999999989
 21
501.29477659802058
 31
0.0
  0
LINE
  5
4B
  8
1
 62
     7
 10
126.09999999999989
 20
501.29477659802058
 30
0.0
 11
125.5000000000004
 21
500.69477659802061
 31
0.0
  0
LINE
  5
4C
  8
1
 62
     7
 10
125.5000000000004
 20
500.69477659802061
 30
0.0
 11
125.5000000000004
 21
495.8947765980206
 31
0.0
  0
LINE
  5
4D
  8
1
 62
     7
 10
125.5000000000004
 20
495.8947765980206
 30
0.0
 11
126.09999999999989
 21
495.29477659802058
 31
0.0
  0
LINE
  5
4E
  8
1
 62
     7
 10
126.09999999999989
 20
495.29477659802058
 30
0.0
 11
128.0000000000004
 21
495.29477659802058
 31
0.0
  0
LINE
  5
4F
  8
1
 62
     7
 10
132.5092522711891
 20
492.54477659802058
 30
0.0
 11
128.4907477288115
 21
492.54477659802058
 31
0.0
  0
LINE
  5
50
  8
1
 62
     7
 10
132.5092522711891
 20
495.41977659802058
 30
0.0
 11
128.4907477288115
 21
495.41977659802058
 31
0.0
  0
LINE
  5
51
  8
1
 62
     7
 10
132.5092522711891
 20
501.16977659802058
 30
0.0
 11
128.4907477288115
 21
501.16977659802058
 31
0.0
  0
LINE
  5
52
  8
1
 62
     7
 10
132.5092522711891
 20
504.04477659802058
 30
0.0
 11
128.4907477288115
 21
504.04477659802058
 31
0.0
  0
LINE
  5
53
  8
1
 62
     7
 10
128.0000000000004
 20
493.98227659802058
 30
0.0
 11
128.0000000000004
 21
502.60727659802058
 31
0.0
  0
LINE
  5
54
  8
1
 62
     7
 10
135.00000000000031
 20
492.29477659802058
 30
0.0
 11
134.50000000000031
 21
492.29477659802058
 31
0.0
  0
LINE
  5
55
  8
1
 62
     7
 10
134.50000000000031
 20
504.29477659802058
 30
0.0
 11
135.00000000000031
 21
504.29477659802058
 31
0.0
  0
LINE
  5
56
  8
1
 62
     3
 10
125.5000000000004
 20
408.77089504376931
 30
0.0
 11
128.0000000000004
 21
408.77089504376931
 31
0.0
  0
LINE
  5
57
  8
1
 62
     7
 10
126.09999999999989
 20
403.37089504376922
 30
0.0
 11
126.09999999999989
 21
409.37089504376922
 31
0.0
  0
LINE
  5
58
  8
1
 62
     3
 10
128.0000000000004
 20
403.97089504376908
 30
0.0
 11
125.5000000000004
 21
403.97089504376908
 31
0.0
  0
LINE
  5
59
  8
1
 62
     7
 10
126.09999999999989
 20
403.37089504376922
 30
0.0
 11
128.0000000000004
 21
403.37089504376922
 31
0.0
  0
LINE
  5
5A
  8
1
 62
     7
 10
125.5000000000004
 20
403.97089504376908
 30
0.0
 11
126.09999999999989
 21
403.37089504376922
 31
0.0
  0
LINE
  5
5B
  8
1
 62
     7
 10
125.5000000000004
 20
408.77089504376931
 30
0.0
 11
125.5000000000004
 21
403.97089504376908
 31
0.0
  0
LINE
  5
5C
  8
1
 62
     7
 10
126.09999999999989
 20
409.37089504376922
 30
0.0
 11
125.5000000000004
 21
408.77089504376931
 31
0.0
  0
LINE
  5
5D
  8
1
 62
     7
 10
128.0000000000004
 20
409.37089504376922
 30
0.0
 11
126.09999999999989
 21
409.37089504376922
 31
0.0
  0
LINE
  5
5E
  8
1
 62
     7
 10
128.4907477288115
 20
412.12089504376928
 30
0.0
 11
132.5092522711891
 21
412.12089504376928
 31
0.0
  0
LINE
  5
5F
  8
1
 62
     7
 10
128.4907477288115
 20
409.24589504376922
 30
0.0
 11
132.5092522711891
 21
409.24589504376922
 31
0.0
  0
LINE
  5
60
  8
1
 62
     7
 10
128.4907477288115
 20
403.49589504376922
 30
0.0
 11
132.5092522711891
 21
403.49589504376922
 31
0.0
  0
LINE
  5
61
  8
1
 62
     7
 10
128.4907477288115
 20
400.62089504376922
 30
0.0
 11
132.5092522711891
 21
400.62089504376922
 31
0.0
  0
LINE
  5
62
  8
1
 62
     7
 10
128.0000000000004
 20
402.05839504376928
 30
0.0
 11
128.0000000000004
 21
410.68339504376922
 31
0.0
  0
LINE
  5
63
  8
1
 62
     7
 10
134.50000000000031
 20
412.37089504376922
 30
0.0
 11
135.00000000000031
 21
412.37089504376922
 31
0.0
  0
LINE
  5
64
  8
1
 62
     7
 10
135.00000000000031
 20
400.37089504376922
 30
0.0
 11
134.50000000000031
 21
400.37089504376922
 31
0.0
  0
LINE
  5
65
  8
1
 62
     7
 10
245.49999999999989
 20
504.04477659802058
 30
0.0
 11
249.00925227118859
 21
504.04477659802058
 31
0.0
  0
LINE
  5
66
  8
1
 62
     7
 10
245.49999999999989
 20
501.16977659802058
 30
0.0
 11
249.00925227118859
 21
501.16977659802058
 31
0.0
  0
LINE
  5
67
  8
1
 62
     7
 10
245.49999999999989
 20
495.41977659802058
 30
0.0
 11
249.00925227118859
 21
495.41977659802058
 31
0.0
  0
LINE
  5
68
  8
1
 62
     7
 10
245.49999999999989
 20
492.54477659802058
 30
0.0
 11
249.00925227118859
 21
492.54477659802058
 31
0.0
  0
LINE
  5
69
  8
1
 62
     7
 10
249.49999999999989
 20
502.60727659802058
 30
0.0
 11
249.49999999999989
 21
493.98227659802058
 31
0.0
  0
LINE
  5
6A
  8
1
 62
     7
 10
245.49999999999989
 20
492.29477659802058
 30
0.0
 11
244.99999999999989
 21
492.29477659802058
 31
0.0
  0
LINE
  5
6B
  8
1
 62
     7
 10
244.99999999999989
 20
504.29477659802058
 30
0.0
 11
245.49999999999989
 21
504.29477659802058
 31
0.0
  0
LINE
  5
6C
  8
1
 62
     7
 10
134.50000000000031
 20
496.7947765980208
 30
0.0
 11
133.00000000000031
 21
498.2947765980208
 31
0.0
  0
LINE
  5
6D
  8
1
 62
     7
 10
134.50000000000031
 20
498.2947765980208
 30
0.0
 11
133.00000000000031
 21
499.7947765980208
 31
0.0
  0
LINE
  5
6E
  8
1
 62
     7
 10
134.50000000000031
 20
492.19477659802078
 30
0.0
 11
133.00000000000031
 21
492.19477659802078
 31
0.0
  0
LINE
  5
6F
  8
1
 62
     7
 10
134.50000000000031
 20
504.39477659802088
 30
0.0
 11
134.50000000000031
 21
492.19477659802078
 31
0.0
  0
LINE
  5
70
  8
1
 62
     7
 10
133.00000000000031
 20
504.39477659802088
 30
0.0
 11
134.50000000000031
 21
504.39477659802088
 31
0.0
  0
LINE
  5
71
  8
1
 62
     7
 10
133.00000000000031
 20
492.19477659802078
 30
0.0
 11
133.00000000000031
 21
504.39477659802088
 31
0.0
  0
LINE
  5
72
  8
1
 62
     7
 10
249.00925227118859
 20
400.62089504376922
 30
0.0
 11
245.49999999999989
 21
400.62089504376922
 31
0.0
  0
LINE
  5
73
  8
1
 62
     7
 10
249.00925227118859
 20
403.49589504376922
 30
0.0
 11
245.49999999999989
 21
403.49589504376922
 31
0.0
  0
LINE
  5
74
  8
1
 62
     7
 10
249.00925227118859
 20
409.24589504376922
 30
0.0
 11
245.49999999999989
 21
409.24589504376922
 31
0.0
  0
LINE
  5
75
  8
1
 62
     7
 10
249.00925227118859
 20
412.12089504376928
 30
0.0
 11
245.49999999999989
 21
412.12089504376928
 31
0.0
  0
LINE
  5
76
  8
1
 62
     7
 10
249.49999999999989
 20
410.68339504376922
 30
0.0
 11
249.49999999999989
 21
402.05839504376928
 31
0.0
  0
LINE
  5
77
  8
1
 62
     7
 10
244.99999999999989
 20
412.37089504376922
 30
0.0
 11
245.49999999999989
 21
412.37089504376922
 31
0.0
  0
LINE
  5
78
  8
1
 62
     7
 10
245.49999999999989
 20
400.37089504376922
 30
0.0
 11
244.99999999999989
 21
400.37089504376922
 31
0.0
  0
LINE
  5
79
  8
1
 62
     7
 10
133.00000000000031
 20
406.37089504376928
 30
0.0
 11
134.50000000000031
 21
407.87089504376922
 31
0.0
  0
LINE
  5
7A
  8
1
 62
     7
 10
133.00000000000031
 20
404.87089504376922
 30
0.0
 11
134.50000000000031
 21
406.37089504376928
 31
0.0
  0
LINE
  5
7B
  8
1
 62
     7
 10
133.00000000000031
 20
412.47089504376908
 30
0.0
 11
134.50000000000031
 21
412.47089504376908
 31
0.0
  0
LINE
  5
7C
  8
1
 62
     7
 10
134.50000000000031
 20
412.47089504376908
 30
0.0
 11
134.50000000000031
 21
400.27089504376931
 31
0.0
  0
LINE
  5
7D
  8
1
 62
     7
 10
134.50000000000031
 20
400.27089504376931
 30
0.0
 11
133.00000000000031
 21
400.27089504376931
 31
0.0
  0
LINE
  5
7E
  8
1
 62
     7
 10
133.00000000000031
 20
400.27089504376931
 30
0.0
 11
133.00000000000031
 21
412.47089504376908
 31
0.0
  0
LINE
  5
7F
  8
1
  6
DASHDOT
 62
     3
 10
340.0
 20
452.3328358208949
 30
0.0
 11
328.5
 21
452.3328358208949
 31
0.0
  0
LINE
  5
80
  8
1
 62
     7
 10
51.5
 20
443.3328358208949
 30
0.0
 11
51.5
 21
461.33283582089501
 31
0.0
  0
LINE
  5
81
  8
1
  6
DASHDOT
 62
     3
 10
41.5
 20
452.3328358208949
 30
0.0
 11
51.5
 21
452.3328358208949
 31
0.0
  0
LINE
  5
82
  8
1
 62
     7
 10
52.5
 20
449.33283582089501
 30
0.0
 11
52.5
 21
442.33283582089501
 31
0.0
  0
LINE
  5
83
  8
1
 62
     7
 10
51.5
 20
449.33283582089501
 30
0.0
 11
78.5
 21
449.33283582089501
 31
0.0
  0
LINE
  5
84
  8
1
 62
     7
 10
78.5
 20
455.33283582089501
 30
0.0
 11
51.5
 21
455.33283582089501
 31
0.0
  0
LINE
  5
85
  8
1
 62
     7
 10
327.49999999999989
 20
455.33283582089501
 30
0.0
 11
327.49999999999989
 21
462.33283582089501
 31
0.0
  0
LINE
  5
86
  8
1
 62
     7
 10
328.5
 20
461.33283582089501
 30
0.0
 11
328.5
 21
443.3328358208949
 31
0.0
  0
LINE
  5
87
  8
1
 62
     7
 10
301.5
 20
449.33283582089501
 30
0.0
 11
328.5
 21
449.33283582089501
 31
0.0
  0
LINE
  5
88
  8
1
 62
     7
 10
301.5
 20
455.33283582089501
 30
0.0
 11
328.5
 21
455.33283582089501
 31
0.0
  0
LINE
  5
89
  8
1
 62
     7
 10
89.300000000000054
 20
439.8328358208949
 30
0.0
 11
87.5
 21
439.8328358208949
 31
0.0
  0
LINE
  5
8A
  8
1
 62
     7
 10
89.300000000000054
 20
464.8328358208949
 30
0.0
 11
87.5
 21
464.8328358208949
 31
0.0
  0
LINE
  5
8B
  8
1
 62
     7
 10
90.5
 20
436.33538710697911
 30
0.0
 11
89.300000000000054
 21
436.33538710697911
 31
0.0
  0
LINE
  5
8C
  8
1
 62
     7
 10
89.300000000000054
 20
436.33538710697911
 30
0.0
 11
89.300000000000054
 21
467.38283582089491
 31
0.0
  0
LINE
  5
8D
  8
1
 62
     7
 10
89.300000000000054
 20
467.38283582089491
 30
0.0
 11
90.5
 21
467.38283582089491
 31
0.0
  0
LINE
  5
8E
  8
1
 62
     7
 10
87.5
 20
439.8328358208949
 30
0.0
 11
87.5
 21
464.8328358208949
 31
0.0
  0
LINE
  5
8F
  8
1
 62
     7
 10
87.5
 20
442.33283582089501
 30
0.0
 11
52.5
 21
442.33283582089501
 31
0.0
  0
LINE
  5
90
  8
1
 62
     7
 10
87.5
 20
462.33283582089501
 30
0.0
 11
52.5
 21
462.33283582089501
 31
0.0
  0
LINE
  5
91
  8
1
 62
     7
 10
52.5
 20
462.33283582089501
 30
0.0
 11
52.5
 21
455.33283582089501
 31
0.0
  0
LINE
  5
92
  8
1
 62
     7
 10
52.5
 20
442.33283582089501
 30
0.0
 11
51.5
 21
443.3328358208949
 31
0.0
  0
LINE
  5
93
  8
1
 62
     7
 10
51.5
 20
461.33283582089501
 30
0.0
 11
52.5
 21
462.33283582089501
 31
0.0
  0
LINE
  5
94
  8
1
 62
     7
 10
292.5
 20
439.8328358208949
 30
0.0
 11
290.69999999999999
 21
439.83283582089513
 31
0.0
  0
LINE
  5
95
  8
1
 62
     7
 10
292.5
 20
464.8328358208949
 30
0.0
 11
290.69999999999982
 21
464.8328358208949
 31
0.0
  0
LINE
  5
96
  8
1
 62
     7
 10
290.69999999999982
 20
436.33538710697911
 30
0.0
 11
289.49999999999989
 21
436.33538710697923
 31
0.0
  0
LINE
  5
97
  8
1
 62
     7
 10
290.69999999999982
 20
467.38283582089491
 30
0.0
 11
290.69999999999982
 21
436.33538710697911
 31
0.0
  0
LINE
  5
98
  8
1
 62
     7
 10
289.49999999999989
 20
467.38283582089491
 30
0.0
 11
290.69999999999982
 21
467.38283582089491
 31
0.0
  0
LINE
  5
99
  8
1
 62
     7
 10
292.5
 20
464.8328358208949
 30
0.0
 11
292.5
 21
439.8328358208949
 31
0.0
  0
LINE
  5
9A
  8
1
 62
     7
 10
327.49999999999989
 20
442.33283582089501
 30
0.0
 11
292.5
 21
442.33283582089513
 31
0.0
  0
LINE
  5
9B
  8
1
 62
     7
 10
327.49999999999989
 20
462.33283582089501
 30
0.0
 11
292.5
 21
462.33283582089501
 31
0.0
  0
LINE
  5
9C
  8
1
 62
     7
 10
327.49999999999989
 20
442.33283582089501
 30
0.0
 11
327.49999999999989
 21
449.33283582089501
 31
0.0
  0
LINE
  5
9D
  8
1
 62
     7
 10
328.5
 20
443.3328358208949
 30
0.0
 11
327.49999999999989
 21
442.33283582089501
 31
0.0
  0
LINE
  5
9E
  8
1
 62
     7
 10
327.49999999999989
 20
462.33283582089501
 30
0.0
 11
328.5
 21
461.33283582089501
 31
0.0
  0
LINE
  5
9F
  8
1
 62
     7
 10
138.0000000000004
 20
478.33283582089467
 30
0.0
 11
188.49999999999989
 21
478.33283582089467
 31
0.0
  0
LINE
  5
A0
  8
1
 62
     7
 10
122.5338453141773
 20
499.90323323561302
 30
0.0
 11
128.02245710769171
 21
502.93143284582783
 31
0.0
  0
LINE
  5
A1
  8
1
 62
     7
 10
119.5
 20
525.58283582089473
 30
0.0
 11
119.5
 21
523.46322257896372
 31
0.0
  0
LINE
  5
A2
  8
1
 62
     7
 10
119.5
 20
528.33283582089462
 30
0.0
 11
119.5
 21
529.33283582089473
 31
0.0
  0
LINE
  5
A3
  8
1
 62
     7
 10
107.4999999999999
 20
508.33283582089462
 30
0.0
 11
135.99181489157669
 21
508.33283582089462
 31
0.0
  0
LINE
  5
A4
  8
1
 62
     7
 10
107.4999999999999
 20
526.33283582089473
 30
0.0
 11
118.5
 21
526.33283582089473
 31
0.0
  0
LINE
  5
A5
  8
1
 62
     7
 10
136.0000000000004
 20
523.70592384828637
 30
0.0
 11
122.61312702970071
 21
524.21108886603383
 31
0.0
  0
LINE
  5
A6
  8
1
 62
     7
 10
188.49999999999989
 20
529.33283582089427
 30
0.0
 11
139.0000000000004
 21
529.33283582089427
 31
0.0
  0
LINE
  5
A7
  8
1
 62
     7
 10
146.0000000000004
 20
529.33283582089427
 30
0.0
 11
119.5
 21
530.33283582089473
 31
0.0
  0
LINE
  5
A8
  8
1
 62
     7
 10
119.5000000000002
 20
484.83283582089462
 30
0.0
 11
92.5
 21
484.83283582089462
 31
0.0
  0
LINE
  5
A9
  8
1
 62
     7
 10
90.5
 20
482.83283582089462
 30
0.0
 11
90.5
 21
421.83283582089513
 31
0.0
  0
LINE
  5
AA
  8
1
  6
DASHDOT
 62
     3
 10
107.4999999999999
 20
524.58283582089473
 30
0.0
 11
107.4999999999999
 21
510.08283582089462
 31
0.0
  0
LINE
  5
AB
  8
1
  6
DASHDOT
 62
     3
 10
114.7499999999999
 20
517.33283582089473
 30
0.0
 11
100.2499999999999
 21
517.33283582089473
 31
0.0
  0
LINE
  5
AC
  8
1
 62
     7
 10
136.0000000000004
 20
526.33283582089416
 30
0.0
 11
136.0000000000004
 21
378.33283582089541
 31
0.0
  0
LINE
  5
AD
  8
1
 62
     7
 10
99.500000000000014
 20
490.33283582089467
 30
0.0
 11
121.5000000000002
 21
490.33283582089467
 31
0.0
  0
LINE
  5
AE
  8
1
 62
     7
 10
94.500000000000014
 20
525.33283582089473
 30
0.0
 11
94.500000000000014
 21
495.33283582089462
 31
0.0
  0
LINE
  5
AF
  8
1
 62
     7
 10
150.5
 20
530.33283582089473
 30
0.0
 11
99.500000000000014
 21
530.33283582089473
 31
0.0
  0
LINE
  5
B0
  8
1
 62
     7
 10
191.5
 20
525.83283582089473
 30
0.0
 11
188.49999999999989
 21
525.83283582089496
 31
0.0
  0
LINE
  5
B1
  8
1
 62
     7
 10
280.5
 20
530.33283582089473
 30
0.0
 11
229.49999999999989
 21
530.33283582089473
 31
0.0
  0
LINE
  5
B2
  8
1
 62
     7
 10
285.5
 20
495.33283582089467
 30
0.0
 11
285.5
 21
525.33283582089473
 31
0.0
  0
LINE
  5
B3
  8
1
 62
     7
 10
258.49999999999977
 20
490.33283582089467
 30
0.0
 11
280.5
 21
490.33283582089467
 31
0.0
  0
LINE
  5
B4
  8
1
 62
     7
 10
243.99999999999949
 20
378.33283582089541
 30
0.0
 11
243.99999999999949
 21
526.33283582089427
 31
0.0
  0
LINE
  5
B5
  8
1
  6
DASHDOT
 62
     3
 10
279.74999999999989
 20
517.33283582089473
 30
0.0
 11
265.24999999999989
 21
517.33283582089473
 31
0.0
  0
LINE
  5
B6
  8
1
  6
DASHDOT
 62
     3
 10
272.5
 20
510.08283582089467
 30
0.0
 11
272.5
 21
524.58283582089473
 31
0.0
  0
LINE
  5
B7
  8
1
 62
     7
 10
289.49999999999989
 20
421.83283582089513
 30
0.0
 11
289.49999999999989
 21
482.83283582089467
 31
0.0
  0
LINE
  5
B8
  8
1
 62
     7
 10
287.5
 20
484.83283582089479
 30
0.0
 11
260.49999999999977
 21
484.83283582089479
 31
0.0
  0
LINE
  5
B9
  8
1
 62
     7
 10
260.49999999999989
 20
530.33283582089473
 30
0.0
 11
233.99999999999949
 21
529.33283582089439
 31
0.0
  0
LINE
  5
BA
  8
1
 62
     7
 10
240.99999999999949
 20
529.33283582089439
 30
0.0
 11
191.5
 21
529.33283582089439
 31
0.0
  0
LINE
  5
BB
  8
1
 62
     7
 10
257.38687297029912
 20
524.21108886603406
 30
0.0
 11
243.99999999999949
 21
523.70592384828637
 31
0.0
  0
LINE
  5
BC
  8
1
 62
     7
 10
261.5
 20
526.33283582089473
 30
0.0
 11
272.5
 21
526.33283582089473
 31
0.0
  0
LINE
  5
BD
  8
1
 62
     7
 10
244.00818510842331
 20
508.33283582089467
 30
0.0
 11
272.5
 21
508.33283582089467
 31
0.0
  0
LINE
  5
BE
  8
1
 62
     7
 10
260.49999999999989
 20
529.33283582089473
 30
0.0
 11
260.49999999999989
 21
528.33283582089462
 31
0.0
  0
LINE
  5
BF
  8
1
 62
     7
 10
260.49999999999989
 20
523.46322257896395
 30
0.0
 11
260.49999999999989
 21
525.58283582089473
 31
0.0
  0
LINE
  5
C0
  8
1
 62
     7
 10
258.49999999999989
 20
498.15207786755963
 30
0.0
 11
258.49999999999989
 21
406.51359377423017
 31
0.0
  0
LINE
  5
C1
  8
1
 62
     7
 10
191.5
 20
478.33283582089501
 30
0.0
 11
241.99999999999949
 21
478.33283582089501
 31
0.0
  0
LINE
  5
C2
  8
1
 62
     7
 10
188.49999999999989
 20
378.59287584090362
 30
0.0
 11
138.0000000000004
 21
378.59287584090362
 31
0.0
  0
LINE
  5
C3
  8
1
 62
     7
 10
188.49999999999989
 20
383.06758709238181
 30
0.0
 11
138.0000000000004
 21
383.06758709238181
 31
0.0
  0
LINE
  5
C4
  8
1
 62
     7
 10
188.49999999999989
 20
388.3287813323501
 30
0.0
 11
138.0000000000004
 21
388.3287813323501
 31
0.0
  0
LINE
  5
C5
  8
1
 62
     7
 10
188.49999999999989
 20
394.32997875092042
 30
0.0
 11
138.0000000000004
 21
394.32997875092042
 31
0.0
  0
LINE
  5
C6
  8
1
 62
     7
 10
188.49999999999989
 20
401.05670339370829
 30
0.0
 11
138.0000000000004
 21
401.05670339370829
 31
0.0
  0
LINE
  5
C7
  8
1
 62
     7
 10
188.49999999999989
 20
408.52343121509728
 30
0.0
 11
138.0000000000004
 21
408.52343121509728
 31
0.0
  0
LINE
  5
C8
  8
1
 62
     7
 10
188.49999999999989
 20
416.77664202497652
 30
0.0
 11
138.0000000000004
 21
416.77664202497652
 31
0.0
  0
LINE
  5
C9
  8
1
 62
     7
 10
188.49999999999989
 20
426.33283582089501
 30
0.0
 11
138.0000000000004
 21
426.33283582089501
 31
0.0
  0
LINE
  5
CA
  8
1
 62
     7
 10
134.96615468582289
 20
397.90323323561358
 30
0.0
 11
130.04039265854081
 21
400.62089504376922
 31
0.0
  0
LINE
  5
CB
  8
1
 62
     7
 10
121.5
 20
406.51359377423017
 30
0.0
 11
121.5
 21
498.15207786755963
 31
0.0
  0
LINE
  5
CC
  8
1
 62
     7
 10
119.5
 20
381.20244906282602
 30
0.0
 11
119.5
 21
379.08283582089513
 31
0.0
  0
LINE
  5
CD
  8
1
 62
     7
 10
119.5
 20
375.33283582089518
 30
0.0
 11
119.5
 21
376.33283582089513
 31
0.0
  0
LINE
  5
CE
  8
1
 62
     7
 10
135.99181489157669
 20
396.33283582089518
 30
0.0
 11
107.4999999999999
 21
396.33283582089518
 31
0.0
  0
LINE
  5
CF
  8
1
 62
     7
 10
118.5
 20
378.33283582089513
 30
0.0
 11
107.4999999999999
 21
378.33283582089513
 31
0.0
  0
LINE
  5
D0
  8
1
 62
     7
 10
122.61312702970071
 20
380.45458277575608
 30
0.0
 11
136.0000000000004
 21
380.95974779350331
 31
0.0
  0
LINE
  5
D1
  8
1
 62
     7
 10
119.5
 20
374.33283582089513
 30
0.0
 11
146.0000000000004
 21
375.33283582089541
 31
0.0
  0
LINE
  5
D2
  8
1
 62
     7
 10
188.49999999999989
 20
529.33283582089427
 30
0.0
 11
188.49999999999989
 21
375.33283582089541
 31
0.0
  0
LINE
  5
D3
  8
1
 62
     7
 10
92.5
 20
419.83283582089518
 30
0.0
 11
119.5000000000002
 21
419.83283582089518
 31
0.0
  0
LINE
  5
D4
  8
1
  6
DASHDOT
 62
     3
 10
107.4999999999999
 20
394.58283582089513
 30
0.0
 11
107.4999999999999
 21
380.08283582089513
 31
0.0
  0
LINE
  5
D5
  8
1
  6
DASHDOT
 62
     3
 10
100.2499999999999
 20
387.33283582089513
 30
0.0
 11
114.7499999999999
 21
387.33283582089513
 31
0.0
  0
LINE
  5
D6
  8
1
 62
     7
 10
121.5000000000002
 20
414.33283582089513
 30
0.0
 11
99.500000000000014
 21
414.33283582089513
 31
0.0
  0
LINE
  5
D7
  8
1
 62
     7
 10
94.500000000000014
 20
409.33283582089513
 30
0.0
 11
94.500000000000014
 21
379.33283582089518
 31
0.0
  0
LINE
  5
D8
  8
1
 62
     7
 10
99.500000000000014
 20
374.33283582089513
 30
0.0
 11
150.5
 21
374.33283582089513
 31
0.0
  0
LINE
  5
D9
  8
1
 62
     7
 10
188.49999999999989
 20
378.83283582089501
 30
0.0
 11
191.5
 21
378.83283582089513
 31
0.0
  0
LINE
  5
DA
  8
1
 62
     7
 10
188.49999999999989
 20
378.83283582089501
 30
0.0
 11
188.49999999999989
 21
525.83283582089496
 31
0.0
  0
LINE
  5
DB
  8
1
 62
     7
 10
229.49999999999989
 20
374.33283582089513
 30
0.0
 11
280.5
 21
374.33283582089513
 31
0.0
  0
LINE
  5
DC
  8
1
 62
     7
 10
285.5
 20
379.33283582089518
 30
0.0
 11
285.5
 21
409.33283582089513
 31
0.0
  0
LINE
  5
DD
  8
1
 62
     7
 10
280.5
 20
414.33283582089513
 30
0.0
 11
258.49999999999977
 21
414.33283582089513
 31
0.0
  0
LINE
  5
DE
  8
1
  6
DASHDOT
 62
     3
 10
265.24999999999989
 20
387.33283582089513
 30
0.0
 11
279.74999999999989
 21
387.33283582089513
 31
0.0
  0
LINE
  5
DF
  8
1
  6
DASHDOT
 62
     3
 10
272.5
 20
380.08283582089513
 30
0.0
 11
272.5
 21
394.58283582089513
 31
0.0
  0
LINE
  5
E0
  8
1
 62
     7
 10
260.49999999999977
 20
419.83283582089518
 30
0.0
 11
287.5
 21
419.83283582089518
 31
0.0
  0
LINE
  5
E1
  8
1
 62
     7
 10
191.5
 20
375.33283582089541
 30
0.0
 11
191.5
 21
529.33283582089439
 31
0.0
  0
LINE
  5
E2
  8
1
 62
     7
 10
233.99999999999949
 20
375.33283582089541
 30
0.0
 11
260.49999999999989
 21
374.33283582089513
 31
0.0
  0
LINE
  5
E3
  8
1
 62
     7
 10
243.99999999999949
 20
380.95974779350331
 30
0.0
 11
257.38687297029912
 21
380.45458277575602
 31
0.0
  0
LINE
  5
E4
  8
1
 62
     7
 10
272.5
 20
378.33283582089513
 30
0.0
 11
261.5
 21
378.33283582089513
 31
0.0
  0
LINE
  5
E5
  8
1
 62
     7
 10
272.5
 20
396.33283582089518
 30
0.0
 11
244.00818510842331
 21
396.33283582089518
 31
0.0
  0
LINE
  5
E6
  8
1
 62
     7
 10
260.49999999999989
 20
376.33283582089513
 30
0.0
 11
260.49999999999989
 21
375.33283582089518
 31
0.0
  0
LINE
  5
E7
  8
1
 62
     7
 10
260.49999999999989
 20
379.08283582089513
 30
0.0
 11
260.49999999999989
 21
381.20244906282602
 31
0.0
  0
LINE
  5
E8
  8
1
 62
     7
 10
241.99999999999949
 20
426.33283582089501
 30
0.0
 11
191.5
 21
426.33283582089501
 31
0.0
  0
LINE
  5
E9
  8
1
 62
     7
 10
241.99999999999949
 20
416.77664202497652
 30
0.0
 11
191.5
 21
416.77664202497652
 31
0.0
  0
LINE
  5
EA
  8
1
 62
     7
 10
241.99999999999949
 20
408.52343121509728
 30
0.0
 11
191.5
 21
408.52343121509728
 31
0.0
  0
LINE
  5
EB
  8
1
 62
     7
 10
241.99999999999949
 20
401.05670339370829
 30
0.0
 11
191.5
 21
401.05670339370829
 31
0.0
  0
LINE
  5
EC
  8
1
 62
     7
 10
241.99999999999949
 20
394.32997875092042
 30
0.0
 11
191.5
 21
394.32997875092042
 31
0.0
  0
LINE
  5
ED
  8
1
 62
     7
 10
241.99999999999949
 20
388.3287813323501
 30
0.0
 11
191.5
 21
388.3287813323501
 31
0.0
  0
LINE
  5
EE
  8
1
 62
     7
 10
241.99999999999949
 20
383.06758709238181
 30
0.0
 11
191.5
 21
383.06758709238181
 31
0.0
  0
LINE
  5
EF
  8
1
 62
     7
 10
241.99999999999949
 20
378.59287584090362
 30
0.0
 11
191.5
 21
378.59287584090362
 31
0.0
  0
LINE
  5
F0
  8
1
 62
     7
 10
130.0403926585405
 20
303.71194077712551
 30
0.0
 11
134.966154685823
 21
306.42960258528132
 31
0.0
  0
LINE
  5
F1
  8
1
 62
     7
 10
245.03384531417711
 20
306.42960258528132
 30
0.0
 11
257.46615468582269
 21
299.57039741471829
 31
0.0
  0
LINE
  5
F2
  8
1
 62
     3
 10
128.0000000000004
 20
295.56194077712553
 30
0.0
 11
125.5000000000004
 21
295.56194077712553
 31
0.0
  0
LINE
  5
F3
  8
1
 62
     7
 10
126.09999999999989
 20
294.96194077712551
 30
0.0
 11
126.09999999999989
 21
300.96194077712551
 31
0.0
  0
LINE
  5
F4
  8
1
 62
     3
 10
125.5000000000004
 20
300.36194077712548
 30
0.0
 11
128.0000000000004
 21
300.36194077712548
 31
0.0
  0
LINE
  5
F5
  8
1
 62
     7
 10
128.0000000000004
 20
300.96194077712551
 30
0.0
 11
126.09999999999989
 21
300.96194077712551
 31
0.0
  0
LINE
  5
F6
  8
1
 62
     7
 10
126.09999999999989
 20
300.96194077712551
 30
0.0
 11
125.5000000000004
 21
300.36194077712548
 31
0.0
  0
LINE
  5
F7
  8
1
 62
     7
 10
125.5000000000004
 20
300.36194077712548
 30
0.0
 11
125.5000000000004
 21
295.56194077712553
 31
0.0
  0
LINE
  5
F8
  8
1
 62
     7
 10
125.5000000000004
 20
295.56194077712553
 30
0.0
 11
126.09999999999989
 21
294.96194077712551
 31
0.0
  0
LINE
  5
F9
  8
1
 62
     7
 10
126.09999999999989
 20
294.96194077712551
 30
0.0
 11
128.0000000000004
 21
294.96194077712551
 31
0.0
  0
LINE
  5
FA
  8
1
 62
     7
 10
132.5092522711891
 20
292.21194077712539
 30
0.0
 11
128.4907477288115
 21
292.21194077712539
 31
0.0
  0
LINE
  5
FB
  8
1
 62
     7
 10
132.5092522711891
 20
295.08694077712539
 30
0.0
 11
128.4907477288115
 21
295.08694077712539
 31
0.0
  0
LINE
  5
FC
  8
1
 62
     7
 10
132.5092522711891
 20
300.83694077712551
 30
0.0
 11
128.4907477288115
 21
300.83694077712551
 31
0.0
  0
LINE
  5
FD
  8
1
 62
     7
 10
132.5092522711891
 20
303.71194077712551
 30
0.0
 11
128.4907477288115
 21
303.71194077712551
 31
0.0
  0
LINE
  5
FE
  8
1
 62
     7
 10
128.0000000000004
 20
293.64944077712551
 30
0.0
 11
128.0000000000004
 21
302.27444077712551
 31
0.0
  0
LINE
  5
FF
  8
1
 62
     7
 10
135.00000000000031
 20
291.96194077712539
 30
0.0
 11
134.50000000000031
 21
291.96194077712539
 31
0.0
  0
LINE
  5
100
  8
1
 62
     7
 10
134.50000000000031
 20
303.96194077712551
 30
0.0
 11
135.00000000000031
 21
303.96194077712551
 31
0.0
  0
LINE
  5
101
  8
1
 62
     7
 10
245.49999999999989
 20
303.71194077712551
 30
0.0
 11
249.00925227118859
 21
303.71194077712551
 31
0.0
  0
LINE
  5
102
  8
1
 62
     7
 10
245.49999999999989
 20
300.83694077712551
 30
0.0
 11
249.00925227118859
 21
300.83694077712551
 31
0.0
  0
LINE
  5
103
  8
1
 62
     7
 10
245.49999999999989
 20
295.08694077712539
 30
0.0
 11
249.00925227118859
 21
295.08694077712539
 31
0.0
  0
LINE
  5
104
  8
1
 62
     7
 10
245.49999999999989
 20
292.21194077712539
 30
0.0
 11
249.00925227118859
 21
292.21194077712539
 31
0.0
  0
LINE
  5
105
  8
1
 62
     7
 10
249.49999999999989
 20
302.27444077712551
 30
0.0
 11
249.49999999999989
 21
293.64944077712551
 31
0.0
  0
LINE
  5
106
  8
1
 62
     7
 10
245.49999999999989
 20
291.96194077712539
 30
0.0
 11
244.99999999999989
 21
291.96194077712539
 31
0.0
  0
LINE
  5
107
  8
1
 62
     7
 10
244.99999999999989
 20
303.96194077712551
 30
0.0
 11
245.49999999999989
 21
303.96194077712551
 31
0.0
  0
LINE
  5
108
  8
1
 62
     7
 10
134.50000000000031
 20
296.46194077712551
 30
0.0
 11
133.00000000000031
 21
297.96194077712539
 31
0.0
  0
LINE
  5
109
  8
1
 62
     7
 10
134.50000000000031
 20
297.96194077712539
 30
0.0
 11
133.00000000000031
 21
299.46194077712551
 31
0.0
  0
LINE
  5
10A
  8
1
 62
     7
 10
134.50000000000031
 20
291.86194077712543
 30
0.0
 11
133.00000000000031
 21
291.86194077712543
 31
0.0
  0
LINE
  5
10B
  8
1
 62
     7
 10
134.50000000000031
 20
304.06194077712553
 30
0.0
 11
134.50000000000031
 21
291.86194077712543
 31
0.0
  0
LINE
  5
10C
  8
1
 62
     7
 10
133.00000000000031
 20
304.06194077712553
 30
0.0
 11
134.50000000000031
 21
304.06194077712553
 31
0.0
  0
LINE
  5
10D
  8
1
 62
     7
 10
133.00000000000031
 20
291.86194077712543
 30
0.0
 11
133.00000000000031
 21
304.06194077712553
 31
0.0
  0
LINE
  5
10E
  8
1
 62
     7
 10
191.5
 20
278.0
 30
0.0
 11
243.99999999999989
 21
278.0
 31
0.0
  0
LINE
  5
10F
  8
1
 62
     7
 10
136.0
 20
326.99999999999989
 30
0.0
 11
136.0000000000004
 21
195.20754716981131
 31
0.0
  0
LINE
  5
110
  8
1
 62
     7
 10
136.0000000000002
 20
278.0
 30
0.0
 11
188.49999999999989
 21
278.0
 31
0.0
  0
LINE
  5
111
  8
1
 62
     7
 10
188.5
 20
211.49999999999969
 30
0.0
 11
188.49999999999989
 21
328.99999999999977
 31
0.0
  0
LINE
  5
112
  8
1
 62
     7
 10
188.49999999999989
 20
287.55619379591809
 30
0.0
 11
136.0000000000002
 21
287.55619379591809
 31
0.0
  0
LINE
  5
113
  8
1
 62
     7
 10
243.99999999999989
 20
287.55619379591809
 30
0.0
 11
191.5
 21
287.55619379591809
 31
0.0
  0
LINE
  5
114
  8
1
 62
     7
 10
191.5
 20
295.80940460579762
 30
0.0
 11
243.99999999999989
 21
295.80940460579762
 31
0.0
  0
LINE
  5
115
  8
1
 62
     7
 10
136.0000000000002
 20
295.80940460579762
 30
0.0
 11
188.49999999999989
 21
295.80940460579762
 31
0.0
  0
LINE
  5
116
  8
1
 62
     7
 10
188.49999999999989
 20
303.27613242718672
 30
0.0
 11
136.0
 21
303.27613242718672
 31
0.0
  0
LINE
  5
117
  8
1
 62
     7
 10
243.99999999999989
 20
303.27613242718672
 30
0.0
 11
191.5
 21
303.27613242718672
 31
0.0
  0
LINE
  5
118
  8
1
 62
     7
 10
191.5
 20
310.00285706997482
 30
0.0
 11
243.99999999999989
 21
310.00285706997482
 31
0.0
  0
LINE
  5
119
  8
1
 62
     7
 10
136.0
 20
310.00285706997482
 30
0.0
 11
188.49999999999989
 21
310.00285706997482
 31
0.0
  0
LINE
  5
11A
  8
1
 62
     7
 10
188.49999999999989
 20
316.00405448854463
 30
0.0
 11
136.0
 21
316.00405448854463
 31
0.0
  0
LINE
  5
11B
  8
1
 62
     7
 10
243.99999999999989
 20
316.00405448854463
 30
0.0
 11
191.5
 21
316.00405448854463
 31
0.0
  0
LINE
  5
11C
  8
1
 62
     7
 10
191.5
 20
321.2652487285132
 30
0.0
 11
243.99999999999989
 21
321.2652487285132
 31
0.0
  0
LINE
  5
11D
  8
1
 62
     7
 10
136.0
 20
321.2652487285132
 30
0.0
 11
188.49999999999989
 21
321.2652487285132
 31
0.0
  0
LINE
  5
11E
  8
1
 62
     7
 10
188.49999999999989
 20
325.73995997999162
 30
0.0
 11
136.0
 21
325.73995997999162
 31
0.0
  0
LINE
  5
11F
  8
1
 62
     7
 10
191.5
 20
211.49999999999989
 30
0.0
 11
191.5
 21
328.99999999999977
 31
0.0
  0
LINE
  5
120
  8
1
 62
     7
 10
243.99999999999989
 20
195.20754716981131
 30
0.0
 11
243.99999999999989
 21
326.99999999999977
 31
0.0
  0
LINE
  5
121
  8
1
 62
     7
 10
191.5
 20
325.73995997999162
 30
0.0
 11
243.99999999999989
 21
325.73995997999162
 31
0.0
  0
LINE
  5
122
  8
1
  6
DASHDOT
 62
     3
 10
306.69999999999982
 20
251.99999999999989
 30
0.0
 11
338.5
 21
251.99999999999989
 31
0.0
  0
LINE
  5
123
  8
1
  6
DASHED
 62
     7
 10
519.99999999999989
 20
183.99999999999989
 30
0.0
 11
519.99999999999989
 21
213.2294297033562
 31
0.0
  0
LINE
  5
124
  8
1
  6
DASHDOT
 62
     3
 10
454.0
 20
258.15704694836199
 30
0.0
 11
454.0
 21
245.883928610244
 31
0.0
  0
LINE
  5
125
  8
1
  6
DASHDOT
 62
     3
 10
460.18737568453901
 20
252.0
 30
0.0
 11
447.79314104703298
 21
252.0
 31
0.0
  0
LINE
  5
126
  8
1
 62
     7
 10
516.27588096680677
 20
205.28046821929709
 30
0.0
 11
517.41826805091762
 21
204.13808113518661
 31
0.0
  0
LINE
  5
127
  8
1
 62
     7
 10
519.43856415699076
 20
209.18885284097871
 30
0.0
 11
519.85103516614015
 21
208.77638183182921
 31
0.0
  0
LINE
  5
128
  8
1
 62
     7
 10
527.99999999999989
 20
226.0
 30
0.0
 11
527.17786550590267
 21
226.0
 31
0.0
  0
LINE
  5
129
  8
1
 62
     7
 10
524.15623658327104
 20
217.1991024760556
 30
0.0
 11
524.32574641761869
 21
217.02959264170821
 31
0.0
  0
LINE
  5
12A
  8
1
 62
     7
 10
525.41778489984119
 20
221.5944084089775
 30
0.0
 11
527.15417354236433
 21
219.85801976645479
 31
0.0
  0
LINE
  5
12B
  8
1
 62
     7
 10
521.25992925260812
 20
213.02434199485339
 30
0.0
 11
522.67946229088602
 21
211.60480895657579
 31
0.0
  0
LINE
  5
12C
  8
1
 62
     7
 10
480.0
 20
178.0
 30
0.0
 11
480.0
 21
178.8221344940971
 31
0.0
  0
LINE
  5
12D
  8
1
 62
     7
 10
513.94065580777578
 20
201.95883912883599
 30
0.0
 11
514.58984092617175
 21
201.30965401044011
 31
0.0
  0
LINE
  5
12E
  8
1
 62
     7
 10
507.69930565024839
 20
195.47226722500531
 30
0.0
 11
508.5886435076012
 21
194.58292936765221
 31
0.0
  0
LINE
  5
12F
  8
1
 62
     7
 10
510.5277327749946
 20
198.3006943497515
 30
0.0
 11
511.41707063234742
 21
197.4113564923984
 31
0.0
  0
LINE
  5
130
  8
1
 62
     7
 10
504.69034598955972
 20
191.41015907382831
 30
0.0
 11
504.04116087116398
 21
192.0593441922241
 31
0.0
  0
LINE
  5
131
  8
1
 62
     7
 10
501.86191886481328
 20
188.58173194908241
 30
0.0
 11
500.71953178070282
 21
189.72411903319301
 31
0.0
  0
LINE
  5
132
  8
1
 62
     7
 10
497.22361816817067
 20
186.14896483385959
 30
0.0
 11
496.81114715902117
 21
186.56143584300909
 31
0.0
  0
LINE
  5
133
  8
1
 62
     7
 10
494.39519104342418
 20
183.32053770911389
 30
0.0
 11
492.97565800514661
 21
184.7400707473918
 31
0.0
  0
LINE
  5
134
  8
1
 62
     7
 10
488.97040735829171
 20
181.67425358238131
 30
0.0
 11
488.80089752394429
 21
181.84376341672879
 31
0.0
  0
LINE
  5
135
  8
1
 62
     7
 10
486.14198023354521
 20
178.8458264576355
 30
0.0
 11
484.40559159102241
 21
180.58221510015889
 31
0.0
  0
LINE
  5
136
  8
1
 62
     7
 10
380.82213449409721
 20
226.0
 30
0.0
 11
380.00000000000011
 21
226.0
 31
0.0
  0
LINE
  5
137
  8
1
 62
     7
 10
428.0
 20
178.8221344940971
 30
0.0
 11
428.0
 21
178.0
 31
0.0
  0
LINE
  5
138
  8
1
 62
     7
 10
383.6742535823812
 20
217.02959264170821
 30
0.0
 11
383.8437634167289
 21
217.1991024760556
 31
0.0
  0
LINE
  5
139
  8
1
 62
     7
 10
380.84582645763561
 20
219.85801976645479
 30
0.0
 11
382.58221510015881
 21
221.5944084089775
 31
0.0
  0
LINE
  5
13A
  8
1
 62
     7
 10
385.32053770911392
 20
211.60480895657579
 30
0.0
 11
386.74007074739188
 21
213.02434199485339
 31
0.0
  0
LINE
  5
13B
  8
1
 62
     7
 10
388.14896483385968
 20
208.77638183182921
 30
0.0
 11
388.56143584300912
 21
209.18885284097871
 31
0.0
  0
LINE
  5
13C
  8
1
 62
     7
 10
390.58173194908238
 20
204.13808113518661
 30
0.0
 11
391.72411903319312
 21
205.28046821929709
 31
0.0
  0
LINE
  5
13D
  8
1
 62
     7
 10
393.4101590738282
 20
201.30965401044011
 30
0.0
 11
394.05934419222422
 21
201.95883912883599
 31
0.0
  0
LINE
  5
13E
  8
1
 62
     7
 10
399.41135649239862
 20
194.58292936765221
 30
0.0
 11
400.3006943497515
 21
195.47226722500531
 31
0.0
  0
LINE
  5
13F
  8
1
 62
     7
 10
396.58292936765253
 20
197.41135649239851
 30
0.0
 11
397.47226722500528
 21
198.3006943497515
 31
0.0
  0
LINE
  5
140
  8
1
 62
     7
 10
403.95883912883602
 20
192.0593441922241
 30
0.0
 11
403.30965401044023
 21
191.41015907382831
 31
0.0
  0
LINE
  5
141
  8
1
 62
     7
 10
407.28046821929712
 20
189.72411903319301
 30
0.0
 11
406.13808113518661
 21
188.58173194908241
 31
0.0
  0
LINE
  5
142
  8
1
 62
     7
 10
411.18885284097871
 20
186.56143584300909
 30
0.0
 11
410.77638183182921
 21
186.14896483385959
 31
0.0
  0
LINE
  5
143
  8
1
 62
     7
 10
415.02434199485339
 20
184.7400707473918
 30
0.0
 11
413.60480895657582
 21
183.32053770911389
 31
0.0
  0
LINE
  5
144
  8
1
 62
     7
 10
419.1991024760556
 20
181.84376341672879
 30
0.0
 11
419.02959264170829
 21
181.67425358238131
 31
0.0
  0
LINE
  5
145
  8
1
 62
     7
 10
423.59440840897759
 20
180.58221510015889
 30
0.0
 11
421.85801976645479
 21
178.8458264576355
 31
0.0
  0
LINE
  5
146
  8
1
 62
     7
 10
380.00000000000011
 20
278.0
 30
0.0
 11
380.82213449409721
 21
278.0
 31
0.0
  0
LINE
  5
147
  8
1
 62
     7
 10
428.0
 20
325.99999999999977
 30
0.0
 11
428.0
 21
325.17786550590279
 31
0.0
  0
LINE
  5
148
  8
1
 62
     7
 10
383.8437634167289
 20
286.80089752394429
 30
0.0
 11
383.6742535823812
 21
286.97040735829171
 31
0.0
  0
LINE
  5
149
  8
1
 62
     7
 10
382.58221510015881
 20
282.4055915910223
 30
0.0
 11
380.84582645763561
 21
284.1419802335451
 31
0.0
  0
LINE
  5
14A
  8
1
 62
     7
 10
386.74007074739188
 20
290.97565800514661
 30
0.0
 11
385.32053770911392
 21
292.39519104342418
 31
0.0
  0
LINE
  5
14B
  8
1
 62
     7
 10
388.56143584300912
 20
294.81114715902129
 30
0.0
 11
388.14896483385968
 21
295.22361816817067
 31
0.0
  0
LINE
  5
14C
  8
1
 62
     7
 10
391.72411903319312
 20
298.71953178070282
 30
0.0
 11
390.58173194908238
 21
299.86191886481328
 31
0.0
  0
LINE
  5
14D
  8
1
 62
     7
 10
394.05934419222422
 20
302.04116087116398
 30
0.0
 11
393.4101590738282
 21
302.69034598955977
 31
0.0
  0
LINE
  5
14E
  8
1
 62
     7
 10
400.3006943497515
 20
308.52773277499472
 30
0.0
 11
399.41135649239862
 21
309.41707063234782
 31
0.0
  0
LINE
  5
14F
  8
1
 62
     7
 10
397.47226722500528
 20
305.69930565024828
 30
0.0
 11
396.58292936765253
 21
306.58864350760132
 31
0.0
  0
LINE
  5
150
  8
1
 62
     7
 10
403.30965401044023
 20
312.58984092617158
 30
0.0
 11
403.95883912883602
 21
311.94065580777573
 31
0.0
  0
LINE
  5
151
  8
1
 62
     7
 10
406.13808113518661
 20
315.41826805091762
 30
0.0
 11
407.28046821929712
 21
314.27588096680682
 31
0.0
  0
LINE
  5
152
  8
1
 62
     7
 10
410.77638183182921
 20
317.85103516614032
 30
0.0
 11
411.18885284097871
 21
317.43856415699082
 31
0.0
  0
LINE
  5
153
  8
1
 62
     7
 10
413.60480895657582
 20
320.67946229088608
 30
0.0
 11
415.02434199485339
 21
319.25992925260812
 31
0.0
  0
LINE
  5
154
  8
1
 62
     7
 10
419.02959264170829
 20
322.32574641761869
 30
0.0
 11
419.1991024760556
 21
322.1562365832711
 31
0.0
  0
LINE
  5
155
  8
1
 62
     7
 10
421.85801976645479
 20
325.15417354236428
 30
0.0
 11
423.59440840897759
 21
323.41778489984108
 31
0.0
  0
LINE
  5
156
  8
1
 62
     7
 10
517.41826805091762
 20
299.86191886481328
 30
0.0
 11
516.27588096680677
 21
298.71953178070282
 31
0.0
  0
LINE
  5
157
  8
1
 62
     7
 10
519.85103516614015
 20
295.22361816817067
 30
0.0
 11
519.43856415699076
 21
294.81114715902129
 31
0.0
  0
LINE
  5
158
  8
1
 62
     7
 10
527.17786550590267
 20
278.0
 30
0.0
 11
527.99999999999989
 21
278.0
 31
0.0
  0
LINE
  5
159
  8
1
 62
     7
 10
524.32574641761869
 20
286.97040735829171
 30
0.0
 11
524.15623658327104
 21
286.80089752394429
 31
0.0
  0
LINE
  5
15A
  8
1
 62
     7
 10
527.15417354236433
 20
284.1419802335451
 30
0.0
 11
525.41778489984119
 21
282.4055915910223
 31
0.0
  0
LINE
  5
15B
  8
1
 62
     7
 10
522.67946229088602
 20
292.39519104342418
 30
0.0
 11
521.25992925260812
 21
290.97565800514661
 31
0.0
  0
LINE
  5
15C
  8
1
 62
     7
 10
480.0
 20
325.17786550590279
 30
0.0
 11
480.0
 21
325.99999999999977
 31
0.0
  0
LINE
  5
15D
  8
1
 62
     7
 10
514.58984092617175
 20
302.69034598955977
 30
0.0
 11
513.94065580777578
 21
302.04116087116398
 31
0.0
  0
LINE
  5
15E
  8
1
 62
     7
 10
508.5886435076012
 20
309.41707063234782
 30
0.0
 11
507.69930565024839
 21
308.52773277499472
 31
0.0
  0
LINE
  5
15F
  8
1
 62
     7
 10
511.41707063234742
 20
306.58864350760132
 30
0.0
 11
510.5277327749946
 21
305.69930565024828
 31
0.0
  0
LINE
  5
160
  8
1
 62
     7
 10
504.04116087116398
 20
311.94065580777573
 30
0.0
 11
504.69034598955972
 21
312.58984092617158
 31
0.0
  0
LINE
  5
161
  8
1
 62
     7
 10
500.71953178070282
 20
314.27588096680682
 30
0.0
 11
501.86191886481328
 21
315.41826805091762
 31
0.0
  0
LINE
  5
162
  8
1
 62
     7
 10
496.81114715902117
 20
317.43856415699082
 30
0.0
 11
497.22361816817067
 21
317.85103516614032
 31
0.0
  0
LINE
  5
163
  8
1
 62
     7
 10
492.97565800514661
 20
319.25992925260812
 30
0.0
 11
494.39519104342418
 21
320.67946229088608
 31
0.0
  0
LINE
  5
164
  8
1
 62
     7
 10
488.80089752394429
 20
322.1562365832711
 30
0.0
 11
488.97040735829171
 21
322.32574641761869
 31
0.0
  0
LINE
  5
165
  8
1
 62
     7
 10
484.40559159102241
 20
323.41778489984108
 30
0.0
 11
486.14198023354521
 21
325.15417354236428
 31
0.0
  0
LINE
  5
166
  8
1
 62
     7
 10
152.5
 20
230.9999999999996
 30
0.0
 11
152.5
 21
171.99999999999989
 31
0.0
  0
LINE
  5
167
  8
1
 62
     7
 10
227.49999999999989
 20
230.9999999999996
 30
0.0
 11
227.49999999999989
 21
171.99999999999989
 31
0.0
  0
LINE
  5
168
  8
1
 62
     7
 10
152.5
 20
171.99999999999989
 30
0.0
 11
94.500000000000014
 21
171.99999999999989
 31
0.0
  0
LINE
  5
169
  8
1
 62
     7
 10
224.5
 20
174.99999999999989
 30
0.0
 11
191.5
 21
174.99999999999989
 31
0.0
  0
LINE
  5
16A
  8
1
 62
     7
 10
402.4612838646222
 20
207.53235167648779
 30
0.0
 11
403.95557631823573
 21
201.95557631823581
 31
0.0
  0
LINE
  5
16B
  8
1
 62
     7
 10
406.54376676926103
 20
211.6148345811265
 30
0.0
 11
402.4612838646222
 21
207.53235167648779
 31
0.0
  0
LINE
  5
16C
  8
1
 62
     7
 10
412.12054212751298
 20
210.120542127513
 30
0.0
 11
406.54376676926103
 21
211.6148345811265
 31
0.0
  0
LINE
  5
16D
  8
1
 62
     7
 10
413.61483458112627
 20
204.543766769261
 30
0.0
 11
412.12054212751298
 21
210.120542127513
 31
0.0
  0
LINE
  5
16E
  8
1
 62
     7
 10
409.53235167648768
 20
200.4612838646224
 30
0.0
 11
413.61483458112627
 21
204.543766769261
 31
0.0
  0
LINE
  5
16F
  8
1
 62
     7
 10
403.95557631823573
 20
201.95557631823581
 30
0.0
 11
409.53235167648768
 21
200.4612838646224
 31
0.0
  0
LINE
  5
170
  8
1
 62
     7
 10
409.53235167648791
 20
303.53871613537768
 30
0.0
 11
403.95557631823579
 21
302.04442368176421
 31
0.0
  0
LINE
  5
171
  8
1
 62
     7
 10
413.61483458112662
 20
299.45623323073909
 30
0.0
 11
409.53235167648791
 21
303.53871613537768
 31
0.0
  0
LINE
  5
172
  8
1
 62
     7
 10
412.12054212751309
 20
293.87945787248702
 30
0.0
 11
413.61483458112662
 21
299.45623323073909
 31
0.0
  0
LINE
  5
173
  8
1
 62
     7
 10
406.54376676926103
 20
292.38516541887361
 30
0.0
 11
412.12054212751309
 21
293.87945787248702
 31
0.0
  0
LINE
  5
174
  8
1
 62
     7
 10
402.4612838646222
 20
296.46764832351232
 30
0.0
 11
406.54376676926103
 21
292.38516541887361
 31
0.0
  0
LINE
  5
175
  8
1
 62
     7
 10
403.95557631823579
 20
302.04442368176421
 30
0.0
 11
402.4612838646222
 21
296.46764832351232
 31
0.0
  0
LINE
  5
176
  8
1
 62
     7
 10
505.53871613537768
 20
296.46764832351221
 30
0.0
 11
504.04442368176421
 21
302.0444236817641
 31
0.0
  0
LINE
  5
177
  8
1
 62
     7
 10
501.45623323073897
 20
292.3851654188735
 30
0.0
 11
505.53871613537768
 21
296.46764832351221
 31
0.0
  0
LINE
  5
178
  8
1
 62
     7
 10
495.87945787248691
 20
293.8794578724868
 30
0.0
 11
501.45623323073897
 21
292.3851654188735
 31
0.0
  0
LINE
  5
179
  8
1
 62
     7
 10
494.38516541887361
 20
299.45623323073892
 30
0.0
 11
495.87945787248691
 21
293.8794578724868
 31
0.0
  0
LINE
  5
17A
  8
1
 62
     7
 10
498.46764832351221
 20
303.53871613537763
 30
0.0
 11
494.38516541887361
 21
299.45623323073892
 31
0.0
  0
LINE
  5
17B
  8
1
 62
     7
 10
504.04442368176421
 20
302.0444236817641
 30
0.0
 11
498.46764832351221
 21
303.53871613537763
 31
0.0
  0
LINE
  5
17C
  8
1
 62
     7
 10
498.46764832351221
 20
200.46128386462229
 30
0.0
 11
504.04442368176421
 21
201.95557631823581
 31
0.0
  0
LINE
  5
17D
  8
1
 62
     7
 10
494.38516541887361
 20
204.543766769261
 30
0.0
 11
498.46764832351221
 21
200.46128386462229
 31
0.0
  0
LINE
  5
17E
  8
1
 62
     7
 10
495.87945787248691
 20
210.120542127513
 30
0.0
 11
494.38516541887361
 21
204.543766769261
 31
0.0
  0
LINE
  5
17F
  8
1
 62
     7
 10
501.45623323073897
 20
211.6148345811263
 30
0.0
 11
495.87945787248691
 21
210.120542127513
 31
0.0
  0
LINE
  5
180
  8
1
 62
     7
 10
505.53871613537768
 20
207.53235167648779
 30
0.0
 11
501.45623323073897
 21
211.6148345811263
 31
0.0
  0
LINE
  5
181
  8
1
 62
     7
 10
504.04442368176421
 20
201.95557631823581
 30
0.0
 11
505.53871613537768
 21
207.53235167648779
 31
0.0
  0
LINE
  5
182
  8
1
 62
     3
 10
125.5000000000004
 20
208.4380592228741
 30
0.0
 11
128.0000000000004
 21
208.4380592228741
 31
0.0
  0
LINE
  5
183
  8
1
 62
     7
 10
126.09999999999989
 20
203.0380592228741
 30
0.0
 11
126.09999999999989
 21
209.0380592228741
 31
0.0
  0
LINE
  5
184
  8
1
 62
     3
 10
128.0000000000004
 20
203.63805922287409
 30
0.0
 11
125.5000000000004
 21
203.63805922287409
 31
0.0
  0
LINE
  5
185
  8
1
 62
     7
 10
126.09999999999989
 20
203.0380592228741
 30
0.0
 11
128.0000000000004
 21
203.0380592228741
 31
0.0
  0
LINE
  5
186
  8
1
 62
     7
 10
125.5000000000004
 20
203.63805922287409
 30
0.0
 11
126.09999999999989
 21
203.0380592228741
 31
0.0
  0
LINE
  5
187
  8
1
 62
     7
 10
125.5000000000004
 20
208.4380592228741
 30
0.0
 11
125.5000000000004
 21
203.63805922287409
 31
0.0
  0
LINE
  5
188
  8
1
 62
     7
 10
126.09999999999989
 20
209.0380592228741
 30
0.0
 11
125.5000000000004
 21
208.4380592228741
 31
0.0
  0
LINE
  5
189
  8
1
 62
     7
 10
128.0000000000004
 20
209.0380592228741
 30
0.0
 11
126.09999999999989
 21
209.0380592228741
 31
0.0
  0
LINE
  5
18A
  8
1
 62
     7
 10
128.4907477288115
 20
211.78805922287421
 30
0.0
 11
132.5092522711891
 21
211.78805922287421
 31
0.0
  0
LINE
  5
18B
  8
1
 62
     7
 10
128.4907477288115
 20
208.9130592228741
 30
0.0
 11
132.5092522711891
 21
208.9130592228741
 31
0.0
  0
LINE
  5
18C
  8
1
 62
     7
 10
128.4907477288115
 20
203.1630592228741
 30
0.0
 11
132.5092522711891
 21
203.1630592228741
 31
0.0
  0
LINE
  5
18D
  8
1
 62
     7
 10
128.4907477288115
 20
200.2880592228741
 30
0.0
 11
132.5092522711891
 21
200.2880592228741
 31
0.0
  0
LINE
  5
18E
  8
1
 62
     7
 10
128.0000000000004
 20
201.72555922287421
 30
0.0
 11
128.0000000000004
 21
210.3505592228741
 31
0.0
  0
LINE
  5
18F
  8
1
 62
     7
 10
134.50000000000031
 20
212.0380592228741
 30
0.0
 11
135.00000000000031
 21
212.0380592228741
 31
0.0
  0
LINE
  5
190
  8
1
 62
     7
 10
135.00000000000031
 20
200.0380592228741
 30
0.0
 11
134.50000000000031
 21
200.0380592228741
 31
0.0
  0
LINE
  5
191
  8
1
 62
     7
 10
249.00925227118859
 20
200.2880592228741
 30
0.0
 11
245.49999999999989
 21
200.2880592228741
 31
0.0
  0
LINE
  5
192
  8
1
 62
     7
 10
249.00925227118859
 20
203.1630592228741
 30
0.0
 11
245.49999999999989
 21
203.1630592228741
 31
0.0
  0
LINE
  5
193
  8
1
 62
     7
 10
249.00925227118859
 20
208.9130592228741
 30
0.0
 11
245.49999999999989
 21
208.9130592228741
 31
0.0
  0
LINE
  5
194
  8
1
 62
     7
 10
249.00925227118859
 20
211.78805922287421
 30
0.0
 11
245.49999999999989
 21
211.78805922287421
 31
0.0
  0
LINE
  5
195
  8
1
 62
     7
 10
249.49999999999989
 20
210.3505592228741
 30
0.0
 11
249.49999999999989
 21
201.72555922287421
 31
0.0
  0
LINE
  5
196
  8
1
 62
     7
 10
289.49999999999989
 20
221.49999999999989
 30
0.0
 11
289.49999999999989
 21
282.49999999999977
 31
0.0
  0
LINE
  5
197
  8
1
 62
     7
 10
287.5
 20
284.49999999999977
 30
0.0
 11
260.49999999999989
 21
284.49999999999977
 31
0.0
  0
LINE
  5
198
  8
1
 62
     7
 10
90.5
 20
282.49999999999977
 30
0.0
 11
90.5
 21
221.49999999999989
 31
0.0
  0
LINE
  5
199
  8
1
 62
     7
 10
260.49999999999989
 20
219.49999999999989
 30
0.0
 11
287.5
 21
219.49999999999989
 31
0.0
  0
LINE
  5
19A
  8
1
 62
     7
 10
92.5
 20
219.49999999999989
 30
0.0
 11
119.5000000000002
 21
219.49999999999989
 31
0.0
  0
LINE
  5
19B
  8
1
 62
     7
 10
119.5000000000002
 20
284.49999999999977
 30
0.0
 11
92.5
 21
284.49999999999977
 31
0.0
  0
LINE
  5
19C
  8
1
 62
     7
 10
121.5000000000002
 20
206.18075795333499
 30
0.0
 11
121.5000000000002
 21
297.81924204666461
 31
0.0
  0
LINE
  5
19D
  8
1
 62
     7
 10
222.5
 20
214.00000000000011
 30
0.0
 11
195.5
 21
214.00000000000011
 31
0.0
  0
LINE
  5
19E
  8
1
  6
DASHED
 62
     7
 10
388.0
 20
213.2294297033562
 30
0.0
 11
388.0
 21
183.99999999999989
 31
0.0
  0
LINE
  5
19F
  8
1
 62
     7
 10
222.5
 20
233.9999999999996
 30
0.0
 11
193.5
 21
233.9999999999996
 31
0.0
  0
LINE
  5
1A0
  8
1
 62
     7
 10
241.99999999999989
 20
328.99999999999977
 30
0.0
 11
191.5
 21
328.99999999999977
 31
0.0
  0
LINE
  5
1A1
  8
1
 62
     7
 10
451.0
 20
259.0
 30
0.0
 11
451.0
 21
264.49999999999989
 31
0.0
  0
LINE
  5
1A2
  8
1
 62
     7
 10
457.0
 20
258.99999999999989
 30
0.0
 11
451.0
 21
259.0
 31
0.0
  0
LINE
  5
1A3
  8
1
 62
     7
 10
457.0
 20
264.49999999999989
 30
0.0
 11
457.0
 21
258.99999999999989
 31
0.0
  0
LINE
  5
1A4
  8
1
 62
     7
 10
451.0
 20
264.49999999999989
 30
0.0
 11
457.0
 21
264.49999999999989
 31
0.0
  0
LINE
  5
1A5
  8
1
 62
     7
 10
451.49999999999989
 20
236.0025512860839
 30
0.0
 11
449.16666666666669
 21
236.0025512860839
 31
0.0
  0
LINE
  5
1A6
  8
1
 62
     7
 10
451.49999999999989
 20
239.7525512860839
 30
0.0
 11
451.49999999999989
 21
236.0025512860839
 31
0.0
  0
LINE
  5
1A7
  8
1
 62
     7
 10
456.5
 20
236.0025512860839
 30
0.0
 11
458.83333333333343
 21
236.0025512860839
 31
0.0
  0
LINE
  5
1A8
  8
1
 62
     7
 10
456.5
 20
239.7525512860839
 30
0.0
 11
456.5
 21
236.0025512860839
 31
0.0
  0
LINE
  5
1A9
  8
1
 62
     7
 10
447.16666666666669
 20
238.0025512860839
 30
0.0
 11
447.16666666666669
 21
238.74365306605239
 31
0.0
  0
LINE
  5
1AA
  8
1
 62
     7
 10
460.83333333333348
 20
238.0025512860839
 30
0.0
 11
460.83333333333348
 21
238.74365306605239
 31
0.0
  0
LINE
  5
1AB
  8
1
 62
     7
 10
292.5
 20
239.49999999999989
 30
0.0
 11
290.69999999999999
 21
239.5
 31
0.0
  0
LINE
  5
1AC
  8
1
 62
     7
 10
292.5
 20
264.49999999999989
 30
0.0
 11
290.69999999999982
 21
264.49999999999989
 31
0.0
  0
LINE
  5
1AD
  8
1
 62
     7
 10
290.69999999999982
 20
236.0025512860839
 30
0.0
 11
289.49999999999989
 21
236.0025512860841
 31
0.0
  0
LINE
  5
1AE
  8
1
 62
     7
 10
290.69999999999982
 20
267.0499999999999
 30
0.0
 11
290.69999999999982
 21
236.0025512860839
 31
0.0
  0
LINE
  5
1AF
  8
1
 62
     7
 10
289.49999999999989
 20
267.0499999999999
 30
0.0
 11
290.69999999999982
 21
267.0499999999999
 31
0.0
  0
LINE
  5
1B0
  8
1
  6
DASHED
 62
     3
 10
316.5
 20
254.99999999999989
 30
0.0
 11
315.46076951545882
 21
254.40000000000001
 31
0.0
  0
LINE
  5
1B1
  8
1
  6
DASHED
 62
     3
 10
316.5
 20
248.99999999999989
 30
0.0
 11
315.46076951545882
 21
249.59999999999991
 31
0.0
  0
LINE
  5
1B2
  8
1
  6
DASHED
 62
     3
 10
316.5
 20
254.99999999999989
 30
0.0
 11
328.5
 21
254.99999999999989
 31
0.0
  0
LINE
  5
1B3
  8
1
  6
DASHED
 62
     3
 10
316.5
 20
248.99999999999989
 30
0.0
 11
316.5
 21
254.99999999999989
 31
0.0
  0
LINE
  5
1B4
  8
1
  6
DASHED
 62
     3
 10
328.5
 20
248.99999999999989
 30
0.0
 11
316.5
 21
248.99999999999989
 31
0.0
  0
LINE
  5
1B5
  8
1
  6
DASHED
 62
     7
 10
309.96794919243109
 20
251.99999999999989
 30
0.0
 11
311.69999999999982
 21
254.40000000000001
 31
0.0
  0
LINE
  5
1B6
  8
1
  6
DASHED
 62
     7
 10
311.69999999999982
 20
249.59999999999991
 30
0.0
 11
309.96794919243109
 21
251.99999999999989
 31
0.0
  0
LINE
  5
1B7
  8
1
  6
DASHED
 62
     7
 10
311.69999999999982
 20
254.40000000000001
 30
0.0
 11
328.5
 21
254.40000000000001
 31
0.0
  0
LINE
  5
1B8
  8
1
  6
DASHED
 62
     7
 10
311.69999999999982
 20
249.59999999999991
 30
0.0
 11
311.69999999999982
 21
254.40000000000001
 31
0.0
  0
LINE
  5
1B9
  8
1
  6
DASHED
 62
     7
 10
328.5
 20
249.59999999999991
 30
0.0
 11
311.69999999999982
 21
249.59999999999991
 31
0.0
  0
LINE
  5
1BA
  8
1
 62
     7
 10
292.5
 20
264.49999999999989
 30
0.0
 11
292.5
 21
239.49999999999989
 31
0.0
  0
LINE
  5
1BB
  8
1
 62
     7
 10
327.49999999999989
 20
241.99999999999989
 30
0.0
 11
292.5
 21
242.0
 31
0.0
  0
LINE
  5
1BC
  8
1
 62
     7
 10
327.49999999999989
 20
261.99999999999989
 30
0.0
 11
292.5
 21
261.99999999999989
 31
0.0
  0
LINE
  5
1BD
  8
1
  6
DASHED
 62
     7
 10
298.49999999999989
 20
258.99999999999989
 30
0.0
 11
298.49999999999989
 21
261.99999999999989
 31
0.0
  0
LINE
  5
1BE
  8
1
  6
DASHED
 62
     7
 10
328.5
 20
258.99999999999989
 30
0.0
 11
298.49999999999989
 21
258.99999999999989
 31
0.0
  0
LINE
  5
1BF
  8
1
 62
     7
 10
298.49999999999989
 20
264.49999999999989
 30
0.0
 11
298.49999999999989
 21
261.99999999999989
 31
0.0
  0
LINE
  5
1C0
  8
1
 62
     7
 10
328.5
 20
264.49999999999989
 30
0.0
 11
298.49999999999989
 21
264.49999999999989
 31
0.0
  0
LINE
  5
1C1
  8
1
 62
     7
 10
327.49999999999989
 20
241.99999999999989
 30
0.0
 11
327.49999999999989
 21
261.99999999999989
 31
0.0
  0
LINE
  5
1C2
  8
1
 62
     7
 10
328.5
 20
242.99999999999989
 30
0.0
 11
327.49999999999989
 21
241.99999999999989
 31
0.0
  0
LINE
  5
1C3
  8
1
 62
     7
 10
328.5
 20
264.49999999999989
 30
0.0
 11
328.5
 21
242.99999999999989
 31
0.0
  0
LINE
  5
1C4
  8
1
 62
     7
 10
327.49999999999989
 20
261.99999999999989
 30
0.0
 11
328.5
 21
260.99999999999989
 31
0.0
  0
LINE
  5
1C5
  8
1
  6
DASHDOT
 62
     3
 10
41.5
 20
251.99999999999989
 30
0.0
 11
73.300000000000068
 21
251.99999999999989
 31
0.0
  0
LINE
  5
1C6
  8
1
 62
     7
 10
285.5
 20
171.99999999999989
 30
0.0
 11
227.49999999999989
 21
171.99999999999989
 31
0.0
  0
LINE
  5
1C7
  8
1
 62
     7
 10
261.42252282654709
 20
183.99999999999989
 30
0.0
 11
283.49999999999989
 21
183.99999999999989
 31
0.0
  0
LINE
  5
1C8
  8
1
 62
     7
 10
285.5
 20
181.99999999999989
 30
0.0
 11
285.5
 21
171.99999999999989
 31
0.0
  0
LINE
  5
1C9
  8
1
  6
DASHED
 62
     7
 10
268.25
 20
183.99999999999989
 30
0.0
 11
268.25
 21
171.99999999999989
 31
0.0
  0
LINE
  5
1CA
  8
1
  6
DASHED
 62
     7
 10
276.75
 20
171.99999999999989
 30
0.0
 11
276.75
 21
183.99999999999989
 31
0.0
  0
LINE
  5
1CB
  8
1
  6
DASHDOT
 62
     3
 10
272.5
 20
186.99999999999989
 30
0.0
 11
272.5
 21
168.99999999999989
 31
0.0
  0
LINE
  5
1CC
  8
1
 62
     7
 10
89.300000000000054
 20
239.49999999999989
 30
0.0
 11
87.5
 21
239.49999999999989
 31
0.0
  0
LINE
  5
1CD
  8
1
 62
     7
 10
89.300000000000054
 20
264.49999999999989
 30
0.0
 11
87.5
 21
264.49999999999989
 31
0.0
  0
LINE
  5
1CE
  8
1
 62
     7
 10
90.5
 20
236.0025512860839
 30
0.0
 11
89.300000000000054
 21
236.0025512860839
 31
0.0
  0
LINE
  5
1CF
  8
1
 62
     7
 10
89.300000000000054
 20
236.0025512860839
 30
0.0
 11
89.300000000000054
 21
267.0499999999999
 31
0.0
  0
LINE
  5
1D0
  8
1
 62
     7
 10
89.300000000000054
 20
267.0499999999999
 30
0.0
 11
90.5
 21
267.0499999999999
 31
0.0
  0
LINE
  5
1D1
  8
1
  6
DASHED
 62
     3
 10
64.539230484541463
 20
254.40000000000001
 30
0.0
 11
63.5
 21
254.99999999999989
 31
0.0
  0
LINE
  5
1D2
  8
1
  6
DASHED
 62
     3
 10
64.539230484541463
 20
249.59999999999991
 30
0.0
 11
63.5
 21
248.99999999999989
 31
0.0
  0
LINE
  5
1D3
  8
1
  6
DASHED
 62
     3
 10
51.5
 20
254.99999999999989
 30
0.0
 11
63.5
 21
254.99999999999989
 31
0.0
  0
LINE
  5
1D4
  8
1
  6
DASHED
 62
     3
 10
63.5
 20
254.99999999999989
 30
0.0
 11
63.5
 21
248.99999999999989
 31
0.0
  0
LINE
  5
1D5
  8
1
  6
DASHED
 62
     3
 10
63.5
 20
248.99999999999989
 30
0.0
 11
51.5
 21
248.99999999999989
 31
0.0
  0
LINE
  5
1D6
  8
1
  6
DASHED
 62
     7
 10
68.300000000000068
 20
254.40000000000001
 30
0.0
 11
70.032050807568908
 21
251.99999999999989
 31
0.0
  0
LINE
  5
1D7
  8
1
  6
DASHED
 62
     7
 10
70.032050807568908
 20
251.99999999999989
 30
0.0
 11
68.300000000000068
 21
249.59999999999991
 31
0.0
  0
LINE
  5
1D8
  8
1
  6
DASHED
 62
     7
 10
51.5
 20
254.40000000000001
 30
0.0
 11
68.300000000000068
 21
254.40000000000001
 31
0.0
  0
LINE
  5
1D9
  8
1
  6
DASHED
 62
     7
 10
68.300000000000068
 20
254.40000000000001
 30
0.0
 11
68.300000000000068
 21
249.59999999999991
 31
0.0
  0
LINE
  5
1DA
  8
1
  6
DASHED
 62
     7
 10
68.300000000000068
 20
249.59999999999991
 30
0.0
 11
51.5
 21
249.59999999999991
 31
0.0
  0
LINE
  5
1DB
  8
1
 62
     7
 10
87.5
 20
239.49999999999989
 30
0.0
 11
87.5
 21
264.49999999999989
 31
0.0
  0
LINE
  5
1DC
  8
1
 62
     7
 10
87.5
 20
241.99999999999989
 30
0.0
 11
52.5
 21
241.99999999999989
 31
0.0
  0
LINE
  5
1DD
  8
1
 62
     7
 10
87.5
 20
261.99999999999989
 30
0.0
 11
52.5
 21
261.99999999999989
 31
0.0
  0
LINE
  5
1DE
  8
1
  6
DASHED
 62
     7
 10
81.5
 20
261.99999999999989
 30
0.0
 11
81.5
 21
258.99999999999989
 31
0.0
  0
LINE
  5
1DF
  8
1
  6
DASHED
 62
     7
 10
81.5
 20
258.99999999999989
 30
0.0
 11
51.5
 21
258.99999999999989
 31
0.0
  0
LINE
  5
1E0
  8
1
 62
     7
 10
81.5
 20
261.99999999999989
 30
0.0
 11
81.5
 21
264.49999999999989
 31
0.0
  0
LINE
  5
1E1
  8
1
 62
     7
 10
81.5
 20
264.49999999999989
 30
0.0
 11
51.5
 21
264.49999999999989
 31
0.0
  0
LINE
  5
1E2
  8
1
 62
     7
 10
52.5
 20
261.99999999999989
 30
0.0
 11
52.5
 21
241.99999999999989
 31
0.0
  0
LINE
  5
1E3
  8
1
 62
     7
 10
52.5
 20
241.99999999999989
 30
0.0
 11
51.5
 21
242.99999999999989
 31
0.0
  0
LINE
  5
1E4
  8
1
 62
     7
 10
51.5
 20
242.99999999999989
 30
0.0
 11
51.5
 21
264.49999999999989
 31
0.0
  0
LINE
  5
1E5
  8
1
 62
     7
 10
51.5
 20
260.99999999999989
 30
0.0
 11
52.5
 21
261.99999999999989
 31
0.0
  0
LINE
  5
1E6
  8
1
 62
     7
 10
94.500000000000014
 20
171.99999999999989
 30
0.0
 11
94.500000000000014
 21
181.99999999999989
 31
0.0
  0
LINE
  5
1E7
  8
1
  6
DASHED
 62
     7
 10
111.7499999999999
 20
171.99999999999989
 30
0.0
 11
111.7499999999999
 21
183.99999999999989
 31
0.0
  0
LINE
  5
1E8
  8
1
  6
DASHED
 62
     7
 10
103.2499999999999
 20
183.99999999999989
 30
0.0
 11
103.2499999999999
 21
171.99999999999989
 31
0.0
  0
LINE
  5
1E9
  8
1
  6
DASHDOT
 62
     3
 10
107.4999999999999
 20
168.99999999999989
 30
0.0
 11
107.4999999999999
 21
186.99999999999989
 31
0.0
  0
LINE
  5
1EA
  8
1
 62
     7
 10
376.0
 20
172.0
 30
0.0
 11
416.0
 21
171.99999999999989
 31
0.0
  0
LINE
  5
1EB
  8
1
 62
     7
 10
532.0
 20
172.0
 30
0.0
 11
532.0
 21
180.99999999999989
 31
0.0
  0
LINE
  5
1EC
  8
1
 62
     7
 10
376.0
 20
180.99999999999989
 30
0.0
 11
376.0
 21
172.0
 31
0.0
  0
LINE
  5
1ED
  8
1
 62
     7
 10
529.0
 20
183.99999999999989
 30
0.0
 11
508.92820323027581
 21
183.99999999999989
 31
0.0
  0
LINE
  5
1EE
  8
1
 62
     7
 10
489.0
 20
174.99999999999989
 30
0.0
 11
419.0
 21
174.99999999999989
 31
0.0
  0
LINE
  5
1EF
  8
1
 62
     7
 10
492.0
 20
171.99999999999989
 30
0.0
 11
492.0
 21
173.26794919243099
 31
0.0
  0
LINE
  5
1F0
  8
1
 62
     7
 10
416.0
 20
171.99999999999989
 30
0.0
 11
416.0
 21
173.84529946162061
 31
0.0
  0
LINE
  5
1F1
  8
1
 62
     7
 10
492.0
 20
171.99999999999989
 30
0.0
 11
532.0
 21
172.0
 31
0.0
  0
LINE
  5
1F2
  8
1
  6
DASHED
 62
     7
 10
384.75
 20
183.99999999999989
 30
0.0
 11
384.75
 21
171.99999999999989
 31
0.0
  0
LINE
  5
1F3
  8
1
  6
DASHED
 62
     7
 10
393.25
 20
171.99999999999989
 30
0.0
 11
393.25
 21
183.99999999999989
 31
0.0
  0
LINE
  5
1F4
  8
1
  6
DASHDOT
 62
     3
 10
389.0
 20
187.0
 30
0.0
 11
389.0
 21
168.99999999999989
 31
0.0
  0
LINE
  5
1F5
  8
1
  6
DASHED
 62
     7
 10
514.74999999999989
 20
183.99999999999989
 30
0.0
 11
514.74999999999989
 21
171.99999999999989
 31
0.0
  0
LINE
  5
1F6
  8
1
  6
DASHED
 62
     7
 10
523.24999999999989
 20
171.99999999999989
 30
0.0
 11
523.24999999999989
 21
183.99999999999989
 31
0.0
  0
LINE
  5
1F7
  8
1
  6
DASHDOT
 62
     3
 10
519.0
 20
186.99999999999989
 30
0.0
 11
519.0
 21
169.0
 31
0.0
  0
LINE
  5
1F8
  8
1
 62
     7
 10
244.99999999999989
 20
212.0380592228741
 30
0.0
 11
245.49999999999989
 21
212.0380592228741
 31
0.0
  0
LINE
  5
1F9
  8
1
 62
     7
 10
245.49999999999989
 20
200.0380592228741
 30
0.0
 11
244.99999999999989
 21
200.0380592228741
 31
0.0
  0
LINE
  5
1FA
  8
1
 62
     7
 10
431.0
 20
328.99999999999989
 30
0.0
 11
477.0
 21
328.99999999999989
 31
0.0
  0
LINE
  5
1FB
  8
1
 62
     7
 10
377.00000000000011
 20
275.0
 30
0.0
 11
377.00000000000011
 21
222.25483399593909
 31
0.0
  0
LINE
  5
1FC
  8
1
 62
     7
 10
401.57179676972459
 20
183.33012701892201
 30
0.0
 11
415.0
 21
175.5773502691894
 31
0.0
  0
LINE
  5
1FD
  8
1
 62
     7
 10
399.07179676972459
 20
183.99999999999989
 30
0.0
 11
379.0
 21
183.99999999999989
 31
0.0
  0
LINE
  5
1FE
  8
1
 62
     7
 10
506.42820323027581
 20
183.33012701892201
 30
0.0
 11
493.5
 21
175.86602540378431
 31
0.0
  0
LINE
  5
1FF
  8
1
 62
     7
 10
531.99911749672617
 20
181.07276153400201
 30
0.0
 11
531.0
 21
222.25483399593929
 31
0.0
  0
LINE
  5
200
  8
1
 62
     7
 10
525.56065430443186
 20
199.07276153400201
 30
0.0
 11
525.85178608202261
 21
187.07276153400201
 31
0.0
  0
LINE
  5
201
  8
1
 62
     7
 10
530.49110789785243
 20
201.99999999999989
 30
0.0
 11
526.48993088058023
 21
201.99999999999989
 31
0.0
  0
LINE
  5
202
  8
1
 62
     7
 10
530.99999999999977
 20
275.0
 30
0.0
 11
531.0
 21
222.25483399593929
 31
0.0
  0
LINE
  5
203
  8
1
 62
     7
 10
382.14821391797739
 20
187.07276153400201
 30
0.0
 11
382.43934569556808
 21
199.07276153400201
 31
0.0
  0
LINE
  5
204
  8
1
 62
     7
 10
377.00000000000011
 20
222.25483399593909
 30
0.0
 11
376.00088250327371
 21
181.07276153400201
 31
0.0
  0
LINE
  5
205
  8
1
 62
     7
 10
241.99999999999989
 20
226.0
 30
0.0
 11
235.9999999999998
 21
226.0
 31
0.0
  0
LINE
  5
206
  8
1
 62
     7
 10
233.99999999999989
 20
224.0
 30
0.0
 11
233.99999999999989
 21
203.58888342935259
 31
0.0
  0
LINE
  5
207
  8
1
 62
     7
 10
188.49999999999989
 20
328.99999999999977
 30
0.0
 11
138.0
 21
328.99999999999989
 31
0.0
  0
LINE
  5
208
  8
1
 62
     7
 10
186.5
 20
233.9999999999996
 30
0.0
 11
157.5
 21
233.9999999999996
 31
0.0
  0
LINE
  5
209
  8
1
 62
     7
 10
258.5
 20
297.81924204666461
 30
0.0
 11
258.5
 21
206.18075795333499
 31
0.0
  0
LINE
  5
20A
  8
1
 62
     7
 10
235.31435089325069
 20
201.1072333555274
 30
0.0
 11
259.73687371979793
 21
184.51834992617481
 31
0.0
  0
LINE
  5
20B
  8
1
 62
     7
 10
120.2631262802023
 20
184.51834992617481
 30
0.0
 11
144.68564910674931
 21
201.1072333555274
 31
0.0
  0
LINE
  5
20C
  8
1
 62
     7
 10
96.5
 20
183.99999999999989
 30
0.0
 11
118.5774771734532
 21
183.99999999999989
 31
0.0
  0
LINE
  5
20D
  8
1
  6
DASHED
 62
     7
 10
377.00000000000011
 20
234.0
 30
0.0
 11
387.6286477260299
 21
214.67518595267279
 31
0.0
  0
LINE
  5
20E
  8
1
  6
DASHED
 62
     7
 10
520.37135227396993
 20
214.67518595267279
 30
0.0
 11
530.99999999999955
 21
234.0
 31
0.0
  0
LINE
  5
20F
  8
1
 62
     7
 10
133.00000000000031
 20
206.0380592228741
 30
0.0
 11
134.50000000000031
 21
207.53805922287421
 31
0.0
  0
LINE
  5
210
  8
1
 62
     7
 10
133.00000000000031
 20
204.5380592228741
 30
0.0
 11
134.50000000000031
 21
206.0380592228741
 31
0.0
  0
LINE
  5
211
  8
1
 62
     7
 10
133.00000000000031
 20
212.13805922287409
 30
0.0
 11
134.50000000000031
 21
212.13805922287409
 31
0.0
  0
LINE
  5
212
  8
1
 62
     7
 10
134.50000000000031
 20
212.13805922287409
 30
0.0
 11
134.50000000000031
 21
199.9380592228741
 31
0.0
  0
LINE
  5
213
  8
1
 62
     7
 10
134.50000000000031
 20
199.9380592228741
 30
0.0
 11
133.00000000000031
 21
199.9380592228741
 31
0.0
  0
LINE
  5
214
  8
1
 62
     7
 10
133.00000000000031
 20
199.9380592228741
 30
0.0
 11
133.00000000000031
 21
212.13805922287409
 31
0.0
  0
LINE
  5
215
  8
1
 62
     7
 10
257.46615468582269
 20
204.4296025852814
 30
0.0
 11
245.03384531417711
 21
197.57039741471829
 31
0.0
  0
LINE
  5
216
  8
1
 62
     7
 10
134.966154685823
 20
197.57039741471829
 30
0.0
 11
130.0403926585405
 21
200.2880592228741
 31
0.0
  0
LINE
  5
217
  8
1
 62
     7
 10
122.5338453141775
 20
299.57039741471829
 30
0.0
 11
128.02245710769171
 21
302.59859702493299
 31
0.0
  0
LINE
  5
218
  8
1
 62
     7
 10
184.5
 20
214.00000000000011
 30
0.0
 11
157.5
 21
214.0
 31
0.0
  0
LINE
  5
219
  8
1
 62
     7
 10
144.00000000000011
 20
226.0
 30
0.0
 11
138.0000000000002
 21
226.0
 31
0.0
  0
LINE
  5
21A
  8
1
 62
     7
 10
146.00000000000011
 20
203.58888342935259
 30
0.0
 11
146.00000000000011
 21
224.0
 31
0.0
  0
LINE
  5
21B
  8
1
 62
     7
 10
188.5
 20
174.99999999999989
 30
0.0
 11
155.5
 21
174.99999999999989
 31
0.0
  0
LINE
  5
21C
  8
1
 62
     7
 10
191.5
 20
327.99999999999977
 30
0.0
 11
188.49999999999989
 21
327.99999999999977
 31
0.0
  0
LINE
  5
21D
  8
1
 62
     7
 10
188.5
 20
175.99999999999989
 30
0.0
 11
191.5
 21
175.99999999999989
 31
0.0
  0
LINE
  5
21E
  8
1
 62
     7
 10
188.5
 20
186.49999999999989
 30
0.0
 11
188.5
 21
174.99999999999989
 31
0.0
  0
LINE
  5
21F
  8
1
 62
     7
 10
191.5
 20
174.99999999999989
 30
0.0
 11
191.5
 21
186.49999999999989
 31
0.0
  0
LINE
  5
220
  8
1
 62
     7
 10
186.5
 20
174.99999999999989
 30
0.0
 11
186.5
 21
186.49999999999989
 31
0.0
  0
LINE
  5
221
  8
1
 62
     7
 10
193.5
 20
174.99999999999989
 30
0.0
 11
193.5
 21
186.49999999999989
 31
0.0
  0
LINE
  5
222
  8
1
 62
     7
 10
181.25000043285141
 20
179.99999999999989
 30
0.0
 11
161.0000000000002
 21
179.99999999999989
 31
0.0
  0
LINE
  5
223
  8
1
 62
     7
 10
181.25000043285141
 20
181.99999999999989
 30
0.0
 11
161.0000000000002
 21
181.99999999999989
 31
0.0
  0
LINE
  5
224
  8
1
 62
     7
 10
169.7499998016954
 20
183.99999999999989
 30
0.0
 11
161.0000000000002
 21
183.99999999999989
 31
0.0
  0
LINE
  5
225
  8
1
 62
     7
 10
185.25000043285149
 20
183.99999999999989
 30
0.0
 11
185.25000043285129
 21
186.49999978112891
 31
0.0
  0
LINE
  5
226
  8
1
 62
     7
 10
183.25000043285141
 20
183.99999999999989
 30
0.0
 11
183.25000043285141
 21
186.49999999999989
 31
0.0
  0
LINE
  5
227
  8
1
 62
     7
 10
173.74999980169551
 20
185.99999999999989
 30
0.0
 11
173.74999980169551
 21
186.49999978112891
 31
0.0
  0
LINE
  5
228
  8
1
 62
     7
 10
171.7499998016954
 20
185.99999999999989
 30
0.0
 11
171.7499998016954
 21
186.49999999999989
 31
0.0
  0
LINE
  5
229
  8
1
 62
     7
 10
219.0
 20
179.99999999999989
 30
0.0
 11
198.7499995671489
 21
179.99999999999989
 31
0.0
  0
LINE
  5
22A
  8
1
 62
     7
 10
219.0
 20
181.99999999999989
 30
0.0
 11
198.7499995671489
 21
181.99999999999989
 31
0.0
  0
LINE
  5
22B
  8
1
 62
     7
 10
219.0
 20
183.99999999999989
 30
0.0
 11
210.2500001983048
 21
183.99999999999989
 31
0.0
  0
LINE
  5
22C
  8
1
 62
     7
 10
194.7499995671489
 20
186.49999978112891
 30
0.0
 11
194.7499995671489
 21
183.99999999999989
 31
0.0
  0
LINE
  5
22D
  8
1
 62
     7
 10
196.7499995671489
 20
186.49999999999989
 30
0.0
 11
196.7499995671489
 21
183.99999999999989
 31
0.0
  0
LINE
  5
22E
  8
1
 62
     7
 10
206.2500001983048
 20
186.49999978112891
 30
0.0
 11
206.2500001983048
 21
185.9999999999998
 31
0.0
  0
LINE
  5
22F
  8
1
 62
     7
 10
208.2500001983048
 20
186.49999999999989
 30
0.0
 11
208.2500001983048
 21
185.99999999999989
 31
0.0
  0
LINE
  5
230
  8
1
  6
DASHED
 62
     7
 10
381.0
 20
193.99351532518381
 30
0.0
 11
376.31435267152682
 21
193.99351532518381
 31
0.0
  0
LINE
  5
231
  8
1
  6
DASHED
 62
     7
 10
376.55727713533702
 20
204.00648467481611
 30
0.0
 11
381.0
 21
204.00648467481611
 31
0.0
  0
LINE
  5
232
  8
1
 62
     7
 10
372.0
 20
211.49999999999989
 30
0.0
 11
372.0
 21
186.49999999999989
 31
0.0
  0
LINE
  5
233
  8
1
 62
     7
 10
169.0
 20
211.49999999999989
 30
0.0
 11
211.0
 21
211.49999999999989
 31
0.0
  0
LINE
  5
234
  8
1
 62
     7
 10
167.0
 20
188.49999999999989
 30
0.0
 11
167.0
 21
209.49999999999989
 31
0.0
  0
LINE
  5
235
  8
1
 62
     7
 10
171.18375534189121
 20
204.92307849421351
 30
0.0
 11
173.81624465810879
 21
206.44294690957071
 31
0.0
  0
LINE
  5
236
  8
1
 62
     7
 10
174.31624465810879
 20
205.57692150578609
 30
0.0
 11
171.6837553418913
 21
204.05705309042901
 31
0.0
  0
LINE
  5
237
  8
1
 62
     7
 10
368.0
 20
187.49999999999989
 30
0.0
 11
368.0
 21
210.49999999999989
 31
0.0
  0
LINE
  5
238
  8
1
  6
DASHED
 62
     7
 10
388.0
 20
186.49999999999989
 30
0.0
 11
376.1325526351082
 21
186.49999999999989
 31
0.0
  0
LINE
  5
239
  8
1
 62
     7
 10
179.5
 20
206.49999999999989
 30
0.0
 11
179.5
 21
191.49999999999989
 31
0.0
  0
LINE
  5
23A
  8
1
 62
     7
 10
177.5
 20
191.49999999999989
 30
0.0
 11
177.5
 21
206.49999999999989
 31
0.0
  0
LINE
  5
23B
  8
1
 62
     7
 10
183.1837553418913
 20
206.44294690957071
 30
0.0
 11
185.81624465810879
 21
204.92307849421351
 31
0.0
  0
LINE
  5
23C
  8
1
 62
     7
 10
185.31624465810879
 20
204.05705309042901
 30
0.0
 11
182.6837553418913
 21
205.57692150578609
 31
0.0
  0
LINE
  5
23D
  8
1
 62
     7
 10
185.81624465810879
 20
193.07692150578609
 30
0.0
 11
183.1837553418913
 21
191.55705309042901
 31
0.0
  0
LINE
  5
23E
  8
1
 62
     7
 10
182.6837553418913
 20
192.4230784942136
 30
0.0
 11
185.31624465810879
 21
193.94294690957059
 31
0.0
  0
LINE
  5
23F
  8
1
 62
     7
 10
173.81624465810879
 20
191.55705309042901
 30
0.0
 11
171.18375534189121
 21
193.07692150578609
 31
0.0
  0
LINE
  5
240
  8
1
 62
     7
 10
171.6837553418913
 20
193.94294690957059
 30
0.0
 11
174.31624465810879
 21
192.4230784942136
 31
0.0
  0
LINE
  5
241
  8
1
 62
     7
 10
157.8275862068966
 20
201.06896551724131
 30
0.0
 11
167.0
 21
209.49999999999989
 31
0.0
  0
LINE
  5
242
  8
1
 62
     7
 10
157.8275862068966
 20
196.93103448275849
 30
0.0
 11
167.0
 21
188.49999999999989
 31
0.0
  0
LINE
  5
243
  8
1
 62
     7
 10
211.0
 20
186.49999999999989
 30
0.0
 11
169.0
 21
186.5
 31
0.0
  0
LINE
  5
244
  8
1
 62
     7
 10
213.0
 20
209.49999999999989
 30
0.0
 11
213.0
 21
188.49999999999989
 31
0.0
  0
LINE
  5
245
  8
1
 62
     7
 10
206.1837553418913
 20
206.44294690957071
 30
0.0
 11
208.81624465810879
 21
204.92307849421351
 31
0.0
  0
LINE
  5
246
  8
1
 62
     7
 10
208.31624465810879
 20
204.05705309042901
 30
0.0
 11
205.6837553418913
 21
205.57692150578609
 31
0.0
  0
LINE
  5
247
  8
1
 62
     7
 10
200.5
 20
191.49999999999989
 30
0.0
 11
200.5
 21
206.49999999999989
 31
0.0
  0
LINE
  5
248
  8
1
 62
     7
 10
202.5
 20
206.49999999999989
 30
0.0
 11
202.5
 21
191.49999999999989
 31
0.0
  0
LINE
  5
249
  8
1
 62
     7
 10
194.1837553418913
 20
204.92307849421351
 30
0.0
 11
196.81624465810879
 21
206.44294690957071
 31
0.0
  0
LINE
  5
24A
  8
1
 62
     7
 10
197.31624465810879
 20
205.57692150578609
 30
0.0
 11
194.6837553418913
 21
204.05705309042901
 31
0.0
  0
LINE
  5
24B
  8
1
 62
     7
 10
196.81624465810879
 20
191.55705309042901
 30
0.0
 11
194.1837553418913
 21
193.07692150578609
 31
0.0
  0
LINE
  5
24C
  8
1
 62
     7
 10
194.6837553418913
 20
193.94294690957059
 30
0.0
 11
197.31624465810879
 21
192.4230784942136
 31
0.0
  0
LINE
  5
24D
  8
1
 62
     7
 10
208.81624465810879
 20
193.07692150578609
 30
0.0
 11
206.1837553418913
 21
191.55705309042901
 31
0.0
  0
LINE
  5
24E
  8
1
 62
     7
 10
205.6837553418913
 20
192.4230784942136
 30
0.0
 11
208.31624465810879
 21
193.94294690957059
 31
0.0
  0
LINE
  5
24F
  8
1
 62
     7
 10
213.0
 20
209.49999999999989
 30
0.0
 11
222.17241379310349
 21
201.06896551724131
 31
0.0
  0
LINE
  5
250
  8
1
 62
     7
 10
213.0
 20
188.49999999999989
 30
0.0
 11
222.17241379310349
 21
196.93103448275849
 31
0.0
  0
LINE
  5
251
  8
1
 62
     7
 10
191.0
 20
206.49999999999989
 30
0.0
 11
191.0
 21
202.4806007692207
 31
0.0
  0
LINE
  5
252
  8
1
 62
     7
 10
189.0
 20
191.49999999999989
 30
0.0
 11
189.0
 21
195.51939923077899
 31
0.0
  0
LINE
  5
253
  8
1
 62
     7
 10
219.75000000000011
 20
198.7374999999999
 30
0.0
 11
219.75000000000011
 21
199.2624999999999
 31
0.0
  0
LINE
  5
254
  8
1
 62
     7
 10
218.2624999999999
 20
200.74999999999989
 30
0.0
 11
217.73750000000001
 21
200.74999999999989
 31
0.0
  0
LINE
  5
255
  8
1
 62
     7
 10
216.25
 20
199.2624999999999
 30
0.0
 11
216.25
 21
198.7374999999999
 31
0.0
  0
LINE
  5
256
  8
1
 62
     7
 10
217.73750000000001
 20
197.24999999999989
 30
0.0
 11
218.2624999999999
 21
197.24999999999989
 31
0.0
  0
LINE
  5
257
  8
1
 62
     7
 10
163.75
 20
198.7374999999999
 30
0.0
 11
163.75
 21
199.2624999999999
 31
0.0
  0
LINE
  5
258
  8
1
 62
     7
 10
162.2624999999999
 20
200.74999999999989
 30
0.0
 11
161.73750000000001
 21
200.74999999999989
 31
0.0
  0
LINE
  5
259
  8
1
 62
     7
 10
160.25
 20
199.2624999999999
 30
0.0
 11
160.25
 21
198.7374999999999
 31
0.0
  0
LINE
  5
25A
  8
1
 62
     7
 10
161.73750000000001
 20
197.24999999999989
 30
0.0
 11
162.2624999999999
 21
197.24999999999989
 31
0.0
  0
LINE
  5
25B
  8
1
 62
     7
 10
189.0
 20
202.4806007692207
 30
0.0
 11
189.0
 21
206.49999999999989
 31
0.0
  0
LINE
  5
25C
  8
1
 62
     7
 10
191.0
 20
195.51939923077899
 30
0.0
 11
191.0
 21
191.49999999999989
 31
0.0
  0
LINE
  5
25D
  8
1
  6
DASHED
 62
     7
 10
381.56087985837542
 20
201.74999999999989
 30
0.0
 11
382.0
 21
201.74999999999989
 31
0.0
  0
LINE
  5
25E
  8
1
  6
DASHED
 62
     7
 10
382.0
 20
196.24999999999989
 30
0.0
 11
381.56087985837542
 21
196.24999999999989
 31
0.0
  0
LINE
  5
25F
  8
1
  6
DASHED
 62
     7
 10
382.30000000000013
 20
198.99999999999989
 30
0.0
 11
383.0
 21
199.6999999999999
 31
0.0
  0
LINE
  5
260
  8
1
  6
DASHED
 62
     7
 10
382.30000000000013
 20
198.2999999999999
 30
0.0
 11
383.0
 21
198.99999999999989
 31
0.0
  0
LINE
  5
261
  8
1
  6
DASHED
 62
     7
 10
383.0
 20
201.74999999999989
 30
0.0
 11
382.30000000000013
 21
201.74999999999989
 31
0.0
  0
LINE
  5
262
  8
1
  6
DASHED
 62
     7
 10
382.30000000000013
 20
201.74999999999989
 30
0.0
 11
382.30000000000013
 21
196.24999999999989
 31
0.0
  0
LINE
  5
263
  8
1
  6
DASHED
 62
     7
 10
382.30000000000013
 20
196.24999999999989
 30
0.0
 11
383.0
 21
196.24999999999989
 31
0.0
  0
LINE
  5
264
  8
1
 62
     7
 10
374.289033979149
 20
204.00648467481611
 30
0.0
 11
376.55727713533702
 21
204.00648467481611
 31
0.0
  0
LINE
  5
265
  8
1
  6
DASHED
 62
     7
 10
383.0
 20
202.00648467481611
 30
0.0
 11
383.0
 21
195.99351532518381
 31
0.0
  0
LINE
  5
266
  8
1
 62
     7
 10
369.0
 20
211.49999999999989
 30
0.0
 11
376.73907717175592
 21
211.49999999999989
 31
0.0
  0
LINE
  5
267
  8
1
  6
DASHED
 62
     7
 10
376.73907717175592
 20
211.49999999999989
 30
0.0
 11
388.0
 21
211.49999999999989
 31
0.0
  0
LINE
  5
268
  8
1
 62
     7
 10
376.1325526351082
 20
186.49999999999989
 30
0.0
 11
369.0
 21
186.49999999999989
 31
0.0
  0
LINE
  5
269
  8
1
 62
     7
 10
376.31435267152682
 20
193.99351532518381
 30
0.0
 11
374.28903397914843
 21
193.99351532518361
 31
0.0
  0
ARC
  5
26A
  8
1
 62
     7
 10
130.64926106849009
 20
493.98227659802058
 30
0.0
 40
2.350738931510195
 50
322.30124515331812
 51
37.698754846681929
  0
ARC
  5
26B
  8
1
 62
     7
 10
124.33316586717631
 20
498.29477659802058
 30
0.0
 40
8.6668341328240892
 50
340.6265294576769
 51
19.37347054232303
  0
ARC
  5
26C
  8
1
 62
     7
 10
130.64926106849009
 20
502.60727659802058
 30
0.0
 40
2.350738931510195
 50
322.30124515331812
 51
37.698754846681929
  0
ARC
  5
26D
  8
1
 62
     7
 10
130.35073893151051
 20
493.98227659802058
 30
0.0
 40
2.3507389315101732
 50
142.3012451533175
 51
217.69875484668239
  0
ARC
  5
26E
  8
1
 62
     7
 10
136.66683413282431
 20
498.29477659802058
 30
0.0
 40
8.6668341328239684
 50
160.6265294576767
 51
199.37347054232319
  0
ARC
  5
26F
  8
1
 62
     7
 10
130.35073893151051
 20
502.60727659802058
 30
0.0
 40
2.3507389315101732
 50
142.3012451533175
 51
217.69875484668239
  0
ARC
  5
270
  8
1
 62
     7
 10
130.64926106849009
 20
410.68339504376922
 30
0.0
 40
2.350738931510195
 50
322.30124515331812
 51
37.698754846681929
  0
ARC
  5
271
  8
1
 62
     7
 10
124.33316586717631
 20
406.37089504376928
 30
0.0
 40
8.6668341328240892
 50
340.6265294576769
 51
19.37347054232303
  0
ARC
  5
272
  8
1
 62
     7
 10
130.64926106849009
 20
402.05839504376928
 30
0.0
 40
2.350738931510195
 50
322.30124515331812
 51
37.698754846681929
  0
ARC
  5
273
  8
1
 62
     7
 10
130.35073893151051
 20
410.68339504376922
 30
0.0
 40
2.3507389315101732
 50
142.3012451533175
 51
217.69875484668239
  0
ARC
  5
274
  8
1
 62
     7
 10
136.66683413282431
 20
406.37089504376928
 30
0.0
 40
8.6668341328239684
 50
160.6265294576767
 51
199.37347054232319
  0
ARC
  5
275
  8
1
 62
     7
 10
130.35073893151051
 20
402.05839504376928
 30
0.0
 40
2.3507389315101732
 50
142.3012451533175
 51
217.69875484668239
  0
ARC
  5
276
  8
1
 62
     7
 10
247.14926106848961
 20
502.60727659802058
 30
0.0
 40
2.350738931510195
 50
322.30124515331812
 51
37.698754846681929
  0
ARC
  5
277
  8
1
 62
     7
 10
240.83316586717581
 20
498.29477659802058
 30
0.0
 40
8.6668341328240768
 50
340.6265294576769
 51
19.373470542323052
  0
ARC
  5
278
  8
1
 62
     7
 10
247.14926106848961
 20
493.98227659802058
 30
0.0
 40
2.350738931510195
 50
322.30124515331812
 51
37.698754846681929
  0
ARC
  5
279
  8
1
 62
     7
 10
247.14926106848961
 20
402.05839504376928
 30
0.0
 40
2.350738931510195
 50
322.30124515331812
 51
37.698754846681929
  0
ARC
  5
27A
  8
1
 62
     7
 10
240.83316586717581
 20
406.37089504376928
 30
0.0
 40
8.6668341328240768
 50
340.6265294576769
 51
19.373470542323052
  0
ARC
  5
27B
  8
1
 62
     7
 10
247.14926106848961
 20
410.68339504376922
 30
0.0
 40
2.350738931510195
 50
322.30124515331812
 51
37.698754846681929
  0
ARC
  5
27C
  8
1
 62
     7
 10
78.5
 20
452.3328358208949
 30
0.0
 40
3.0
 50
270.0
 51
90.0
  0
ARC
  5
27D
  8
1
 62
     7
 10
301.5
 20
452.3328358208949
 30
0.0
 40
3.0
 50
90.0
 51
270.0
  0
ARC
  5
27E
  8
1
 62
     7
 10
107.4999999999999
 20
517.33283582089473
 30
0.0
 40
9.0000000000001137
 50
90.0
 51
270.0
  0
ARC
  5
27F
  8
1
 62
     7
 10
272.5
 20
517.33283582089473
 30
0.0
 40
9.0000000000000568
 50
270.0
 51
90.0
  0
ARC
  5
280
  8
1
 62
     7
 10
107.4999999999999
 20
387.33283582089513
 30
0.0
 40
9.0
 50
90.0
 51
270.0
  0
ARC
  5
281
  8
1
 62
     7
 10
272.5
 20
387.33283582089513
 30
0.0
 40
9.0
 50
270.0
 51
90.0
  0
ARC
  5
282
  8
1
 62
     7
 10
130.64926106849009
 20
293.64944077712551
 30
0.0
 40
2.350738931510195
 50
322.30124515331812
 51
37.698754846681929
  0
ARC
  5
283
  8
1
 62
     7
 10
124.33316586717631
 20
297.96194077712539
 30
0.0
 40
8.6668341328240892
 50
340.6265294576769
 51
19.37347054232303
  0
ARC
  5
284
  8
1
 62
     7
 10
130.64926106849009
 20
302.27444077712551
 30
0.0
 40
2.350738931510195
 50
322.30124515331812
 51
37.698754846681929
  0
ARC
  5
285
  8
1
 62
     7
 10
130.35073893151051
 20
293.64944077712551
 30
0.0
 40
2.3507389315101732
 50
142.3012451533175
 51
217.69875484668239
  0
ARC
  5
286
  8
1
 62
     7
 10
136.66683413282431
 20
297.96194077712539
 30
0.0
 40
8.6668341328239684
 50
160.6265294576767
 51
199.37347054232319
  0
ARC
  5
287
  8
1
 62
     7
 10
130.35073893151051
 20
302.27444077712551
 30
0.0
 40
2.3507389315101732
 50
142.3012451533175
 51
217.69875484668239
  0
ARC
  5
288
  8
1
 62
     7
 10
247.14926106848961
 20
302.27444077712551
 30
0.0
 40
2.350738931510195
 50
322.30124515331812
 51
37.698754846681929
  0
ARC
  5
289
  8
1
 62
     7
 10
240.83316586717581
 20
297.96194077712539
 30
0.0
 40
8.6668341328240768
 50
340.6265294576769
 51
19.373470542323052
  0
ARC
  5
28A
  8
1
 62
     7
 10
247.14926106848961
 20
293.64944077712551
 30
0.0
 40
2.350738931510195
 50
322.30124515331812
 51
37.698754846681929
  0
ARC
  5
28B
  8
1
 62
     7
 10
454.0
 20
252.0
 30
0.0
 40
76.999999999999943
 50
323.84988309842902
 51
326.08748921097049
  0
ARC
  5
28C
  8
1
 62
     7
 10
454.0
 20
252.0
 30
0.0
 40
76.999999999999972
 50
337.61986494803978
 51
339.74775325781252
  0
ARC
  5
28D
  8
1
 62
     7
 10
454.0
 20
252.0
 30
0.0
 40
76.999999999999929
 50
330.61849827564839
 51
332.92021313939182
  0
ARC
  5
28E
  8
1
 62
     7
 10
454.0
 20
252.0
 30
0.0
 40
77.0
 50
290.25224674218759
 51
292.38013505196011
  0
ARC
  5
28F
  8
1
 62
     7
 10
454.0
 20
252.0
 30
0.0
 40
77.000000000000071
 50
317.20422750397211
 51
319.41172578577022
  0
ARC
  5
290
  8
1
 62
     7
 10
510.00285706997431
 20
195.99714293002529
 30
0.0
 40
1.9999999999999949
 50
224.99999999999929
 51
45.000000000002302
  0
ARC
  5
291
  8
1
 62
     7
 10
454.0
 20
252.0
 30
0.0
 40
76.999999999999872
 50
303.91251078902928
 51
306.15011690157098
  0
ARC
  5
292
  8
1
 62
     7
 10
454.0
 20
252.0
 30
0.0
 40
76.999999999999929
 50
297.07978686060812
 51
299.38150172435161
  0
ARC
  5
293
  8
1
 62
     7
 10
454.0
 20
252.0
 30
0.0
 40
77.000000000000071
 50
310.58827421422978
 51
312.79577249602801
  0
ARC
  5
294
  8
1
 62
     7
 10
454.0
 20
252.0
 30
0.0
 40
76.999999999999943
 50
200.25224674218751
 51
202.38013505196011
  0
ARC
  5
295
  8
1
 62
     7
 10
454.0
 20
252.0
 30
0.0
 40
76.999999999999943
 50
247.6198649480398
 51
249.74775325781241
  0
ARC
  5
296
  8
1
 62
     7
 10
454.0
 20
252.0
 30
0.0
 40
76.999999999999929
 50
207.0797868606081
 51
209.38150172435149
  0
ARC
  5
297
  8
1
 62
     7
 10
454.0
 20
252.0
 30
0.0
 40
76.999999999999872
 50
213.9125107890294
 51
216.1501169015709
  0
ARC
  5
298
  8
1
 62
     7
 10
454.0
 20
252.0
 30
0.0
 40
76.999999999999986
 50
220.5882742142297
 51
222.79577249602801
  0
ARC
  5
299
  8
1
 62
     7
 10
397.99714293002557
 20
195.99714293002529
 30
0.0
 40
2.0000000000001159
 50
134.99999999999471
 51
315.00000000000063
  0
ARC
  5
29A
  8
1
 62
     7
 10
454.0
 20
252.0
 30
0.0
 40
76.999999999999943
 50
233.8498830984289
 51
236.0874892109706
  0
ARC
  5
29B
  8
1
 62
     7
 10
454.0
 20
252.0
 30
0.0
 40
77.0
 50
240.61849827564831
 51
242.92021313939199
  0
ARC
  5
29C
  8
1
 62
     7
 10
454.0
 20
252.0
 30
0.0
 40
77.000000000000071
 50
227.20422750397199
 51
229.4117257857701
  0
ARC
  5
29D
  8
1
 62
     7
 10
454.0
 20
252.0
 30
0.0
 40
76.999999999999943
 50
157.61986494803989
 51
159.74775325781241
  0
ARC
  5
29E
  8
1
 62
     7
 10
454.0
 20
252.0
 30
0.0
 40
76.999999999999972
 50
110.25224674218769
 51
112.38013505196
  0
ARC
  5
29F
  8
1
 62
     7
 10
454.0
 20
252.0
 30
0.0
 40
76.999999999999844
 50
150.61849827564831
 51
152.9202131393919
  0
ARC
  5
2A0
  8
1
 62
     7
 10
454.0
 20
252.0
 30
0.0
 40
76.999999999999943
 50
143.8498830984289
 51
146.0874892109706
  0
ARC
  5
2A1
  8
1
 62
     7
 10
454.0
 20
252.0
 30
0.0
 40
77.000000000000071
 50
137.20422750397199
 51
139.41172578577019
  0
ARC
  5
2A2
  8
1
 62
     7
 10
397.99714293002557
 20
308.0028570699746
 30
0.0
 40
2.0000000000000151
 50
45.0
 51
225.00000000000571
  0
ARC
  5
2A3
  8
1
 62
     7
 10
454.0
 20
252.0
 30
0.0
 40
76.999999999999872
 50
123.9125107890294
 51
126.150116901571
  0
ARC
  5
2A4
  8
1
 62
     7
 10
454.0
 20
252.0
 30
0.0
 40
76.999999999999929
 50
117.079786860608
 51
119.38150172435159
  0
ARC
  5
2A5
  8
1
 62
     7
 10
454.0
 20
252.0
 30
0.0
 40
76.999999999999943
 50
130.5882742142297
 51
132.79577249602789
  0
ARC
  5
2A6
  8
1
 62
     7
 10
454.0
 20
252.0
 30
0.0
 40
76.999999999999872
 50
33.912510789029369
 51
36.150116901571003
  0
ARC
  5
2A7
  8
1
 62
     7
 10
454.0
 20
252.0
 30
0.0
 40
77.000000000000043
 50
20.252246742187559
 51
22.380135051960131
  0
ARC
  5
2A8
  8
1
 62
     7
 10
454.0
 20
252.0
 30
0.0
 40
76.999999999999815
 50
27.079786860608099
 51
29.381501724351551
  0
ARC
  5
2A9
  8
1
 62
     7
 10
454.0
 20
252.0
 30
0.0
 40
76.999999999999943
 50
67.619864948039876
 51
69.74775325781232
  0
ARC
  5
2AA
  8
1
 62
     7
 10
454.0
 20
252.0
 30
0.0
 40
77.000000000000043
 50
40.588274214229763
 51
42.795772496027929
  0
ARC
  5
2AB
  8
1
 62
     7
 10
510.00285706997471
 20
308.0028570699746
 30
0.0
 40
1.9999999999999349
 50
314.99999999998852
 51
135.00000000000571
  0
ARC
  5
2AC
  8
1
 62
     7
 10
454.0
 20
252.0
 30
0.0
 40
76.999999999999943
 50
53.84988309842899
 51
56.087489210970631
  0
ARC
  5
2AD
  8
1
 62
     7
 10
454.0
 20
252.0
 30
0.0
 40
76.999999999999929
 50
60.61849827564847
 51
62.920213139391919
  0
ARC
  5
2AE
  8
1
 62
     7
 10
454.0
 20
252.0
 30
0.0
 40
77.000000000000071
 50
47.204227503972056
 51
49.411725785770123
  0
ARC
  5
2AF
  8
1
 62
     7
 10
130.64926106849009
 20
210.3505592228741
 30
0.0
 40
2.350738931510195
 50
322.30124515331812
 51
37.698754846681929
  0
ARC
  5
2B0
  8
1
 62
     7
 10
124.33316586717631
 20
206.0380592228741
 30
0.0
 40
8.6668341328240892
 50
340.6265294576769
 51
19.37347054232303
  0
ARC
  5
2B1
  8
1
 62
     7
 10
130.64926106849009
 20
201.72555922287421
 30
0.0
 40
2.350738931510195
 50
322.30124515331812
 51
37.698754846681929
  0
ARC
  5
2B2
  8
1
 62
     7
 10
130.35073893151051
 20
210.3505592228741
 30
0.0
 40
2.3507389315101732
 50
142.3012451533175
 51
217.69875484668239
  0
ARC
  5
2B3
  8
1
 62
     7
 10
136.66683413282431
 20
206.0380592228741
 30
0.0
 40
8.6668341328239684
 50
160.6265294576767
 51
199.37347054232319
  0
ARC
  5
2B4
  8
1
 62
     7
 10
130.35073893151051
 20
201.72555922287421
 30
0.0
 40
2.3507389315101732
 50
142.3012451533175
 51
217.69875484668239
  0
ARC
  5
2B5
  8
1
 62
     7
 10
247.14926106848961
 20
201.72555922287421
 30
0.0
 40
2.350738931510195
 50
322.30124515331812
 51
37.698754846681929
  0
ARC
  5
2B6
  8
1
 62
     7
 10
240.83316586717581
 20
206.0380592228741
 30
0.0
 40
8.6668341328240768
 50
340.6265294576769
 51
19.373470542323052
  0
ARC
  5
2B7
  8
1
 62
     7
 10
247.14926106848961
 20
210.3505592228741
 30
0.0
 40
2.350738931510195
 50
322.30124515331812
 51
37.698754846681929
  0
ARC
  5
2B8
  8
1
 62
     7
 10
454.0
 20
252.85249999999991
 30
0.0
 40
14.19750000000014
 50
304.87504015221941
 51
235.12495984778141
  0
ARC
  5
2B9
  8
1
 62
     7
 10
161.0000000000002
 20
181.99999999999989
 30
0.0
 40
3.9999999999999578
 50
30.00000000000033
 51
329.99999999999972
  0
ARC
  5
2BA
  8
1
 62
     7
 10
161.0000000000002
 20
182.99999999999989
 30
0.0
 40
1.0
 50
90.0
 51
270.0
  0
ARC
  5
2BB
  8
1
 62
     7
 10
161.0000000000002
 20
180.99999999999989
 30
0.0
 40
1.0
 50
90.0
 51
270.0
  0
ARC
  5
2BC
  8
1
 62
     7
 10
219.0
 20
181.99999999999989
 30
0.0
 40
3.9999999999998841
 50
210.00000000000091
 51
149.99999999999901
  0
ARC
  5
2BD
  8
1
 62
     7
 10
219.0
 20
182.99999999999989
 30
0.0
 40
1.0
 50
270.0
 51
90.0
  0
ARC
  5
2BE
  8
1
 62
     7
 10
219.0
 20
180.99999999999989
 30
0.0
 40
1.0
 50
270.0
 51
90.0
  0
ARC
  5
2BF
  8
1
 62
     7
 10
219.75000000000011
 20
197.24999999999989
 30
0.0
 40
1.48750000000001
 50
90.0
 51
180.0
  0
ARC
  5
2C0
  8
1
 62
     7
 10
219.75000000000011
 20
200.74999999999989
 30
0.0
 40
1.4875000000002101
 50
180.0
 51
270.0
  0
ARC
  5
2C1
  8
1
 62
     7
 10
216.25
 20
200.74999999999989
 30
0.0
 40
1.4874999999999821
 50
270.0
 51
0.0
  0
ARC
  5
2C2
  8
1
 62
     7
 10
216.25
 20
197.24999999999989
 30
0.0
 40
1.4874999999999821
 50
0.0
 51
90.0
  0
ARC
  5
2C3
  8
1
 62
     7
 10
163.75
 20
197.24999999999989
 30
0.0
 40
1.48750000000001
 50
90.0
 51
180.0
  0
ARC
  5
2C4
  8
1
 62
     7
 10
163.75
 20
200.74999999999989
 30
0.0
 40
1.4875000000002101
 50
180.0
 51
270.0
  0
ARC
  5
2C5
  8
1
 62
     7
 10
160.25
 20
200.74999999999989
 30
0.0
 40
1.4874999999999821
 50
270.0
 51
0.0
  0
ARC
  5
2C6
  8
1
 62
     7
 10
160.25
 20
197.24999999999989
 30
0.0
 40
1.4874999999999821
 50
0.0
 51
90.0
  0
ARC
  5
2C7
  8
1
 62
     7
 10
190.0
 20
198.99999999999989
 30
0.0
 40
3.6214060411255078
 50
286.02971425839633
 51
73.970285741603703
  0
ARC
  5
2C8
  8
1
 62
     7
 10
190.0
 20
198.99999999999989
 30
0.0
 40
3.6214060411255349
 50
106.0297142583962
 51
253.97028574160359
  0
ARC
  5
2C9
  8
1
  6
DASHED
 62
     7
 10
387.30000000000013
 20
198.99999999999989
 30
0.0
 40
7.0000000000000764
 50
163.0422366999947
 51
196.95776330000299
  0
ARC
  5
2CA
  8
1
 62
     7
 10
191.5
 20
210.338935969896
 30
0.0
 40
1.9999999999999709
 50
35.487970447890859
 51
90.0
  0
ARC
  5
2CB
  8
1
 62
     7
 10
188.5
 20
210.338935969896
 30
0.0
 40
2.0
 50
90.0
 51
144.5120295521109
  0
ARC
  5
2CC
  8
1
 62
     7
 10
454.0
 20
252.0
 30
0.0
 40
9.9999999999999272
 50
107.45760312372219
 51
72.542396876277763
  0
ARC
  5
2CD
  8
1
 62
     7
 10
454.0
 20
252.0
 30
0.0
 40
12.500000000000011
 50
103.88654036262891
 51
76.113459637371065
  0
CIRCLE
  5
2CE
  8
1
 62
     7
 10
107.4999999999999
 20
517.33283582089473
 30
0.0
 40
4.25
  0
CIRCLE
  5
2CF
  8
1
 62
     7
 10
272.5
 20
517.33283582089473
 30
0.0
 40
4.25
  0
CIRCLE
  5
2D0
  8
1
 62
     7
 10
107.4999999999999
 20
387.33283582089513
 30
0.0
 40
4.25
  0
CIRCLE
  5
2D1
  8
1
 62
     7
 10
272.5
 20
387.33283582089513
 30
0.0
 40
4.25
  0
CIRCLE
  5
2D2
  8
1
 62
     7
 10
408.03805922287438
 20
206.03805922287441
 30
0.0
 40
5.0
  0
CIRCLE
  5
2D3
  8
1
 62
     7
 10
408.03805922287438
 20
206.03805922287441
 30
0.0
 40
6.0
  0
CIRCLE
  5
2D4
  8
1
 62
     7
 10
408.03805922287449
 20
297.96194077712562
 30
0.0
 40
5.0
  0
CIRCLE
  5
2D5
  8
1
 62
     7
 10
408.03805922287449
 20
297.96194077712562
 30
0.0
 40
6.0
  0
CIRCLE
  5
2D6
  8
1
 62
     7
 10
499.96194077712551
 20
297.96194077712562
 30
0.0
 40
5.0
  0
CIRCLE
  5
2D7
  8
1
 62
     7
 10
499.96194077712551
 20
297.96194077712562
 30
0.0
 40
6.0
  0
CIRCLE
  5
2D8
  8
1
 62
     7
 10
499.96194077712551
 20
206.03805922287441
 30
0.0
 40
5.0
  0
CIRCLE
  5
2D9
  8
1
 62
     7
 10
499.96194077712551
 20
206.03805922287441
 30
0.0
 40
6.0
  0
CIRCLE
  5
2DA
  8
1
 62
     7
 10
454.0
 20
252.0
 30
0.0
 40
32.499999999999893
  0
CIRCLE
  5
2DB
  8
1
 62
     7
 10
454.0
 20
252.0
 30
0.0
 40
26.0
  0
CIRCLE
  5
2DC
  8
1
 62
     3
 10
454.0
 20
252.0
 30
0.0
 40
3.0
  0
CIRCLE
  5
2DD
  8
1
 62
     7
 10
454.0
 20
252.0
 30
0.0
 40
2.4000000000000901
  0
CIRCLE
  5
2DE
  8
1
 62
     7
 10
449.33333333333343
 20
237.87755128608401
 30
0.0
 40
1.0
  0
CIRCLE
  5
2DF
  8
1
 62
     7
 10
458.66666666666669
 20
237.87755128608401
 30
0.0
 40
1.0
  0
CIRCLE
  5
2E0
  8
1
 62
     7
 10
454.0
 20
252.0
 30
0.0
 40
46.999999999999893
  0
CIRCLE
  5
2E1
  8
1
 62
     7
 10
454.0
 20
252.0
 30
0.0
 40
54.999999999999893
  0
CIRCLE
  5
2E2
  8
1
 62
     7
 10
172.75
 20
205.24999999999989
 30
0.0
 40
1.60000000000008
  0
CIRCLE
  5
2E3
  8
1
 62
     7
 10
172.75
 20
205.24999999999989
 30
0.0
 40
2.442134781882372
  0
CIRCLE
  5
2E4
  8
1
 62
     7
 10
184.25
 20
205.24999999999989
 30
0.0
 40
1.600000000000023
  0
CIRCLE
  5
2E5
  8
1
 62
     7
 10
184.25
 20
205.24999999999989
 30
0.0
 40
2.442134781882316
  0
CIRCLE
  5
2E6
  8
1
 62
     7
 10
184.25
 20
192.74999999999989
 30
0.0
 40
1.600000000000023
  0
CIRCLE
  5
2E7
  8
1
 62
     7
 10
184.25
 20
192.74999999999989
 30
0.0
 40
2.442134781882316
  0
CIRCLE
  5
2E8
  8
1
 62
     7
 10
172.75
 20
192.74999999999989
 30
0.0
 40
1.60000000000008
  0
CIRCLE
  5
2E9
  8
1
 62
     7
 10
172.75
 20
192.74999999999989
 30
0.0
 40
2.442134781882372
  0
CIRCLE
  5
2EA
  8
1
 62
     7
 10
207.25
 20
205.24999999999989
 30
0.0
 40
1.600000000000023
  0
CIRCLE
  5
2EB
  8
1
 62
     7
 10
207.25
 20
205.24999999999989
 30
0.0
 40
2.442134781882316
  0
CIRCLE
  5
2EC
  8
1
 62
     7
 10
195.75
 20
205.24999999999989
 30
0.0
 40
1.60000000000008
  0
CIRCLE
  5
2ED
  8
1
 62
     7
 10
195.75
 20
205.24999999999989
 30
0.0
 40
2.442134781882372
  0
CIRCLE
  5
2EE
  8
1
 62
     7
 10
195.75
 20
192.74999999999989
 30
0.0
 40
1.60000000000008
  0
CIRCLE
  5
2EF
  8
1
 62
     7
 10
195.75
 20
192.74999999999989
 30
0.0
 40
2.442134781882372
  0
CIRCLE
  5
2F0
  8
1
 62
     7
 10
207.25
 20
192.74999999999989
 30
0.0
 40
1.600000000000023
  0
CIRCLE
  5
2F1
  8
1
 62
     7
 10
207.25
 20
192.74999999999989
 30
0.0
 40
2.442134781882316
  0
CIRCLE
  5
2F2
  8
1
 62
     7
 10
218.00000000000011
 20
198.99999999999989
 30
0.0
 40
2.75
  0
CIRCLE
  5
2F3
  8
1
 62
     7
 10
162.0
 20
198.99999999999989
 30
0.0
 40
2.75
  0
ARC
  5
2F4
  8
1
 62
     7
 10
135.00000000000031
 20
491.29477659802058
 30
0.0
 40
1.0
 50
0.0
 51
90.0
  0
ARC
  5
2F5
  8
1
 62
     7
 10
135.00000000000031
 20
505.29477659802058
 30
0.0
 40
1.0
 50
270.0
 51
0.0
  0
ARC
  5
2F6
  8
1
 62
     7
 10
135.00000000000031
 20
413.37089504376922
 30
0.0
 40
1.0
 50
270.0
 51
0.0
  0
ARC
  5
2F7
  8
1
 62
     7
 10
135.00000000000031
 20
399.37089504376922
 30
0.0
 40
1.0
 50
0.0
 51
90.0
  0
ARC
  5
2F8
  8
1
 62
     7
 10
244.99999999999989
 20
491.29477659802058
 30
0.0
 40
1.0
 50
90.0
 51
180.0
  0
ARC
  5
2F9
  8
1
 62
     7
 10
244.99999999999989
 20
505.29477659802058
 30
0.0
 40
1.0
 50
180.0
 51
270.0
  0
ARC
  5
2FA
  8
1
 62
     7
 10
244.99999999999989
 20
413.37089504376922
 30
0.0
 40
1.0
 50
180.0
 51
270.0
  0
ARC
  5
2FB
  8
1
 62
     7
 10
244.99999999999989
 20
399.37089504376922
 30
0.0
 40
1.0
 50
90.0
 51
180.0
  0
ARC
  5
2FC
  8
1
 62
     7
 10
138.0000000000004
 20
476.33283582089462
 30
0.0
 40
2.0000000000001701
 50
90.0
 51
180.0
  0
ARC
  5
2FD
  8
1
 62
     7
 10
134.0000000000002
 20
508.51359377422978
 30
0.0
 40
1.999999999999982
 50
298.8865817669116
 51
0.0
  0
ARC
  5
2FE
  8
1
 62
     7
 10
123.5
 20
498.15207786755963
 30
0.0
 40
1.9999999999997931
 50
118.8865817669117
 51
180.0
  0
ARC
  5
2FF
  8
1
 62
     7
 10
139.0000000000004
 20
526.33283582089416
 30
0.0
 40
3.0
 50
90.0
 51
180.0
  0
ARC
  5
300
  8
1
 62
     7
 10
118.5
 20
527.33283582089473
 30
0.0
 40
1.0
 50
270.0
 51
0.0
  0
ARC
  5
301
  8
1
 62
     7
 10
122.5
 20
521.21322257896372
 30
0.0
 40
3.0000000000000759
 50
87.838920511772727
 51
180.0
  0
ARC
  5
302
  8
1
 62
     7
 10
119.5000000000002
 20
486.83283582089462
 30
0.0
 40
2.0
 50
270.0
 51
0.0
  0
ARC
  5
303
  8
1
 62
     7
 10
92.5
 20
482.83283582089462
 30
0.0
 40
2.0
 50
90.0
 51
180.0
  0
ARC
  5
304
  8
1
 62
     7
 10
99.500000000000014
 20
525.33283582089473
 30
0.0
 40
5.0000000000001128
 50
90.0
 51
180.0
  0
ARC
  5
305
  8
1
 62
     7
 10
99.500000000000014
 20
495.33283582089462
 30
0.0
 40
5.0
 50
180.0
 51
270.0
  0
ARC
  5
306
  8
1
 62
     7
 10
150.5
 20
528.33283582089462
 30
0.0
 40
1.9999999999999041
 50
29.99999999998278
 51
90.0
  0
ARC
  5
307
  8
1
 62
     7
 10
229.49999999999989
 20
528.33283582089462
 30
0.0
 40
2.0
 50
90.0
 51
150.00000000001441
  0
ARC
  5
308
  8
1
 62
     7
 10
280.5
 20
495.33283582089467
 30
0.0
 40
5.0
 50
270.0
 51
0.0
  0
ARC
  5
309
  8
1
 62
     7
 10
280.5
 20
525.33283582089473
 30
0.0
 40
5.0
 50
0.0
 51
90.0
  0
ARC
  5
30A
  8
1
 62
     7
 10
287.5
 20
482.83283582089467
 30
0.0
 40
2.0
 50
0.0
 51
90.0
  0
ARC
  5
30B
  8
1
 62
     7
 10
260.49999999999977
 20
486.83283582089467
 30
0.0
 40
2.0
 50
180.0
 51
270.0
  0
ARC
  5
30C
  8
1
 62
     7
 10
257.5
 20
521.21322257896395
 30
0.0
 40
3.0
 50
0.0
 51
92.161079488227628
  0
ARC
  5
30D
  8
1
 62
     7
 10
261.5
 20
527.33283582089473
 30
0.0
 40
1.0
 50
180.0
 51
270.0
  0
ARC
  5
30E
  8
1
 62
     7
 10
240.99999999999949
 20
526.33283582089427
 30
0.0
 40
3.0
 50
0.0
 51
90.0
  0
ARC
  5
30F
  8
1
 62
     7
 10
256.49999999999989
 20
498.15207786755963
 30
0.0
 40
2.0
 50
0.0
 51
61.113418233090499
  0
ARC
  5
310
  8
1
 62
     7
 10
245.9999999999998
 20
508.51359377422989
 30
0.0
 40
2.0
 50
180.0
 51
241.11341823309081
  0
ARC
  5
311
  8
1
 62
     7
 10
241.99999999999949
 20
476.33283582089462
 30
0.0
 40
2.0
 50
0.0
 51
90.0
  0
ARC
  5
312
  8
1
 62
     7
 10
138.0000000000004
 20
428.33283582089518
 30
0.0
 40
2.0
 50
180.0
 51
270.0
  0
ARC
  5
313
  8
1
 62
     7
 10
138.0000000000004
 20
418.77664202497652
 30
0.0
 40
2.0
 50
180.0
 51
270.0
  0
ARC
  5
314
  8
1
 62
     7
 10
138.0000000000004
 20
410.52343121509728
 30
0.0
 40
2.0
 50
180.0
 51
270.0
  0
ARC
  5
315
  8
1
 62
     7
 10
138.0000000000004
 20
403.05670339370829
 30
0.0
 40
2.0
 50
180.0
 51
270.0
  0
ARC
  5
316
  8
1
 62
     7
 10
138.0000000000004
 20
396.32997875092042
 30
0.0
 40
2.0
 50
180.0
 51
270.0
  0
ARC
  5
317
  8
1
 62
     7
 10
138.0000000000004
 20
390.3287813323501
 30
0.0
 40
2.0
 50
180.0
 51
270.0
  0
ARC
  5
318
  8
1
 62
     7
 10
138.0000000000004
 20
385.06758709238181
 30
0.0
 40
2.0
 50
180.0
 51
270.0
  0
ARC
  5
319
  8
1
 62
     7
 10
138.0000000000004
 20
380.59287584090362
 30
0.0
 40
2.0
 50
180.0
 51
270.0
  0
ARC
  5
31A
  8
1
 62
     7
 10
134.0000000000002
 20
396.15207786755991
 30
0.0
 40
2.0
 50
0.0
 51
61.113418233090037
  0
ARC
  5
31B
  8
1
 62
     7
 10
123.5
 20
406.51359377423017
 30
0.0
 40
2.0
 50
180.0
 51
241.11341823308899
  0
ARC
  5
31C
  8
1
 62
     7
 10
139.0000000000004
 20
378.33283582089541
 30
0.0
 40
3.0
 50
180.0
 51
270.0
  0
ARC
  5
31D
  8
1
 62
     7
 10
118.5
 20
377.33283582089518
 30
0.0
 40
1.0
 50
0.0
 51
90.0
  0
ARC
  5
31E
  8
1
 62
     7
 10
122.5
 20
383.45244906282602
 30
0.0
 40
3.0
 50
180.0
 51
272.16107948822741
  0
ARC
  5
31F
  8
1
 62
     7
 10
119.5000000000002
 20
417.83283582089513
 30
0.0
 40
2.0
 50
0.0
 51
90.0
  0
ARC
  5
320
  8
1
 62
     7
 10
92.5
 20
421.83283582089513
 30
0.0
 40
2.0
 50
180.0
 51
270.0
  0
ARC
  5
321
  8
1
 62
     7
 10
99.500000000000014
 20
379.33283582089518
 30
0.0
 40
5.0
 50
180.0
 51
270.0
  0
ARC
  5
322
  8
1
 62
     7
 10
99.500000000000014
 20
409.33283582089513
 30
0.0
 40
5.0
 50
90.0
 51
180.0
  0
ARC
  5
323
  8
1
 62
     7
 10
150.5
 20
376.33283582089513
 30
0.0
 40
2.0
 50
270.0
 51
330.00000000001302
  0
ARC
  5
324
  8
1
 62
     7
 10
229.49999999999989
 20
376.33283582089513
 30
0.0
 40
1.9999999999999889
 50
209.9999999999869
 51
270.0
  0
ARC
  5
325
  8
1
 62
     7
 10
280.5
 20
409.33283582089513
 30
0.0
 40
5.0
 50
0.0
 51
90.0
  0
ARC
  5
326
  8
1
 62
     7
 10
280.5
 20
379.33283582089518
 30
0.0
 40
5.0
 50
270.0
 51
0.0
  0
ARC
  5
327
  8
1
 62
     7
 10
287.5
 20
421.83283582089513
 30
0.0
 40
2.0
 50
270.0
 51
0.0
  0
ARC
  5
328
  8
1
 62
     7
 10
260.49999999999977
 20
417.83283582089513
 30
0.0
 40
2.0
 50
90.0
 51
180.0
  0
ARC
  5
329
  8
1
 62
     7
 10
257.5
 20
383.45244906282602
 30
0.0
 40
2.9999999999999631
 50
267.83892051177241
 51
0.0
  0
ARC
  5
32A
  8
1
 62
     7
 10
261.5
 20
377.33283582089518
 30
0.0
 40
1.0
 50
90.0
 51
180.0
  0
ARC
  5
32B
  8
1
 62
     7
 10
240.99999999999949
 20
378.33283582089541
 30
0.0
 40
3.0
 50
270.0
 51
0.0
  0
ARC
  5
32C
  8
1
 62
     7
 10
256.49999999999989
 20
406.51359377423017
 30
0.0
 40
1.999999999999829
 50
298.8865817669103
 51
0.0
  0
ARC
  5
32D
  8
1
 62
     7
 10
245.9999999999998
 20
396.15207786755991
 30
0.0
 40
2.000000000000083
 50
118.88658176691
 51
180.0
  0
ARC
  5
32E
  8
1
 62
     7
 10
241.99999999999949
 20
380.59287584090362
 30
0.0
 40
2.0
 50
270.0
 51
0.0
  0
ARC
  5
32F
  8
1
 62
     7
 10
241.99999999999949
 20
385.06758709238181
 30
0.0
 40
2.0000000000001141
 50
270.0
 51
0.0
  0
ARC
  5
330
  8
1
 62
     7
 10
241.99999999999949
 20
390.3287813323501
 30
0.0
 40
2.0
 50
270.0
 51
0.0
  0
ARC
  5
331
  8
1
 62
     7
 10
241.99999999999949
 20
396.32997875092042
 30
0.0
 40
2.0
 50
270.0
 51
0.0
  0
ARC
  5
332
  8
1
 62
     7
 10
241.99999999999949
 20
403.05670339370829
 30
0.0
 40
2.0
 50
270.0
 51
0.0
  0
ARC
  5
333
  8
1
 62
     7
 10
241.99999999999949
 20
410.52343121509728
 30
0.0
 40
2.0
 50
270.0
 51
0.0
  0
ARC
  5
334
  8
1
 62
     7
 10
241.99999999999949
 20
418.77664202497652
 30
0.0
 40
2.0
 50
270.0
 51
0.0
  0
ARC
  5
335
  8
1
 62
     7
 10
241.99999999999949
 20
428.33283582089518
 30
0.0
 40
2.0000000000001701
 50
270.0
 51
0.0
  0
ARC
  5
336
  8
1
 62
     7
 10
135.00000000000031
 20
290.96194077712551
 30
0.0
 40
1.0
 50
0.0
 51
90.0
  0
ARC
  5
337
  8
1
 62
     7
 10
135.00000000000031
 20
304.96194077712551
 30
0.0
 40
1.0
 50
270.0
 51
0.0
  0
ARC
  5
338
  8
1
 62
     7
 10
138.0
 20
293.80940460579711
 30
0.0
 40
2.0000000000001141
 50
90.0
 51
180.0
  0
ARC
  5
339
  8
1
 62
     7
 10
138.0000000000002
 20
301.2761324271861
 30
0.0
 40
2.0
 50
90.0
 51
180.0
  0
ARC
  5
33A
  8
1
 62
     7
 10
244.99999999999989
 20
290.96194077712551
 30
0.0
 40
1.0
 50
90.0
 51
180.0
  0
ARC
  5
33B
  8
1
 62
     7
 10
244.99999999999989
 20
304.96194077712551
 30
0.0
 40
1.0
 50
180.0
 51
270.0
  0
ARC
  5
33C
  8
1
 62
     7
 10
518.73145737580433
 20
208.4817460597919
 30
0.0
 40
1.000000000000129
 50
45.000000000006899
 51
146.0874892109652
  0
ARC
  5
33D
  8
1
 62
     7
 10
516.98298774799332
 20
205.9875750004837
 30
0.0
 40
0.9999999999999784
 50
143.8498830984278
 51
225.00000000000691
  0
ARC
  5
33E
  8
1
 62
     7
 10
521.26524872851314
 20
210.1905953942024
 30
0.0
 40
1.9999999999999749
 50
225.0000000000081
 51
45.000000000008647
  0
ARC
  5
33F
  8
1
 62
     7
 10
527.99999999999989
 20
229.0
 30
0.0
 40
3.0
 50
270.0
 51
0.0
  0
ARC
  5
340
  8
1
 62
     7
 10
527.17786550590267
 20
225.0
 30
0.0
 40
1.0
 50
90.0
 51
159.74775325780769
  0
ARC
  5
341
  8
1
 62
     7
 10
526.12489168102741
 20
222.30151519016431
 30
0.0
 40
0.9999999999999939
 50
157.619864948041
 51
225.00000000001029
  0
ARC
  5
342
  8
1
 62
     7
 10
525.73995997999157
 20
218.4438062040816
 30
0.0
 40
2.0000000000000751
 50
225.00000000000631
 51
45.000000000010928
  0
ARC
  5
343
  8
1
 62
     7
 10
523.44912980208471
 20
216.4919956948689
 30
0.0
 40
0.9999999999999678
 50
45.000000000016122
 51
152.92021313939651
  0
ARC
  5
344
  8
1
 62
     7
 10
521.96703603379467
 20
213.73144877604
 30
0.0
 40
1.000000000000085
 50
150.61849827565391
 51
225.0000000000023
  0
ARC
  5
345
  8
1
 62
     7
 10
477.0
 20
178.0
 30
0.0
 40
3.0
 50
270.0
 51
0.0
  0
ARC
  5
346
  8
1
 62
     7
 10
481.0
 20
178.8221344940971
 30
0.0
 40
0.9999999999999731
 50
110.252246742186
 51
180.0
  0
ARC
  5
347
  8
1
 62
     7
 10
516.00405448854463
 20
202.72386757281339
 30
0.0
 40
1.9999999999999161
 50
225.00000000000631
 51
45.000000000006317
  0
ARC
  5
348
  8
1
 62
     7
 10
513.23354902658923
 20
201.25173234764929
 30
0.0
 40
1.0000000000000271
 50
45.00000000001036
 51
139.41172578576951
  0
ARC
  5
349
  8
1
 62
     7
 10
483.69848480983569
 20
179.87510831897251
 30
0.0
 40
1.0000000000000071
 50
44.999999999986187
 51
112.3801350519611
  0
ARC
  5
34A
  8
1
 62
     7
 10
511.2348395561811
 20
199.00780113093811
 30
0.0
 40
0.9999999999999392
 50
137.20422750397441
 51
225.0000000000035
  0
ARC
  5
34B
  8
1
 62
     7
 10
506.99219886906189
 20
194.76516044381879
 30
0.0
 40
0.9999999999999477
 50
45.000000000001151
 51
132.79577249602801
  0
ARC
  5
34C
  8
1
 62
     7
 10
503.27613242718661
 20
189.9959455114554
 30
0.0
 40
2.0000000000000959
 50
224.99999999999301
 51
44.999999999994827
  0
ARC
  5
34D
  8
1
 62
     7
 10
495.80940460579751
 20
184.7347512714868
 30
0.0
 40
2.0000000000000351
 50
224.9999999999913
 51
44.999999999992532
  0
ARC
  5
34E
  8
1
 62
     7
 10
487.55619379591832
 20
180.2600400200084
 30
0.0
 40
1.9999999999997951
 50
224.99999999999369
 51
44.999999999990223
  0
ARC
  5
34F
  8
1
 62
     7
 10
489.50800430513101
 20
182.55087019791529
 30
0.0
 40
1.000000000000133
 50
117.079786860607
 51
224.9999999999861
  0
ARC
  5
350
  8
1
 62
     7
 10
497.5182539402079
 20
187.26854262419559
 30
0.0
 40
1.000000000000111
 50
123.91251078903559
 51
224.99999999999079
  0
ARC
  5
351
  8
1
 62
     7
 10
492.26855122395978
 20
184.0329639662053
 30
0.0
 40
1.000000000000089
 50
44.999999999990777
 51
119.38150172435159
  0
ARC
  5
352
  8
1
 62
     7
 10
500.01242499951621
 20
189.01701225200659
 30
0.0
 40
0.9999999999998877
 50
44.999999999993094
 51
126.15011690157441
  0
ARC
  5
353
  8
1
 62
     7
 10
504.74826765235071
 20
192.76645097341071
 30
0.0
 40
0.9999999999998263
 50
130.58827421422569
 51
224.9999999999919
  0
ARC
  5
354
  8
1
 62
     7
 10
380.00000000000011
 20
229.0
 30
0.0
 40
3.0
 50
180.0
 51
270.0
  0
ARC
  5
355
  8
1
 62
     7
 10
380.82213449409721
 20
225.0
 30
0.0
 40
1.00000000000003
 50
20.252246742190081
 51
90.0
  0
ARC
  5
356
  8
1
 62
     7
 10
431.0
 20
178.0
 30
0.0
 40
3.0
 50
180.0
 51
270.0
  0
ARC
  5
357
  8
1
 62
     7
 10
427.0
 20
178.8221344940971
 30
0.0
 40
1.0
 50
0.0
 51
69.747753257813926
  0
ARC
  5
358
  8
1
 62
     7
 10
381.87510831897242
 20
222.30151519016431
 30
0.0
 40
1.0000000000000271
 50
314.99999999998971
 51
22.380135051958959
  0
ARC
  5
359
  8
1
 62
     7
 10
382.26004002000832
 20
218.4438062040816
 30
0.0
 40
1.9999999999997149
 50
134.99999999998789
 51
314.99999999999358
  0
ARC
  5
35A
  8
1
 62
     7
 10
384.55087019791529
 20
216.4919956948689
 30
0.0
 40
1.000000000000157
 50
27.079786860606401
 51
134.9999999999815
  0
ARC
  5
35B
  8
1
 62
     7
 10
386.03296396620522
 20
213.73144877604
 30
0.0
 40
1.0000000000002089
 50
314.99999999999761
 51
29.381501724344542
  0
ARC
  5
35C
  8
1
 62
     7
 10
386.73475127148691
 20
210.1905953942024
 30
0.0
 40
2.0000000000000351
 50
134.9999999999925
 51
314.99999999998971
  0
ARC
  5
35D
  8
1
 62
     7
 10
389.26854262419567
 20
208.4817460597919
 30
0.0
 40
1.000000000000135
 50
33.912510789034783
 51
134.99999999999309
  0
ARC
  5
35E
  8
1
 62
     7
 10
391.01701225200662
 20
205.9875750004837
 30
0.0
 40
0.999999999999968
 50
314.99999999999312
 51
36.150116901572218
  0
ARC
  5
35F
  8
1
 62
     7
 10
391.99594551145537
 20
202.72386757281339
 30
0.0
 40
2.0000000000000751
 50
134.99999999999369
 51
314.99999999999483
  0
ARC
  5
360
  8
1
 62
     7
 10
394.76645097341071
 20
201.25173234764929
 30
0.0
 40
0.9999999999999031
 50
40.588274214228377
 51
134.99999999999201
  0
ARC
  5
361
  8
1
 62
     7
 10
424.30151519016431
 20
179.87510831897251
 30
0.0
 40
0.9999999999999785
 50
67.619864948038924
 51
135.0000000000137
  0
ARC
  5
362
  8
1
 62
     7
 10
396.76516044381879
 20
199.00780113093811
 30
0.0
 40
0.9999999999999879
 50
314.99999999999642
 51
42.795772496025599
  0
ARC
  5
363
  8
1
 62
     7
 10
401.00780113093811
 20
194.76516044381879
 30
0.0
 40
0.9999999999999406
 50
47.204227503976703
 51
135.0000000000035
  0
ARC
  5
364
  8
1
 62
     7
 10
404.72386757281328
 20
189.9959455114554
 30
0.0
 40
1.9999999999999161
 50
135.0000000000052
 51
315.00000000000682
  0
ARC
  5
365
  8
1
 62
     7
 10
412.19059539420238
 20
184.7347512714868
 30
0.0
 40
1.9999999999999949
 50
135.0000000000075
 51
315.00000000000858
  0
ARC
  5
366
  8
1
 62
     7
 10
420.44380620408162
 20
180.2600400200084
 30
0.0
 40
2.0000000000000351
 50
135.00000000000861
 51
315.00000000000739
  0
ARC
  5
367
  8
1
 62
     7
 10
418.49199569486888
 20
182.55087019791529
 30
0.0
 40
1.0000000000000071
 50
315.00000000001381
 51
62.920213139392871
  0
ARC
  5
368
  8
1
 62
     7
 10
410.48174605979199
 20
187.26854262419559
 30
0.0
 40
1.000000000000089
 50
315.00000000000921
 51
56.087489210964307
  0
ARC
  5
369
  8
1
 62
     7
 10
415.73144877604011
 20
184.0329639662053
 30
0.0
 40
0.999999999999919
 50
60.618498275654098
 51
135.00000000000921
  0
ARC
  5
36A
  8
1
 62
     7
 10
407.98757500048367
 20
189.01701225200659
 30
0.0
 40
0.9999999999999722
 50
53.849883098425508
 51
135.00000000000691
  0
ARC
  5
36B
  8
1
 62
     7
 10
403.25173234764929
 20
192.76645097341071
 30
0.0
 40
1.000000000000109
 50
315.00000000000807
 51
49.41172578576932
  0
ARC
  5
36C
  8
1
 62
     7
 10
380.00000000000011
 20
275.0
 30
0.0
 40
3.0
 50
90.0
 51
180.0
  0
ARC
  5
36D
  8
1
 62
     7
 10
380.82213449409721
 20
279.0
 30
0.0
 40
1.0
 50
270.0
 51
339.74775325780831
  0
ARC
  5
36E
  8
1
 62
     7
 10
431.0
 20
325.99999999999977
 30
0.0
 40
3.0
 50
90.0
 51
180.0
  0
ARC
  5
36F
  8
1
 62
     7
 10
427.0
 20
325.17786550590279
 30
0.0
 40
1.0
 50
290.2522467421856
 51
0.0
  0
ARC
  5
370
  8
1
 62
     7
 10
381.87510831897242
 20
281.69848480983569
 30
0.0
 40
1.0000000000000051
 50
337.61986494803961
 51
45.000000000011511
  0
ARC
  5
371
  8
1
 62
     7
 10
382.26004002000832
 20
285.55619379591832
 30
0.0
 40
2.0000000000000959
 50
45.000000000006899
 51
225.00000000001151
  0
ARC
  5
372
  8
1
 62
     7
 10
384.55087019791529
 20
287.50800430513101
 30
0.0
 40
0.9999999999999275
 50
225.00000000001839
 51
332.92021313939358
  0
ARC
  5
373
  8
1
 62
     7
 10
386.03296396620522
 20
290.26855122395989
 30
0.0
 40
1.000000000000147
 50
330.61849827565402
 51
45.000000000002302
  0
ARC
  5
374
  8
1
 62
     7
 10
386.73475127148691
 20
293.80940460579751
 30
0.0
 40
1.9999999999998961
 50
45.00000000001036
 51
225.0000000000081
  0
ARC
  5
375
  8
1
 62
     7
 10
389.26854262419567
 20
295.51825394020801
 30
0.0
 40
1.000000000000129
 50
225.00000000000691
 51
326.0874892109652
  0
ARC
  5
376
  8
1
 62
     7
 10
391.01701225200662
 20
298.01242499951621
 30
0.0
 40
0.9999999999999952
 50
323.84988309842629
 51
45.000000000004597
  0
ARC
  5
377
  8
1
 62
     7
 10
391.99594551145537
 20
301.27613242718661
 30
0.0
 40
1.9999999999999349
 50
45.000000000004597
 51
225.00000000000691
  0
ARC
  5
378
  8
1
 62
     7
 10
394.76645097341071
 20
302.74826765235059
 30
0.0
 40
1.000000000000089
 50
225.00000000000909
 51
319.41172578577027
  0
ARC
  5
379
  8
1
 62
     7
 10
424.30151519016431
 20
324.12489168102741
 30
0.0
 40
1.0000000000000471
 50
224.99999999998849
 51
292.38013505196051
  0
ARC
  5
37A
  8
1
 62
     7
 10
396.76516044381879
 20
304.99219886906178
 30
0.0
 40
0.9999999999999197
 50
317.20422750397557
 51
45.000000000004597
  0
ARC
  5
37B
  8
1
 62
     7
 10
401.00780113093811
 20
309.2348395561811
 30
0.0
 40
1.0000000000000071
 50
224.99999999999531
 51
312.79577249602431
  0
ARC
  5
37C
  8
1
 62
     7
 10
404.72386757281328
 20
314.00405448854463
 30
0.0
 40
2.0000000000000959
 50
44.999999999993094
 51
224.99999999999531
  0
ARC
  5
37D
  8
1
 62
     7
 10
412.19059539420238
 20
319.2652487285132
 30
0.0
 40
2.0000000000000151
 50
44.999999999990777
 51
224.9999999999919
  0
ARC
  5
37E
  8
1
 62
     7
 10
420.44380620408162
 20
323.73995997999162
 30
0.0
 40
1.999999999999815
 50
44.999999999991942
 51
224.9999999999919
  0
ARC
  5
37F
  8
1
 62
     7
 10
418.49199569486888
 20
321.44912980208471
 30
0.0
 40
1.000000000000157
 50
297.0797868606063
 51
44.999999999986187
  0
ARC
  5
380
  8
1
 62
     7
 10
410.48174605979199
 20
316.73145737580433
 30
0.0
 40
1.000000000000135
 50
303.9125107890348
 51
44.999999999990777
  0
ARC
  5
381
  8
1
 62
     7
 10
415.73144877604011
 20
319.96703603379461
 30
0.0
 40
1.000000000000129
 50
224.99999999999301
 51
299.38150172434513
  0
ARC
  5
382
  8
1
 62
     7
 10
407.98757500048367
 20
314.98298774799332
 30
0.0
 40
0.9999999999999275
 50
224.99999999999531
 51
306.1501169015736
  0
ARC
  5
383
  8
1
 62
     7
 10
403.25173234764929
 20
311.23354902658929
 30
0.0
 40
0.9999999999999216
 50
310.58827421422961
 51
44.999999999990777
  0
ARC
  5
384
  8
1
 62
     7
 10
518.73145737580433
 20
295.51825394020801
 30
0.0
 40
1.000000000000135
 50
213.9125107890348
 51
314.99999999999312
  0
ARC
  5
385
  8
1
 62
     7
 10
516.98298774799332
 20
298.01242499951621
 30
0.0
 40
0.9999999999999275
 50
134.99999999999531
 51
216.15011690157351
  0
ARC
  5
386
  8
1
 62
     7
 10
521.26524872851314
 20
293.80940460579751
 30
0.0
 40
2.0000000000000151
 50
314.99999999999068
 51
134.99999999999201
  0
ARC
  5
387
  8
1
 62
     7
 10
527.99999999999989
 20
275.0
 30
0.0
 40
3.0
 50
0.0
 51
90.0
  0
ARC
  5
388
  8
1
 62
     7
 10
527.17786550590267
 20
279.0
 30
0.0
 40
0.9999999999999326
 50
200.2522467421939
 51
270.0
  0
ARC
  5
389
  8
1
 62
     7
 10
526.12489168102741
 20
281.69848480983569
 30
0.0
 40
1.0000000000000471
 50
134.9999999999884
 51
202.38013505196039
  0
ARC
  5
38A
  8
1
 62
     7
 10
525.73995997999157
 20
285.55619379591832
 30
0.0
 40
1.9999999999997351
 50
314.99999999998971
 51
134.99999999999309
  0
ARC
  5
38B
  8
1
 62
     7
 10
523.44912980208471
 20
287.50800430513101
 30
0.0
 40
1.000000000000258
 50
207.07978686060329
 51
314.9999999999838
  0
ARC
  5
38C
  8
1
 62
     7
 10
521.96703603379467
 20
290.26855122395989
 30
0.0
 40
1.0000000000002089
 50
134.99999999999761
 51
209.38150172434749
  0
ARC
  5
38D
  8
1
 62
     7
 10
477.0
 20
325.99999999999977
 30
0.0
 40
3.0
 50
0.0
 51
90.0
  0
ARC
  5
38E
  8
1
 62
     7
 10
481.0
 20
325.17786550590279
 30
0.0
 40
1.0
 50
180.0
 51
249.7477532578144
  0
ARC
  5
38F
  8
1
 62
     7
 10
516.00405448854463
 20
301.27613242718661
 30
0.0
 40
2.0000000000000959
 50
314.99999999999312
 51
134.9999999999942
  0
ARC
  5
390
  8
1
 62
     7
 10
513.23354902658923
 20
302.74826765235059
 30
0.0
 40
0.9999999999998784
 50
220.5882742142318
 51
314.99999999998852
  0
ARC
  5
391
  8
1
 62
     7
 10
483.69848480983569
 20
324.12489168102741
 30
0.0
 40
1.0000000000000051
 50
247.61986494803949
 51
315.00000000001143
  0
ARC
  5
392
  8
1
 62
     7
 10
511.2348395561811
 20
304.99219886906178
 30
0.0
 40
1.0000000000000071
 50
134.99999999999531
 51
222.7957724960244
  0
ARC
  5
393
  8
1
 62
     7
 10
506.99219886906189
 20
309.2348395561811
 30
0.0
 40
0.9999999999999968
 50
227.20422750397071
 51
315.0
  0
ARC
  5
394
  8
1
 62
     7
 10
503.27613242718661
 20
314.00405448854463
 30
0.0
 40
1.9999999999999349
 50
315.0000000000046
 51
135.00000000000691
  0
ARC
  5
395
  8
1
 62
     7
 10
495.80940460579751
 20
319.2652487285132
 30
0.0
 40
1.9999999999999749
 50
315.00000000000807
 51
135.00000000000921
  0
ARC
  5
396
  8
1
 62
     7
 10
487.55619379591832
 20
323.73995997999162
 30
0.0
 40
2.0000000000000959
 50
315.00000000000921
 51
135.00000000000691
  0
ARC
  5
397
  8
1
 62
     7
 10
489.50800430513101
 20
321.44912980208471
 30
0.0
 40
1.0000000000000071
 50
135.0000000000137
 51
242.9202131393935
  0
ARC
  5
398
  8
1
 62
     7
 10
497.5182539402079
 20
316.73145737580433
 30
0.0
 40
1.000000000000089
 50
135.00000000000921
 51
236.0874892109652
  0
ARC
  5
399
  8
1
 62
     7
 10
492.26855122395978
 20
319.96703603379461
 30
0.0
 40
0.9999999999999992
 50
240.6184982756491
 51
315.00000000000682
  0
ARC
  5
39A
  8
1
 62
     7
 10
500.01242499951621
 20
314.98298774799332
 30
0.0
 40
0.9999999999999952
 50
233.8498830984264
 51
315.0000000000046
  0
ARC
  5
39B
  8
1
 62
     7
 10
504.74826765235071
 20
311.23354902658929
 30
0.0
 40
1.000000000000089
 50
135.00000000000921
 51
229.4117257857753
  0
ARC
  5
39C
  8
1
 62
     7
 10
155.5
 20
171.99999999999989
 30
0.0
 40
3.0
 50
90.0
 51
180.0
  0
ARC
  5
39D
  8
1
 62
     7
 10
224.5
 20
171.99999999999989
 30
0.0
 40
3.0
 50
0.0
 51
90.0
  0
ARC
  5
39E
  8
1
 62
     7
 10
135.00000000000031
 20
213.0380592228741
 30
0.0
 40
1.0
 50
270.0
 51
0.0
  0
ARC
  5
39F
  8
1
 62
     7
 10
135.00000000000031
 20
199.0380592228741
 30
0.0
 40
1.0
 50
0.0
 51
90.0
  0
ARC
  5
3A0
  8
1
 62
     7
 10
244.99999999999989
 20
213.0380592228741
 30
0.0
 40
1.0
 50
180.0
 51
270.0
  0
ARC
  5
3A1
  8
1
 62
     7
 10
244.99999999999989
 20
199.0380592228741
 30
0.0
 40
1.0
 50
90.0
 51
180.0
  0
ARC
  5
3A2
  8
1
 62
     7
 10
96.5
 20
181.99999999999989
 30
0.0
 40
2.0
 50
90.0
 51
180.0
  0
ARC
  5
3A3
  8
1
 62
     7
 10
155.5
 20
211.0000000000002
 30
0.0
 40
3.0
 50
90.0
 51
180.0
  0
ARC
  5
3A4
  8
1
 62
     7
 10
224.5
 20
211.0000000000002
 30
0.0
 40
3.0
 50
0.0
 51
90.0
  0
ARC
  5
3A5
  8
1
 62
     7
 10
138.0
 20
326.99999999999989
 30
0.0
 40
2.0
 50
90.0
 51
180.0
  0
ARC
  5
3A6
  8
1
 62
     7
 10
241.99999999999989
 20
326.99999999999977
 30
0.0
 40
2.0
 50
0.0
 51
90.0
  0
ARC
  5
3A7
  8
1
 62
     7
 10
444.16666666666669
 20
238.74365306605239
 30
0.0
 40
3.0
 50
0.0
 51
55.124959847781021
  0
ARC
  5
3A8
  8
1
 62
     7
 10
463.83333333333343
 20
238.74365306605239
 30
0.0
 40
2.9999999999999951
 50
124.87504015221801
 51
180.0
  0
ARC
  5
3A9
  8
1
 62
     7
 10
449.16666666666669
 20
238.0025512860839
 30
0.0
 40
2.0
 50
180.0
 51
270.0
  0
ARC
  5
3AA
  8
1
 62
     7
 10
458.83333333333343
 20
238.0025512860839
 30
0.0
 40
2.0
 50
270.0
 51
0.0
  0
ARC
  5
3AB
  8
1
 62
     7
 10
529.0
 20
180.99999999999989
 30
0.0
 40
3.0
 50
0.0
 51
90.0
  0
ARC
  5
3AC
  8
1
 62
     7
 10
379.0
 20
180.99999999999989
 30
0.0
 40
3.0
 50
90.0
 51
180.0
  0
ARC
  5
3AD
  8
1
 62
     7
 10
489.0
 20
172.0
 30
0.0
 40
3.0
 50
0.0
 51
90.0
  0
ARC
  5
3AE
  8
1
 62
     7
 10
419.0
 20
171.99999999999989
 30
0.0
 40
3.0
 50
90.0
 51
180.0
  0
ARC
  5
3AF
  8
1
 62
     7
 10
155.5
 20
230.9999999999996
 30
0.0
 40
2.999999999999801
 50
90.0
 51
180.0
  0
ARC
  5
3B0
  8
1
 62
     7
 10
224.5
 20
230.9999999999996
 30
0.0
 40
3.0
 50
0.0
 51
90.0
  0
ARC
  5
3B1
  8
1
 62
     7
 10
414.0
 20
173.84529946162061
 30
0.0
 40
2.0
 50
0.0
 51
59.999999999999069
  0
ARC
  5
3B2
  8
1
 62
     7
 10
399.07179676972459
 20
178.99999999999989
 30
0.0
 40
5.000000000000016
 50
60.000000000000099
 51
90.0
  0
ARC
  5
3B3
  8
1
 62
     7
 10
495.0
 20
173.26794919243099
 30
0.0
 40
3.0
 50
119.9999999999999
 51
180.0
  0
ARC
  5
3B4
  8
1
 62
     7
 10
508.92820323027581
 20
178.99999999999989
 30
0.0
 40
5.0
 50
90.0
 51
119.9999999999999
  0
ARC
  5
3B5
  8
1
 62
     7
 10
522.56153680770558
 20
198.99999999999989
 30
0.0
 40
3.0000000000000129
 50
1.389779215157769
 51
90.0
  0
ARC
  5
3B6
  8
1
 62
     7
 10
522.85266858529644
 20
186.99999999999989
 30
0.0
 40
3.0
 50
270.0
 51
1.389779215157769
  0
ARC
  5
3B7
  8
1
 62
     7
 10
385.43846319229431
 20
198.99999999999989
 30
0.0
 40
3.0
 50
90.0
 51
178.61022078484231
  0
ARC
  5
3B8
  8
1
 62
     7
 10
385.14733141470379
 20
186.99999999999989
 30
0.0
 40
3.0000000000000129
 50
178.6102207848422
 51
270.0
  0
ARC
  5
3B9
  8
1
 62
     7
 10
241.99999999999989
 20
228.0
 30
0.0
 40
2.0
 50
270.0
 51
0.0
  0
ARC
  5
3BA
  8
1
 62
     7
 10
235.9999999999998
 20
224.0
 30
0.0
 40
2.0
 50
90.0
 51
180.0
  0
ARC
  5
3BB
  8
1
 62
     7
 10
283.49999999999989
 20
181.99999999999989
 30
0.0
 40
2.0
 50
0.0
 51
90.0
  0
ARC
  5
3BC
  8
1
 62
     7
 10
261.42252282654709
 20
186.99999999999989
 30
0.0
 40
2.9999999999999458
 50
235.81387751362399
 51
270.0
  0
ARC
  5
3BD
  8
1
 62
     7
 10
236.99999999999989
 20
203.58888342935259
 30
0.0
 40
3.0
 50
180.0
 51
235.81387751362541
  0
ARC
  5
3BE
  8
1
 62
     7
 10
118.5774771734532
 20
186.99999999999989
 30
0.0
 40
3.0
 50
270.0
 51
304.18612248637561
  0
ARC
  5
3BF
  8
1
  6
DASHED
 62
     7
 10
385.0
 20
213.2294297033562
 30
0.0
 40
3.0
 50
0.0
 51
28.810793742973011
  0
ARC
  5
3C0
  8
1
  6
DASHED
 62
     7
 10
522.99999999999977
 20
213.2294297033562
 30
0.0
 40
3.000000000000028
 50
151.18920625702651
 51
180.0
  0
ARC
  5
3C1
  8
1
 62
     7
 10
260.49999999999989
 20
286.49999999999977
 30
0.0
 40
2.0
 50
180.0
 51
270.0
  0
ARC
  5
3C2
  8
1
 62
     7
 10
256.5
 20
297.81924204666461
 30
0.0
 40
2.0
 50
0.0
 51
61.113418233091323
  0
ARC
  5
3C3
  8
1
 62
     7
 10
245.99999999999989
 20
308.18075795333499
 30
0.0
 40
2.0
 50
180.0
 51
241.11341823308931
  0
ARC
  5
3C4
  8
1
 62
     7
 10
245.99999999999989
 20
195.81924204666481
 30
0.0
 40
2.0000000000000071
 50
118.88658176691121
 51
180.0
  0
ARC
  5
3C5
  8
1
 62
     7
 10
256.5
 20
206.18075795333499
 30
0.0
 40
1.9999999999999529
 50
298.88658176690831
 51
0.0
  0
ARC
  5
3C6
  8
1
 62
     7
 10
260.49999999999989
 20
217.49999999999989
 30
0.0
 40
2.0
 50
90.0
 51
180.0
  0
ARC
  5
3C7
  8
1
 62
     7
 10
134.00000000000031
 20
195.81924204666481
 30
0.0
 40
2.0
 50
0.0
 51
61.113418233088872
  0
ARC
  5
3C8
  8
1
 62
     7
 10
123.5000000000002
 20
206.18075795333499
 30
0.0
 40
2.0
 50
180.0
 51
241.1134182330884
  0
ARC
  5
3C9
  8
1
 62
     7
 10
119.5000000000002
 20
217.49999999999989
 30
0.0
 40
2.0
 50
0.0
 51
90.0
  0
ARC
  5
3CA
  8
1
 62
     7
 10
134.00000000000031
 20
308.18075795333499
 30
0.0
 40
2.000000000000032
 50
298.88658176691081
 51
0.0
  0
ARC
  5
3CB
  8
1
 62
     7
 10
119.5000000000002
 20
286.49999999999977
 30
0.0
 40
2.0
 50
270.0
 51
0.0
  0
ARC
  5
3CC
  8
1
 62
     7
 10
123.5000000000002
 20
297.81924204666461
 30
0.0
 40
1.9999999999999909
 50
118.8865817669119
 51
180.0
  0
ARC
  5
3CD
  8
1
 62
     7
 10
138.0000000000002
 20
228.0
 30
0.0
 40
2.0
 50
180.0
 51
270.0
  0
ARC
  5
3CE
  8
1
 62
     7
 10
144.00000000000011
 20
224.0
 30
0.0
 40
2.0
 50
0.0
 51
90.0
  0
ARC
  5
3CF
  8
1
 62
     7
 10
143.00000000000011
 20
203.58888342935259
 30
0.0
 40
3.0000000000000631
 50
304.18612248637629
 51
0.0
  0
ARC
  5
3D0
  8
1
 62
     7
 10
287.5
 20
282.49999999999977
 30
0.0
 40
2.0
 50
0.0
 51
90.0
  0
ARC
  5
3D1
  8
1
 62
     7
 10
287.5
 20
221.49999999999989
 30
0.0
 40
2.0
 50
270.0
 51
0.0
  0
ARC
  5
3D2
  8
1
 62
     7
 10
92.5
 20
221.49999999999989
 30
0.0
 40
2.0
 50
180.0
 51
270.0
  0
ARC
  5
3D3
  8
1
 62
     7
 10
92.5
 20
282.49999999999977
 30
0.0
 40
2.0
 50
90.0
 51
180.0
  0
ARC
  5
3D4
  8
1
 62
     7
 10
181.25000043285141
 20
183.99999999999989
 30
0.0
 40
4.0
 50
270.0
 51
0.0
  0
ARC
  5
3D5
  8
1
 62
     7
 10
169.7499998016954
 20
185.99999999999989
 30
0.0
 40
4.0
 50
270.0
 51
0.0
  0
ARC
  5
3D6
  8
1
 62
     7
 10
181.25000043285141
 20
183.99999999999989
 30
0.0
 40
2.0
 50
270.0
 51
0.0
  0
ARC
  5
3D7
  8
1
 62
     7
 10
169.7499998016954
 20
185.99999999999989
 30
0.0
 40
2.0
 50
270.0
 51
0.0
  0
ARC
  5
3D8
  8
1
 62
     7
 10
198.7499995671489
 20
183.99999999999989
 30
0.0
 40
4.0
 50
180.0
 51
270.0
  0
ARC
  5
3D9
  8
1
 62
     7
 10
210.2500001983048
 20
185.99999999999989
 30
0.0
 40
4.0000000000000853
 50
180.0
 51
270.0
  0
ARC
  5
3DA
  8
1
 62
     7
 10
198.7499995671489
 20
183.99999999999989
 30
0.0
 40
2.0
 50
180.0
 51
270.0
  0
ARC
  5
3DB
  8
1
 62
     7
 10
210.2500001983048
 20
185.99999999999989
 30
0.0
 40
2.0
 50
180.0
 51
270.0
  0
ARC
  5
3DC
  8
1
 62
     7
 10
369.0
 20
187.49999999999989
 30
0.0
 40
1.0
 50
180.0
 51
270.0
  0
ARC
  5
3DD
  8
1
 62
     7
 10
369.0
 20
210.49999999999989
 30
0.0
 40
1.0
 50
90.0
 51
180.0
  0
ARC
  5
3DE
  8
1
 62
     7
 10
178.5
 20
206.49999999999989
 30
0.0
 40
1.0
 50
0.0
 51
180.0
  0
ARC
  5
3DF
  8
1
 62
     7
 10
178.5
 20
191.49999999999989
 30
0.0
 40
1.0
 50
180.0
 51
0.0
  0
ARC
  5
3E0
  8
1
 62
     7
 10
169.0
 20
209.49999999999989
 30
0.0
 40
2.0
 50
90.0
 51
180.0
  0
ARC
  5
3E1
  8
1
 62
     7
 10
169.0
 20
188.49999999999989
 30
0.0
 40
2.0
 50
180.0
 51
270.0
  0
ARC
  5
3E2
  8
1
 62
     7
 10
160.0
 20
198.99999999999989
 30
0.0
 40
3.000000000000079
 50
136.3971810272966
 51
223.60281897270301
  0
ARC
  5
3E3
  8
1
 62
     7
 10
201.50000000000011
 20
206.49999999999989
 30
0.0
 40
1.0
 50
0.0
 51
180.0
  0
ARC
  5
3E4
  8
1
 62
     7
 10
201.50000000000011
 20
191.49999999999989
 30
0.0
 40
1.0
 50
180.0
 51
0.0
  0
ARC
  5
3E5
  8
1
 62
     7
 10
211.0
 20
209.49999999999989
 30
0.0
 40
2.0
 50
0.0
 51
90.0
  0
ARC
  5
3E6
  8
1
 62
     7
 10
211.0
 20
188.49999999999989
 30
0.0
 40
2.0
 50
270.0
 51
0.0
  0
ARC
  5
3E7
  8
1
 62
     7
 10
220.00000000000011
 20
198.99999999999989
 30
0.0
 40
2.9999999999999569
 50
316.39718102729512
 51
43.602818972705222
  0
ARC
  5
3E8
  8
1
 62
     7
 10
190.0
 20
206.49999999999989
 30
0.0
 40
1.0
 50
0.0
 51
180.0
  0
ARC
  5
3E9
  8
1
 62
     7
 10
190.0
 20
191.49999999999989
 30
0.0
 40
1.0
 50
180.0
 51
0.0
  0
ARC
  5
3EA
  8
1
  6
DASHED
 62
     7
 10
381.56087985837542
 20
200.74999999999989
 30
0.0
 40
1.0
 50
90.0
 51
163.04223669998399
  0
ARC
  5
3EB
  8
1
  6
DASHED
 62
     7
 10
381.56087985837542
 20
197.24999999999989
 30
0.0
 40
1.0000000000000231
 50
196.95776329999981
 51
270.0
  0
ARC
  5
3EC
  8
1
  6
DASHED
 62
     7
 10
382.0
 20
201.4499999999999
 30
0.0
 40
0.3000000000001819
 50
0.0
 51
90.0
  0
ARC
  5
3ED
  8
1
  6
DASHED
 62
     7
 10
382.0
 20
196.5499999999999
 30
0.0
 40
0.3000000000000114
 50
270.0
 51
0.0
  0
ARC
  5
3EE
  8
1
  6
DASHED
 62
     7
 10
381.0
 20
202.00648467481611
 30
0.0
 40
2.0
 50
0.0
 51
90.0
  0
ARC
  5
3EF
  8
1
  6
DASHED
 62
     7
 10
381.0
 20
195.99351532518381
 30
0.0
 40
2.0
 50
270.0
 51
0.0
  0
ARC
  5
3F0
  8
1
 62
     7
 10
212.0
 20
367.33283582089501
 30
0.0
 40
1.0
 50
270.0
 51
0.0
  0
ARC
  5
3F1
  8
1
 62
     7
 10
168.0
 20
367.33283582089501
 30
0.0
 40
1.0
 50
180.0
 51
270.0
  0
TEXT
  5
3F2
  8
1
 62
     7
 10
30.000724208349979
 20
278.56572395623192
 30
0.0
 40
7.0
  1
OUTPUT
 41
0.9
  7
SIMPLEX
  0
TEXT
  5
3F3
  8
1
 62
     7
 10
318.43822420834999
 20
278.56572395623192
 30
0.0
 40
7.0
  1
INPUT
 41
0.9
  7
SIMPLEX
  0
TEXT
  5
3F4
  8
1
 62
     7
 10
422.17983687978989
 20
460.93283582089498
 30
0.0
 40
8.0
  1
VSAU 2.5
 41
0.9
  7
SIMPLEX
  0
ENDSEC
  0
EOF
