  0
SECTION
  2
HEADER
  9
$ACADVER
  1
AC1009
  9
$INSBASE
 10
0.0
 20
0.0
 30
0.0
  9
$EXTMIN
 10
-279.92987634020471
 20
-50.0
 30
0.0
  9
$EXTMAX
 10
226.85177851339719
 20
135.2511037647055
 30
0.0
  9
$LIMMIN
 10
-279.92987634020483
 20
-50.0
  9
$LIMMAX
 10
226.85177851339719
 20
135.2511037647055
  9
$ORTHOMODE
 70
     0
  9
$REGENMODE
 70
     1
  9
$FILLMODE
 70
     1
  9
$QTEXTMODE
 70
     0
  9
$MIRRTEXT
 70
     1
  9
$DRAGMODE
 70
     2
  9
$LTSCALE
 40
1.0
  9
$OSMODE
 70
    37
  9
$ATTMODE
 70
     1
  9
$TEXTSIZE
 40
3.5
  9
$TRACEWID
 40
0.5
  9
$TEXTSTYLE
  7
STANDARD
  9
$CLAYER
  8
0
  9
$CELTYPE
  6
BYLAYER
  9
$CECOLOR
 62
   256
  9
$DIMSCALE
 40
1.0
  9
$DIMASZ
 40
0.18
  9
$DIMEXO
 40
0.0625
  9
$DIMDLI
 40
0.38
  9
$DIMRND
 40
0.0
  9
$DIMDLE
 40
0.0
  9
$DIMEXE
 40
0.18
  9
$DIMTP
 40
0.0
  9
$DIMTM
 40
0.0
  9
$DIMTXT
 40
0.18
  9
$DIMCEN
 40
0.09
  9
$DIMTSZ
 40
0.0
  9
$DIMTOL
 70
     0
  9
$DIMLIM
 70
     0
  9
$DIMTIH
 70
     1
  9
$DIMTOH
 70
     1
  9
$DIMSE1
 70
     0
  9
$DIMSE2
 70
     0
  9
$DIMTAD
 70
     0
  9
$DIMZIN
 70
     0
  9
$DIMBLK
  1

  9
$DIMASO
 70
     1
  9
$DIMSHO
 70
     1
  9
$DIMPOST
  1

  9
$DIMAPOST
  1

  9
$DIMALT
 70
     0
  9
$DIMALTD
 70
     2
  9
$DIMALTF
 40
25.399999999999999
  9
$DIMLFAC
 40
1.0
  9
$DIMTOFL
 70
     0
  9
$DIMTVP
 40
0.0
  9
$DIMTIX
 70
     0
  9
$DIMSOXD
 70
     0
  9
$DIMSAH
 70
     0
  9
$DIMBLK1
  1

  9
$DIMBLK2
  1

  9
$DIMSTYLE
  2
STANDARD
  9
$DIMCLRD
 70
     0
  9
$DIMCLRE
 70
     0
  9
$DIMCLRT
 70
     0
  9
$DIMTFAC
 40
1.0
  9
$DIMGAP
 40
0.09
  9
$LUNITS
 70
     2
  9
$LUPREC
 70
     4
  9
$SKETCHINC
 40
0.1
  9
$FILLETRAD
 40
2.0
  9
$AUNITS
 70
     0
  9
$AUPREC
 70
     0
  9
$MENU
  1
ACAD
  9
$ELEVATION
 40
0.0
  9
$PELEVATION
 40
0.0
  9
$THICKNESS
 40
0.0
  9
$LIMCHECK
 70
     0
  9
$BLIPMODE
 70
     0
  9
$CHAMFERA
 40
0.0
  9
$CHAMFERB
 40
0.0
  9
$SKPOLY
 70
     0
  9
$TDCREATE
 40
2452095.0795236109
  9
$TDUPDATE
 40
2452095.0800055549
  9
$TDINDWG
 40
0.0004978009
  9
$TDUSRTIMER
 40
0.0004978009
  9
$USRTIMER
 70
     1
  9
$ANGBASE
 50
0.0
  9
$ANGDIR
 70
     0
  9
$PDMODE
 70
     0
  9
$PDSIZE
 40
0.0
  9
$PLINEWID
 40
0.0
  9
$COORDS
 70
     1
  9
$SPLFRAME
 70
     0
  9
$SPLINETYPE
 70
     6
  9
$SPLINESEGS
 70
     8
  9
$ATTDIA
 70
     0
  9
$ATTREQ
 70
     1
  9
$HANDLING
 70
 10241
  9
$HANDSEED
  5
166
  9
$SURFTAB1
 70
     6
  9
$SURFTAB2
 70
     6
  9
$SURFTYPE
 70
     6
  9
$SURFU
 70
     6
  9
$SURFV
 70
     6
  9
$UCSNAME
  2

  9
$UCSORG
 10
0.0
 20
0.0
 30
0.0
  9
$UCSXDIR
 10
1.0
 20
0.0
 30
0.0
  9
$UCSYDIR
 10
0.0
 20
1.0
 30
0.0
  9
$PUCSNAME
  2

  9
$PUCSORG
 10
0.0
 20
0.0
 30
0.0
  9
$PUCSXDIR
 10
1.0
 20
0.0
 30
0.0
  9
$PUCSYDIR
 10
0.0
 20
1.0
 30
0.0
  9
$USERI1
 70
     0
  9
$USERI2
 70
     0
  9
$USERI3
 70
     0
  9
$USERI4
 70
     0
  9
$USERI5
 70
     0
  9
$USERR1
 40
0.0
  9
$USERR2
 40
0.0
  9
$USERR3
 40
0.0
  9
$USERR4
 40
0.0
  9
$USERR5
 40
0.0
  9
$WORLDVIEW
 70
     1
  9
$SHADEDGE
 70
     3
  9
$SHADEDIF
 70
    70
  9
$TILEMODE
 70
     1
  9
$MAXACTVP
 70
    64
  9
$PLIMCHECK
 70
     0
  9
$PEXTMIN
 10
1.0000000000000000E+020
 20
1.0000000000000000E+020
 30
1.0000000000000000E+020
  9
$PEXTMAX
 10
-1.0000000000000000E+020
 20
-1.0000000000000000E+020
 30
-1.0000000000000000E+020
  9
$PLIMMIN
 10
0.0
 20
0.0
  9
$PLIMMAX
 10
12.0
 20
9.0
  9
$UNITMODE
 70
     0
  9
$VISRETAIN
 70
     1
  9
$PLINEGEN
 70
     0
  9
$PSLTSCALE
 70
     1
  0
ENDSEC
  0
SECTION
  2
TABLES
  0
TABLE
  2
VPORT
 70
     2
  0
VPORT
  2
*ACTIVE
 70
     0
 10
0.0
 20
0.0
 11
1.0
 21
1.0
 12
-238.96078127014869
 22
121.9048699245278
 13
0.0
 23
0.0
 14
1.0
 24
1.0
 15
0.0
 25
0.0
 16
0.0
 26
0.0
 36
1.0
 17
0.0
 27
0.0
 37
0.0
 40
9.0000000328109309
 41
2.4144144144144142
 42
50.0
 43
0.0
 44
0.0
 50
0.0
 51
0.0
 71
     0
 72
   100
 73
     1
 74
     1
 75
     0
 76
     0
 77
     0
 78
     0
  0
ENDTAB
  0
TABLE
  2
LTYPE
 70
     9
  0
LTYPE
  2
CONTINUOUS
 70
     0
  3
Solid line
 72
    65
 73
     0
 40
0.0
  0
LTYPE
  2
BORDER
 70
     0
  3
__ __ . __ __ .
 72
    65
 73
     6
 40
23.338628841942189
 49
6.6681796691263422
 49
-3.3340898345631711
 49
6.6681796691263422
 49
-3.3340898345631711
 49
0.0
 49
-3.3340898345631711
  0
LTYPE
  2
CENTER
 70
     0
  3
____ _ ____ _
 72
    65
 73
     4
 40
26.672718676505369
 49
16.670449172815861
 49
-3.3340898345631711
 49
3.3340898345631711
 49
-3.3340898345631711
  0
LTYPE
  2
DASHDOT
 70
     0
  3
__ . __ . __ .
 72
    65
 73
     4
 40
13.33635933825269
 49
6.6681796691263422
 49
-3.3340898345631711
 49
0.0
 49
-3.3340898345631711
  0
LTYPE
  2
DASHED
 70
     0
  3
__ __ __ __ __
 72
    65
 73
     2
 40
10.00226950368951
 49
6.6681796691263422
 49
-3.3340898345631711
  0
LTYPE
  2
DIVIDE
 70
     0
  3
__ . . __ . . 
 72
    65
 73
     6
 40
16.670449172815861
 49
6.6681796691263422
 49
-3.3340898345631711
 49
0.0
 49
-3.3340898345631711
 49
0.0
 49
-3.3340898345631711
  0
LTYPE
  2
DOT
 70
     0
  3
..............
 72
    65
 73
     4
 40
6.6681796691263422
 49
0.0
 49
-3.3340898345631711
 49
0.0
 49
-3.3340898345631711
  0
LTYPE
  2
HIDDEN
 70
     0
  3
_ _ _ _ _ _ _
 72
    65
 73
     2
 40
5.0011347518447566
 49
3.3340898345631711
 49
-1.6670449172815851
  0
LTYPE
  2
PHANTOM
 70
     0
  3
_____ _ _ _____ _ _ 
 72
    65
 73
     6
 40
33.340898345631722
 49
16.670449172815861
 49
-3.3340898345631711
 49
3.3340898345631711
 49
-3.3340898345631711
 49
3.3340898345631711
 49
-3.3340898345631711
  0
ENDTAB
  0
TABLE
  2
LAYER
 70
     2
  0
LAYER
  2
0
 70
     0
 62
     7
  6
CONTINUOUS
  0
LAYER
  2
1
 70
     0
 62
     7
  6
CONTINUOUS
  0
ENDTAB
  0
TABLE
  2
STYLE
 70
     4
  0
STYLE
  2
STANDARD
 70
     0
 40
0.0
 41
1.0
 50
0.0
 71
     0
 42
3.5
  3
txt
  4

  0
STYLE
  2
SIMPLEX
 70
     0
 40
0.0
 41
1.0
 50
0.0
 71
     0
 42
3.5
  3
simplex
  4

  0
STYLE
  2
COMPLEX
 70
     0
 40
0.0
 41
1.0
 50
0.0
 71
     0
 42
3.5
  3
complex
  4

  0
STYLE
  2
ITALIC
 70
     0
 40
0.0
 41
1.0
 50
0.0
 71
     0
 42
3.5
  3
italic
  4

  0
ENDTAB
  0
TABLE
  2
VIEW
 70
     0
  0
ENDTAB
  0
TABLE
  2
UCS
 70
     0
  0
ENDTAB
  0
TABLE
  2
APPID
 70
     1
  0
APPID
  2
ACAD
 70
     0
  0
ENDTAB
  0
TABLE
  2
DIMSTYLE
 70
     1
  0
DIMSTYLE
  2
STANDARD
 70
     0
  3

  4

  5

  6

  7

 40
1.0
 41
0.18
 42
0.0625
 43
0.38
 44
0.18
 45
0.0
 46
0.0
 47
0.0
 48
0.0
140
0.18
141
0.09
142
0.0
143
25.399999999999999
144
1.0
145
0.0
146
1.0
147
0.09
 71
     0
 72
     0
 73
     1
 74
     1
 75
     0
 76
     0
 77
     0
 78
     0
170
     0
171
     2
172
     0
173
     0
174
     0
175
     0
176
     0
177
     0
178
     0
  0
ENDTAB
  0
ENDSEC
  0
SECTION
  2
BLOCKS
  0
BLOCK
  8
0
  2
$MODEL_SPACE
 70
     0
 10
0.0
 20
0.0
 30
0.0
  3
$MODEL_SPACE
  1

  0
ENDBLK
  5
20
  8
0
  0
BLOCK
 67
     1
  8
0
  2
$PAPER_SPACE
 70
     0
 10
0.0
 20
0.0
 30
0.0
  3
$PAPER_SPACE
  1

  0
ENDBLK
  5
1C
 67
     1
  8
0
  0
ENDSEC
  0
SECTION
  2
ENTITIES
  0
LINE
  5
33
  8
1
 62
     7
 10
-55.759423385485391
 20
50.0
 30
0.0
 11
-70.109423385485499
 21
49.999999999999972
 31
0.0
  0
LINE
  5
34
  8
1
 62
     7
 10
57.0
 20
-38.0
 30
0.0
 11
57.0
 21
37.999999999999957
 31
0.0
  0
LINE
  5
35
  8
1
 62
     7
 10
75.0
 20
-42.0
 30
0.0
 11
75.0
 21
41.999999999999957
 31
0.0
  0
LINE
  5
36
  8
1
 62
     7
 10
5.1499999999999204
 20
-19.0
 30
0.0
 11
5.1500000000000048
 21
-35.5
 31
0.0
  0
LINE
  5
37
  8
1
 62
     7
 10
20.0
 20
-20.0
 30
0.0
 11
20.0
 21
-34.0
 31
0.0
  0
LINE
  5
38
  8
1
 62
     7
 10
20.0
 20
-34.0
 30
0.0
 11
5.1499999999999977
 21
-34.0
 31
0.0
  0
LINE
  5
39
  8
1
 62
     7
 10
20.0
 20
-20.0
 30
0.0
 11
5.1499999999999204
 21
-20.0
 31
0.0
  0
LINE
  5
3A
  8
1
 62
     7
 10
3.25
 20
22.234477033757571
 30
0.0
 11
3.25
 21
19.0
 31
0.0
  0
LINE
  5
3B
  8
1
 62
     7
 10
2.5
 20
68.999999999999972
 30
0.0
 11
2.5
 21
30.63730669589458
 31
0.0
  0
LINE
  5
3C
  8
1
 62
     7
 10
20.0
 20
33.999999999999957
 30
0.0
 11
5.1499999999999977
 21
33.999999999999957
 31
0.0
  0
LINE
  5
3D
  8
1
 62
     7
 10
20.0
 20
19.999999999999961
 30
0.0
 11
5.1499999999999204
 21
19.999999999999961
 31
0.0
  0
LINE
  5
3E
  8
1
 62
     7
 10
20.0
 20
33.999999999999957
 30
0.0
 11
20.0
 21
19.999999999999961
 31
0.0
  0
LINE
  5
3F
  8
1
 62
     7
 10
5.1500000000000048
 20
35.499999999999957
 30
0.0
 11
5.1499999999999204
 21
19.0
 31
0.0
  0
LINE
  5
40
  8
1
 62
     7
 10
0.0
 20
45.699999999999989
 30
0.0
 11
0.5
 21
45.699999999999989
 31
0.0
  0
LINE
  5
41
  8
1
  6
DASHDOT
 62
     3
 10
-128.53060875791141
 20
62.999999999999972
 30
0.0
 11
-122.0469195078726
 21
62.999999999999972
 31
0.0
  0
LINE
  5
42
  8
1
 62
     7
 10
-237.92987634020491
 20
50.456406460551193
 30
0.0
 11
-248.23379609214001
 21
68.303318988015292
 31
0.0
  0
LINE
  5
43
  8
1
 62
     7
 10
-248.01728974119391
 20
68.428318988015292
 30
0.0
 11
-249.31709515059671
 21
70.679647997053792
 31
0.0
  0
LINE
  5
44
  8
1
 62
     7
 10
-247.75748212005851
 20
68.578318988015269
 30
0.0
 11
-249.05728752946129
 21
70.829647997053769
 31
0.0
  0
LINE
  5
45
  8
1
 62
     7
 10
-246.97805925665261
 20
69.028318988015286
 30
0.0
 11
-248.27786466605539
 21
71.2796479970538
 31
0.0
  0
LINE
  5
46
  8
1
 62
     7
 10
-247.23786687778781
 20
68.87831898801528
 30
0.0
 11
-248.5376722871907
 21
71.12964799705378
 31
0.0
  0
LINE
  5
47
  8
1
 62
     7
 10
-246.54504655476029
 20
69.278318988015286
 30
0.0
 11
-247.84485196416301
 21
71.529647997053871
 31
0.0
  0
LINE
  5
48
  8
1
 62
     7
 10
-246.2852389336249
 20
69.428318988015292
 30
0.0
 11
-247.58504434302779
 21
71.679647997053877
 31
0.0
  0
LINE
  5
49
  8
1
 62
     7
 10
-245.50581607021891
 20
69.87831898801528
 30
0.0
 11
-246.80562147962169
 21
72.129647997053866
 31
0.0
  0
LINE
  5
4A
  8
1
 62
     7
 10
-245.76562369135431
 20
69.728318988015275
 30
0.0
 11
-247.06542910075709
 21
71.979647997053874
 31
0.0
  0
LINE
  5
4B
  8
1
 62
     7
 10
-247.49767449892309
 20
68.728318988015275
 30
0.0
 11
-248.7974799083261
 21
70.979647997053789
 31
0.0
  0
LINE
  5
4C
  8
1
 62
     7
 10
-246.0254313124895
 20
69.578318988015269
 30
0.0
 11
-247.32523672189251
 21
71.829647997053868
 31
0.0
  0
LINE
  5
4D
  8
1
 62
     7
 10
-248.23379609214001
 20
68.303318988015292
 30
0.0
 11
-245.28930971927289
 21
70.00331898801528
 31
0.0
  0
LINE
  5
4E
  8
1
 62
     7
 10
-246.76155290570631
 20
69.153318988015286
 30
0.0
 11
-237.92987634020491
 21
53.856406460551177
 31
0.0
  0
LINE
  5
4F
  8
1
 62
     7
 10
-245.28930971927289
 20
70.00331898801528
 30
0.0
 11
-237.92987634020491
 21
57.256406460551183
 31
0.0
  0
LINE
  5
50
  8
1
 62
     7
 10
184.85177851339719
 20
57.256406460551091
 30
0.0
 11
184.85177851339719
 21
66.999999999999972
 31
0.0
  0
LINE
  5
51
  8
1
 62
     7
 10
196.23899732378911
 20
70.679647997053792
 30
0.0
 11
194.9391919143863
 21
68.428318988015292
 31
0.0
  0
LINE
  5
52
  8
1
 62
     7
 10
195.97918970265371
 20
70.829647997053769
 30
0.0
 11
194.67938429325099
 21
68.578318988015269
 31
0.0
  0
LINE
  5
53
  8
1
 62
     7
 10
195.19976683924779
 20
71.2796479970538
 30
0.0
 11
193.89996142984501
 21
69.028318988015286
 31
0.0
  0
LINE
  5
54
  8
1
 62
     7
 10
195.4595744603831
 20
71.12964799705378
 30
0.0
 11
194.1597690509802
 21
68.87831898801528
 31
0.0
  0
LINE
  5
55
  8
1
 62
     7
 10
194.76675413735549
 20
71.529647997053871
 30
0.0
 11
193.4669487279526
 21
69.278318988015286
 31
0.0
  0
LINE
  5
56
  8
1
 62
     7
 10
194.5069465162201
 20
71.679647997053877
 30
0.0
 11
193.20714110681729
 21
69.428318988015292
 31
0.0
  0
LINE
  5
57
  8
1
 62
     7
 10
193.72752365281411
 20
72.129647997053866
 30
0.0
 11
192.42771824341139
 21
69.87831898801528
 31
0.0
  0
LINE
  5
58
  8
1
 62
     7
 10
193.98733127394959
 20
71.979647997053874
 30
0.0
 11
192.68752586454659
 21
69.728318988015275
 31
0.0
  0
LINE
  5
59
  8
1
 62
     7
 10
195.71938208151849
 20
70.979647997053789
 30
0.0
 11
194.4195766721156
 21
68.728318988015275
 31
0.0
  0
LINE
  5
5A
  8
1
 62
     7
 10
194.2471388950849
 20
71.829647997053868
 30
0.0
 11
192.94733348568201
 21
69.578318988015269
 31
0.0
  0
LINE
  5
5B
  8
1
 62
     7
 10
182.44414891248761
 20
49.686269665968858
 30
0.0
 11
193.68345507889879
 21
69.153318988015286
 31
0.0
  0
LINE
  5
5C
  8
1
 62
     7
 10
195.1556982653324
 20
68.303318988015292
 30
0.0
 11
184.2688848870296
 21
49.446805084274381
 31
0.0
  0
LINE
  5
5D
  8
1
 62
     7
 10
192.21121189246529
 20
70.00331898801528
 30
0.0
 11
195.1556982653324
 21
68.303318988015292
 31
0.0
  0
LINE
  5
5E
  8
1
 62
     7
 10
180.5818490105483
 20
49.86067161687938
 30
0.0
 11
192.21121189246529
 21
70.00331898801528
 31
0.0
  0
LINE
  5
5F
  8
1
 62
     7
 10
4.6000000000000227
 20
65.396870561263455
 30
0.0
 11
4.6000000000000227
 21
62.588970545074687
 31
0.0
  0
LINE
  5
60
  8
1
 62
     7
 10
4.3000000000000114
 20
65.396870561263455
 30
0.0
 11
4.3000000000000114
 21
62.588970545074687
 31
0.0
  0
LINE
  5
61
  8
1
 62
     7
 10
3.4000000000000061
 20
65.396870561263455
 30
0.0
 11
3.4000000000000061
 21
62.588970545074687
 31
0.0
  0
LINE
  5
62
  8
1
 62
     7
 10
3.7000000000000171
 20
65.396870561263455
 30
0.0
 11
3.7000000000000171
 21
62.588970545074687
 31
0.0
  0
LINE
  5
63
  8
1
 62
     7
 10
4.0
 20
65.396870561263455
 30
0.0
 11
4.0
 21
62.588970545074687
 31
0.0
  0
LINE
  5
64
  8
1
 62
     7
 10
3.1500000000000061
 20
62.588970545074687
 30
0.0
 11
4.8500000000000227
 21
62.588970545074687
 31
0.0
  0
LINE
  5
65
  8
1
 62
     7
 10
4.8500000000000227
 20
62.588970545074687
 30
0.0
 11
4.8500000000000227
 21
45.699999999999989
 31
0.0
  0
LINE
  5
66
  8
1
 62
     7
 10
3.1500000000000061
 20
62.588970545074687
 30
0.0
 11
3.1500000000000061
 21
45.699999999999989
 31
0.0
  0
LINE
  5
67
  8
1
 62
     7
 10
-122.50942338548541
 20
65.396870561263455
 30
0.0
 11
-122.50942338548541
 21
62.588970545074687
 31
0.0
  0
LINE
  5
68
  8
1
 62
     7
 10
-122.8094233854853
 20
65.396870561263455
 30
0.0
 11
-122.8094233854853
 21
62.588970545074687
 31
0.0
  0
LINE
  5
69
  8
1
 62
     7
 10
-123.70942338548539
 20
65.396870561263455
 30
0.0
 11
-123.70942338548539
 21
62.588970545074687
 31
0.0
  0
LINE
  5
6A
  8
1
 62
     7
 10
-123.4094233854853
 20
65.396870561263455
 30
0.0
 11
-123.4094233854853
 21
62.588970545074687
 31
0.0
  0
LINE
  5
6B
  8
1
 62
     7
 10
-123.1094233854854
 20
65.396870561263455
 30
0.0
 11
-123.1094233854854
 21
62.588970545074687
 31
0.0
  0
LINE
  5
6C
  8
1
  6
DASHDOT
 62
     3
 10
140.7310621327459
 20
14.961690607497751
 30
0.0
 11
150.07208231709441
 21
11.092513360739749
 31
0.0
  0
LINE
  5
6D
  8
1
 62
     7
 10
57.0
 20
-46.0
 30
0.0
 11
57.0
 21
-50.0
 31
0.0
  0
LINE
  5
6E
  8
1
 62
     7
 10
56.70000000000001
 20
-46.0
 30
0.0
 11
56.70000000000001
 21
-50.0
 31
0.0
  0
LINE
  5
6F
  8
1
 62
     3
 10
55.148006874969987
 20
-50.0
 30
0.0
 11
55.154684496405487
 21
-46.0
 31
0.0
  0
LINE
  5
70
  8
1
 62
     7
 10
3.25
 20
19.0
 30
0.0
 11
5.1499999999999204
 21
19.0
 31
0.0
  0
LINE
  5
71
  8
1
 62
     7
 10
57.0
 20
18.0
 30
0.0
 11
0.0
 21
18.0
 31
0.0
  0
LINE
  5
72
  8
1
 62
     3
 10
-4.3021582733812807
 20
0.0
 30
0.0
 11
0.0
 21
0.0
 31
0.0
  0
LINE
  5
73
  8
1
 62
     7
 10
23.0
 20
46.499999999999972
 30
0.0
 11
23.0
 21
48.499999999999972
 31
0.0
  0
LINE
  5
74
  8
1
 62
     7
 10
54.0
 20
37.999999999999957
 30
0.0
 11
54.0
 21
45.999999999999957
 31
0.0
  0
LINE
  5
75
  8
1
 62
     7
 10
57.0
 20
37.999999999999957
 30
0.0
 11
54.0
 21
37.999999999999957
 31
0.0
  0
LINE
  5
76
  8
1
 62
     7
 10
49.5
 20
46.499999999999972
 30
0.0
 11
23.0
 21
46.499999999999972
 31
0.0
  0
LINE
  5
77
  8
1
 62
     7
 10
49.5
 20
23.999999999999961
 30
0.0
 11
49.5
 21
46.499999999999972
 31
0.0
  0
LINE
  5
78
  8
1
 62
     7
 10
20.0
 20
23.999999999999961
 30
0.0
 11
49.5
 21
23.999999999999961
 31
0.0
  0
LINE
  5
79
  8
1
 62
     7
 10
0.0
 20
19.999999999999961
 30
0.0
 11
3.25
 21
19.999999999999961
 31
0.0
  0
LINE
  5
7A
  8
1
 62
     7
 10
57.0
 20
15.0
 30
0.0
 11
0.0
 21
15.0
 31
0.0
  0
LINE
  5
7B
  8
1
 62
     7
 10
47.95000000000001
 20
24.799999999999919
 30
0.0
 11
47.95000000000001
 21
45.699999999999989
 31
0.0
  0
LINE
  5
7C
  8
1
 62
     7
 10
47.95000000000001
 20
45.699999999999989
 30
0.0
 11
2.5
 21
45.699999999999989
 31
0.0
  0
LINE
  5
7D
  8
1
 62
     7
 10
57.0
 20
49.999999999999972
 30
0.0
 11
71.350000000000023
 21
49.999999999999972
 31
0.0
  0
LINE
  5
7E
  8
1
 62
     7
 10
72.0
 20
43.049999999999983
 30
0.0
 11
64.0
 21
43.049999999999983
 31
0.0
  0
LINE
  5
7F
  8
1
 62
     7
 10
67.5
 20
43.049999999999983
 30
0.0
 11
67.5
 21
46.499999999999972
 31
0.0
  0
LINE
  5
80
  8
1
 62
     7
 10
67.5
 20
46.499999999999972
 30
0.0
 11
64.0
 21
46.499999999999972
 31
0.0
  0
LINE
  5
81
  8
1
 62
     7
 10
64.0
 20
19.999999999999961
 30
0.0
 11
58.5
 21
19.999999999999961
 31
0.0
  0
LINE
  5
82
  8
1
  6
DASHDOT
 62
     3
 10
56.091789374102802
 20
33.999999999999957
 30
0.0
 11
76.610666248667798
 21
33.999999999999957
 31
0.0
  0
LINE
  5
83
  8
1
 62
     7
 10
58.5
 20
40.499999999999957
 30
0.0
 11
68.0
 21
40.499999999999957
 31
0.0
  0
LINE
  5
84
  8
1
 62
     7
 10
64.0
 20
24.999999999999961
 30
0.0
 11
75.0
 21
24.999999999999961
 31
0.0
  0
LINE
  5
85
  8
1
 62
     7
 10
75.0
 20
41.999999999999957
 30
0.0
 11
72.0
 21
41.999999999999957
 31
0.0
  0
LINE
  5
86
  8
1
 62
     7
 10
72.0
 20
41.999999999999957
 30
0.0
 11
72.0
 21
45.449999999999989
 31
0.0
  0
LINE
  5
87
  8
1
 62
     7
 10
72.0
 20
45.449999999999989
 30
0.0
 11
64.0
 21
45.449999999999989
 31
0.0
  0
LINE
  5
88
  8
1
 62
     7
 10
68.0
 20
27.499999999999961
 30
0.0
 11
68.0
 21
40.499999999999957
 31
0.0
  0
LINE
  5
89
  8
1
 62
     7
 10
68.0
 20
37.249999999999957
 30
0.0
 11
75.0
 21
37.249999999999957
 31
0.0
  0
LINE
  5
8A
  8
1
 62
     7
 10
68.0
 20
30.749999999999972
 30
0.0
 11
75.0
 21
30.749999999999972
 31
0.0
  0
LINE
  5
8B
  8
1
 62
     7
 10
64.0
 20
46.499999999999972
 30
0.0
 11
64.0
 21
-31.0
 31
0.0
  0
LINE
  5
8C
  8
1
 62
     7
 10
64.0
 20
-45.450000000000038
 30
0.0
 11
72.0
 21
-45.450000000000038
 31
0.0
  0
LINE
  5
8D
  8
1
 62
     7
 10
72.0
 20
-45.450000000000038
 30
0.0
 11
72.0
 21
-42.0
 31
0.0
  0
LINE
  5
8E
  8
1
 62
     7
 10
72.0
 20
-42.0
 30
0.0
 11
75.0
 21
-42.0
 31
0.0
  0
LINE
  5
8F
  8
1
 62
     7
 10
64.0
 20
-25.0
 30
0.0
 11
75.0
 21
-25.0
 31
0.0
  0
LINE
  5
90
  8
1
 62
     7
 10
64.0
 20
-46.5
 30
0.0
 11
67.5
 21
-46.5
 31
0.0
  0
LINE
  5
91
  8
1
 62
     7
 10
67.5
 20
-46.5
 30
0.0
 11
67.5
 21
-43.050000000000011
 31
0.0
  0
LINE
  5
92
  8
1
 62
     7
 10
64.0
 20
-43.050000000000011
 30
0.0
 11
72.0
 21
-43.050000000000011
 31
0.0
  0
LINE
  5
93
  8
1
 62
     7
 10
57.0
 20
-50.0
 30
0.0
 11
71.350000000000023
 21
-50.0
 31
0.0
  0
LINE
  5
94
  8
1
 62
     7
 10
3.25
 20
-19.0
 30
0.0
 11
3.25
 21
-22.234477033757621
 31
0.0
  0
LINE
  5
95
  8
1
 62
     7
 10
5.1499999999999204
 20
-22.234477033757621
 30
0.0
 11
3.25
 21
-22.234477033757621
 31
0.0
  0
LINE
  5
96
  8
1
 62
     7
 10
10.47500000000001
 20
-30.637306695894601
 30
0.0
 11
2.5
 21
-30.637306695894601
 31
0.0
  0
LINE
  5
97
  8
1
 62
     7
 10
2.5
 20
-30.637306695894601
 30
0.0
 11
2.5
 21
-35.5
 31
0.0
  0
LINE
  5
98
  8
1
 62
     7
 10
20.0
 20
-30.637306695894601
 30
0.0
 11
14.67500000000001
 21
-30.637306695894601
 31
0.0
  0
LINE
  5
99
  8
1
 62
     7
 10
20.0
 20
-23.362693304105441
 30
0.0
 11
14.67500000000001
 21
-23.362693304105441
 31
0.0
  0
LINE
  5
9A
  8
1
 62
     7
 10
5.1500000000000048
 20
-23.362693304105441
 30
0.0
 11
10.47500000000001
 21
-23.362693304105441
 31
0.0
  0
LINE
  5
9B
  8
1
 62
     7
 10
2.5
 20
-34.0
 30
0.0
 11
0.0
 21
-34.0
 31
0.0
  0
LINE
  5
9C
  8
1
 62
     7
 10
47.95000000000001
 20
-45.700000000000038
 30
0.0
 11
47.95000000000001
 21
-24.79999999999999
 31
0.0
  0
LINE
  5
9D
  8
1
 62
     7
 10
47.95000000000001
 20
-24.79999999999999
 30
0.0
 11
21.0
 21
-24.800000000000001
 31
0.0
  0
LINE
  5
9E
  8
1
 62
     7
 10
21.0
 20
-24.800000000000001
 30
0.0
 11
21.0
 21
-29.0
 31
0.0
  0
LINE
  5
9F
  8
1
 62
     7
 10
21.0
 20
-29.0
 30
0.0
 11
20.0
 21
-29.0
 31
0.0
  0
LINE
  5
A0
  8
1
 62
     7
 10
5.1500000000000048
 20
-35.5
 30
0.0
 11
2.5
 21
-35.5
 31
0.0
  0
LINE
  5
A1
  8
1
 62
     7
 10
57.0
 20
-15.0
 30
0.0
 11
0.0
 21
-15.0
 31
0.0
  0
LINE
  5
A2
  8
1
 62
     7
 10
3.25
 20
-20.0
 30
0.0
 11
0.0
 21
-20.0
 31
0.0
  0
LINE
  5
A3
  8
1
 62
     7
 10
49.5
 20
-24.0
 30
0.0
 11
20.0
 21
-24.0
 31
0.0
  0
LINE
  5
A4
  8
1
 62
     7
 10
49.5
 20
-46.5
 30
0.0
 11
49.5
 21
-24.0
 31
0.0
  0
LINE
  5
A5
  8
1
 62
     7
 10
23.0
 20
-46.5
 30
0.0
 11
49.5
 21
-46.5
 31
0.0
  0
LINE
  5
A6
  8
1
 62
     7
 10
54.0
 20
-38.0
 30
0.0
 11
57.0
 21
-38.0
 31
0.0
  0
LINE
  5
A7
  8
1
 62
     7
 10
54.0
 20
-46.0
 30
0.0
 11
54.0
 21
-38.0
 31
0.0
  0
LINE
  5
A8
  8
1
 62
     7
 10
23.0
 20
-46.5
 30
0.0
 11
23.0
 21
-48.5
 31
0.0
  0
LINE
  5
A9
  8
1
 62
     7
 10
56.70000000000001
 20
-50.0
 30
0.0
 11
24.5
 21
-50.0
 31
0.0
  0
LINE
  5
AA
  8
1
 62
     7
 10
5.1499999999999204
 20
-19.0
 30
0.0
 11
3.25
 21
-19.0
 31
0.0
  0
LINE
  5
AB
  8
1
 62
     7
 10
2.5
 20
68.999999999999972
 30
0.0
 11
0.5
 21
68.999999999999972
 31
0.0
  0
LINE
  5
AC
  8
1
 62
     7
 10
0.5
 20
68.999999999999972
 30
0.0
 11
0.5
 21
33.999999999999893
 31
0.0
  0
LINE
  5
AD
  8
1
 62
     7
 10
0.5
 20
65.749999999999972
 30
0.0
 11
2.5
 21
65.749999999999972
 31
0.0
  0
LINE
  5
AE
  8
1
 62
     7
 10
0.5
 20
60.249999999999972
 30
0.0
 11
2.5
 21
60.249999999999972
 31
0.0
  0
LINE
  5
AF
  8
1
  6
DASHDOT
 62
     3
 10
-1.4211853724260941
 20
62.999999999999972
 30
0.0
 11
5.0625038776126976
 21
62.999999999999972
 31
0.0
  0
LINE
  5
B0
  8
1
 62
     7
 10
64.0
 20
-46.5
 30
0.0
 11
64.0
 21
-26.5
 31
0.0
  0
LINE
  5
B1
  8
1
 62
     7
 10
58.5
 20
-46.0
 30
0.0
 11
58.5
 21
45.999999999999957
 31
0.0
  0
LINE
  5
B2
  8
1
 62
     7
 10
54.0
 20
-38.0
 30
0.0
 11
57.0
 21
-38.0
 31
0.0
  0
LINE
  5
B3
  8
1
 62
     7
 10
54.0
 20
-46.0
 30
0.0
 11
54.0
 21
-38.0
 31
0.0
  0
LINE
  5
B4
  8
1
 62
     7
 10
173.35177851339719
 20
18.0
 30
0.0
 11
180.35177851339711
 21
18.0
 31
0.0
  0
LINE
  5
B5
  8
1
 62
     7
 10
180.35177851339711
 20
18.0
 30
0.0
 11
180.35177851339711
 21
14.58595214581476
 31
0.0
  0
LINE
  5
B6
  8
1
 62
     7
 10
173.35177851339719
 20
18.0
 30
0.0
 11
173.35177851339719
 21
14.58595214581476
 31
0.0
  0
LINE
  5
B7
  8
1
 62
     7
 10
170.85177851339711
 20
68.999999999999972
 30
0.0
 11
182.85177851339711
 21
68.999999999999972
 31
0.0
  0
LINE
  5
B8
  8
1
 62
     7
 10
168.85177851339711
 20
49.355850717012288
 30
0.0
 11
168.85177851339711
 21
66.999999999999972
 31
0.0
  0
LINE
  5
B9
  8
1
 62
     7
 10
184.85177851339719
 20
49.451387726466983
 30
0.0
 11
184.85177851339719
 21
50.456406460550973
 31
0.0
  0
LINE
  5
BA
  8
1
 62
     7
 10
0.0
 20
-45.700000000000038
 30
0.0
 11
0.0
 21
45.699999999999989
 31
0.0
  0
LINE
  5
BB
  8
1
 62
     7
 10
23.0
 20
48.499999999999972
 30
0.0
 11
24.5
 21
49.999999999999972
 31
0.0
  0
LINE
  5
BC
  8
1
 62
     7
 10
24.5
 20
-50.0
 30
0.0
 11
23.0
 21
-48.5
 31
0.0
  0
LINE
  5
BD
  8
1
 62
     7
 10
71.350000000000023
 20
-50.0
 30
0.0
 11
71.350000000000023
 21
-43.050000000000011
 31
0.0
  0
LINE
  5
BE
  8
1
 62
     7
 10
54.0
 20
45.999999999999957
 30
0.0
 11
56.70000000000001
 21
45.999999999999957
 31
0.0
  0
LINE
  5
BF
  8
1
 62
     7
 10
58.5
 20
45.999999999999957
 30
0.0
 11
57.0
 21
45.999999999999957
 31
0.0
  0
LINE
  5
C0
  8
1
 62
     7
 10
57.0
 20
-46.0
 30
0.0
 11
58.5
 21
-46.0
 31
0.0
  0
LINE
  5
C1
  8
1
 62
     7
 10
56.70000000000001
 20
-46.0
 30
0.0
 11
54.0
 21
-46.0
 31
0.0
  0
LINE
  5
C2
  8
1
 62
     7
 10
24.5
 20
49.999999999999972
 30
0.0
 11
56.70000000000001
 21
49.999999999999972
 31
0.0
  0
LINE
  5
C3
  8
1
  6
DASHDOT
 62
     3
 10
203.2872590876531
 20
-10.949934581707399
 30
0.0
 11
213.7210905978431
 21
-15.271769100743819
 31
0.0
  0
LINE
  5
C4
  8
1
  6
DASHDOT
 62
     3
 10
176.85177851339711
 20
-26.108812758534601
 30
0.0
 11
176.85177851339711
 21
-41.356660933455537
 31
0.0
  0
LINE
  5
C5
  8
1
  6
DASHDOT
 62
     3
 10
203.20470034709879
 20
0.0
 30
0.0
 11
218.28320392602379
 21
0.0
 31
0.0
  0
LINE
  5
C6
  8
1
  6
DASHDOT
 62
     3
 10
176.85177851339711
 20
41.218573827669871
 30
0.0
 11
176.85177851339711
 21
26.499263046530778
 31
0.0
  0
LINE
  5
C7
  8
1
  6
DASHDOT
 62
     3
 10
135.51527324008271
 20
0.0
 30
0.0
 11
150.91575936924281
 21
0.0
 31
0.0
  0
LINE
  5
C8
  8
1
 62
     7
 10
57.0
 20
49.999999999999972
 30
0.0
 11
57.0
 21
45.999999999999957
 31
0.0
  0
LINE
  5
C9
  8
1
 62
     7
 10
56.70000000000001
 20
49.999999999999972
 30
0.0
 11
56.70000000000001
 21
45.999999999999957
 31
0.0
  0
LINE
  5
CA
  8
1
 62
     3
 10
55.154684496405487
 20
45.999999999999957
 30
0.0
 11
55.148006874969987
 21
49.999999999999972
 31
0.0
  0
LINE
  5
CB
  8
1
 62
     3
 10
58.5
 20
49.999999999999972
 30
0.0
 11
58.5
 21
45.999999999999957
 31
0.0
  0
LINE
  5
CC
  8
1
 62
     7
 10
58.5
 20
-20.0
 30
0.0
 11
64.0
 21
-20.0
 31
0.0
  0
LINE
  5
CD
  8
1
 62
     7
 10
58.5
 20
27.499999999999961
 30
0.0
 11
68.0
 21
27.499999999999961
 31
0.0
  0
LINE
  5
CE
  8
1
 62
     7
 10
20.0
 20
28.999999999999961
 30
0.0
 11
20.95000000000001
 21
28.999999999999961
 31
0.0
  0
LINE
  5
CF
  8
1
 62
     7
 10
21.0
 20
28.999999999999961
 30
0.0
 11
21.0
 21
24.799999999999869
 31
0.0
  0
LINE
  5
D0
  8
1
 62
     7
 10
21.0
 20
24.799999999999869
 30
0.0
 11
47.95000000000001
 21
24.799999999999919
 31
0.0
  0
LINE
  5
D1
  8
1
 62
     7
 10
20.0
 20
28.999999999999961
 30
0.0
 11
21.0
 21
28.999999999999961
 31
0.0
  0
LINE
  5
D2
  8
1
 62
     7
 10
71.350000000000023
 20
49.999999999999972
 30
0.0
 11
71.350000000000023
 21
43.049999999999983
 31
0.0
  0
LINE
  5
D3
  8
1
 62
     3
 10
75.0
 20
0.0
 30
0.0
 11
79.635068408990321
 21
0.0
 31
0.0
  0
LINE
  5
D4
  8
1
 62
     7
 10
0.0
 20
-45.700000000000038
 30
0.0
 11
47.95000000000001
 21
-45.700000000000038
 31
0.0
  0
LINE
  5
D5
  8
1
 62
     7
 10
6.6500000000000048
 20
-22.459712632820011
 30
0.0
 11
6.6500000000000048
 21
-31.513584848559901
 31
0.0
  0
LINE
  5
D6
  8
1
 62
     7
 10
18.5
 20
-31.59664789641073
 30
0.0
 11
18.5
 21
-22.432024950203122
 31
0.0
  0
LINE
  5
D7
  8
1
 62
     7
 10
3.25
 20
22.234477033757571
 30
0.0
 11
5.1499999999999204
 21
22.234477033757571
 31
0.0
  0
LINE
  5
D8
  8
1
 62
     7
 10
10.47500000000001
 20
30.63730669589458
 30
0.0
 11
2.5
 21
30.63730669589458
 31
0.0
  0
LINE
  5
D9
  8
1
 62
     7
 10
10.47500000000001
 20
23.362693304105282
 30
0.0
 11
5.1500000000000048
 21
23.362693304105282
 31
0.0
  0
LINE
  5
DA
  8
1
 62
     7
 10
2.5
 20
35.499999999999893
 30
0.0
 11
5.1500000000000048
 21
35.499999999999957
 31
0.0
  0
LINE
  5
DB
  8
1
 62
     7
 10
3.25
 20
19.0
 30
0.0
 11
5.1499999999999204
 21
19.0
 31
0.0
  0
LINE
  5
DC
  8
1
 62
     7
 10
6.6500000000000048
 20
31.513584848559791
 30
0.0
 11
6.6500000000000048
 21
22.459712632819869
 31
0.0
  0
LINE
  5
DD
  8
1
 62
     7
 10
18.5
 20
22.43202495020299
 30
0.0
 11
18.5
 21
31.596647896410591
 31
0.0
  0
LINE
  5
DE
  8
1
 62
     7
 10
14.67500000000001
 20
30.63730669589458
 30
0.0
 11
20.0
 21
30.63730669589458
 31
0.0
  0
LINE
  5
DF
  8
1
 62
     7
 10
14.67500000000001
 20
23.362693304105282
 30
0.0
 11
20.0
 21
23.362693304105392
 31
0.0
  0
LINE
  5
E0
  8
1
 62
     7
 10
0.0
 20
33.999999999999893
 30
0.0
 11
2.5
 21
33.999999999999893
 31
0.0
  0
LINE
  5
E1
  8
1
 62
     3
 10
-131.41158165886671
 20
0.0
 30
0.0
 11
-127.1094233854854
 21
0.0
 31
0.0
  0
LINE
  5
E2
  8
1
 62
     7
 10
-104.1094233854854
 20
-48.5
 30
0.0
 11
-104.1094233854854
 21
48.499999999999972
 31
0.0
  0
LINE
  5
E3
  8
1
 62
     7
 10
-55.759423385485391
 20
50.0
 30
0.0
 11
-55.759423385485391
 21
-50.0
 31
0.0
  0
LINE
  5
E4
  8
1
 62
     7
 10
-52.109423385485393
 20
41.999999999999957
 30
0.0
 11
-55.109423385485393
 21
41.999999999999957
 31
0.0
  0
LINE
  5
E5
  8
1
 62
     7
 10
-55.109423385485393
 20
45.449999999999989
 30
0.0
 11
-55.109423385485393
 21
-45.450000000000038
 31
0.0
  0
LINE
  5
E6
  8
1
 62
     7
 10
-55.109423385485393
 20
45.449999999999989
 30
0.0
 11
-55.759423385485391
 21
45.449999999999989
 31
0.0
  0
LINE
  5
E7
  8
1
 62
     7
 10
-55.109423385485393
 20
-42.0
 30
0.0
 11
-52.109423385485393
 21
-42.0
 31
0.0
  0
LINE
  5
E8
  8
1
 62
     7
 10
-70.109423385485499
 20
-50.0
 30
0.0
 11
-55.759423385485391
 21
-50.0
 31
0.0
  0
LINE
  5
E9
  8
1
 62
     7
 10
-70.409423385485411
 20
-50.0
 30
0.0
 11
-102.6094233854853
 21
-50.0
 31
0.0
  0
LINE
  5
EA
  8
1
 62
     7
 10
-124.6094233854853
 20
68.999999999999972
 30
0.0
 11
-124.6094233854853
 21
45.699999999999989
 31
0.0
  0
LINE
  5
EB
  8
1
 62
     7
 10
-124.6094233854853
 20
68.999999999999972
 30
0.0
 11
-126.6094233854853
 21
68.999999999999972
 31
0.0
  0
LINE
  5
EC
  8
1
 62
     7
 10
-126.6094233854853
 20
68.999999999999972
 30
0.0
 11
-126.6094233854853
 21
45.699999999999989
 31
0.0
  0
LINE
  5
ED
  8
1
 62
     7
 10
-123.95942338548539
 20
62.588970545074687
 30
0.0
 11
-122.25942338548541
 21
62.588970545074687
 31
0.0
  0
LINE
  5
EE
  8
1
 62
     7
 10
-122.25942338548541
 20
62.588970545074687
 30
0.0
 11
-122.25942338548541
 21
45.699999999999989
 31
0.0
  0
LINE
  5
EF
  8
1
 62
     7
 10
-104.1094233854854
 20
48.499999999999972
 30
0.0
 11
-102.6094233854853
 21
49.999999999999972
 31
0.0
  0
LINE
  5
F0
  8
1
 62
     7
 10
-102.6094233854853
 20
-50.0
 30
0.0
 11
-104.1094233854854
 21
-48.5
 31
0.0
  0
LINE
  5
F1
  8
1
 62
     7
 10
-102.6094233854853
 20
49.999999999999972
 30
0.0
 11
-70.409423385485411
 21
49.999999999999972
 31
0.0
  0
LINE
  5
F2
  8
1
 62
     7
 10
-123.95942338548539
 20
62.588970545074687
 30
0.0
 11
-123.95942338548539
 21
45.699999999999989
 31
0.0
  0
LINE
  5
F3
  8
1
 62
     7
 10
-70.109423385485499
 20
49.999999999999972
 30
0.0
 11
-70.109423385485499
 21
-50.0
 31
0.0
  0
LINE
  5
F4
  8
1
 62
     7
 10
-70.409423385485411
 20
49.999999999999972
 30
0.0
 11
-70.409423385485411
 21
-50.0
 31
0.0
  0
LINE
  5
F5
  8
1
 62
     3
 10
-71.954738889079891
 20
-50.0
 30
0.0
 11
-71.961416510515392
 21
49.999999999999972
 31
0.0
  0
LINE
  5
F6
  8
1
 62
     3
 10
-68.55743026045549
 20
49.999999999999972
 30
0.0
 11
-68.55743026045549
 21
-49.999999999999929
 31
0.0
  0
LINE
  5
F7
  8
1
 62
     3
 10
-52.109423385485393
 20
0.0
 30
0.0
 11
-47.474354976495093
 21
0.0
 31
0.0
  0
LINE
  5
F8
  8
1
 62
     7
 10
-127.1094233854854
 20
45.699999999999989
 30
0.0
 11
-127.1094233854854
 21
-45.700000000000038
 31
0.0
  0
LINE
  5
F9
  8
1
 62
     7
 10
-127.1094233854854
 20
-45.700000000000038
 30
0.0
 11
-104.1094233854854
 21
-45.700000000000038
 31
0.0
  0
LINE
  5
FA
  8
1
 62
     7
 10
-55.109423385485393
 20
-45.450000000000038
 30
0.0
 11
-55.759423385485391
 21
-45.450000000000038
 31
0.0
  0
LINE
  5
FB
  8
1
 62
     7
 10
-102.6094233854853
 20
49.999999999999972
 30
0.0
 11
-102.6094233854853
 21
-50.0
 31
0.0
  0
LINE
  5
FC
  8
1
 62
     7
 10
-52.109423385485393
 20
41.999999999999957
 30
0.0
 11
-52.109423385485393
 21
-42.0
 31
0.0
  0
LINE
  5
FD
  8
1
 62
     7
 10
-127.1094233854854
 20
45.699999999999989
 30
0.0
 11
-104.1094233854854
 21
45.699999999999989
 31
0.0
  0
LINE
  5
FE
  8
1
 62
     7
 10
-233.42987634020491
 20
18.0
 30
0.0
 11
-226.4298763402048
 21
18.0
 31
0.0
  0
LINE
  5
FF
  8
1
 62
     7
 10
-226.4298763402048
 20
18.0
 30
0.0
 11
-226.4298763402048
 21
14.58595214581476
 31
0.0
  0
LINE
  5
100
  8
1
 62
     7
 10
-233.42987634020491
 20
18.0
 30
0.0
 11
-233.42987634020491
 21
14.58595214581476
 31
0.0
  0
LINE
  5
101
  8
1
 62
     7
 10
-235.92987634020491
 20
68.999999999999972
 30
0.0
 11
-223.9298763402048
 21
68.999999999999972
 31
0.0
  0
LINE
  5
102
  8
1
 62
     7
 10
-237.92987634020491
 20
66.999999999999972
 30
0.0
 11
-237.92987634020491
 21
50.154700538379181
 31
0.0
  0
LINE
  5
103
  8
1
 62
     7
 10
-221.9298763402048
 20
66.999999999999972
 30
0.0
 11
-221.9298763402048
 21
50.154700538379181
 31
0.0
  0
LINE
  5
104
  8
1
 62
     7
 10
-244.9298763402048
 20
42.903408955466382
 30
0.0
 11
-244.9298763402048
 21
30.51229260478468
 31
0.0
  0
LINE
  5
105
  8
1
 62
     7
 10
-214.92987634020491
 20
42.903408955466382
 30
0.0
 11
-214.92987634020491
 21
30.51229260478468
 31
0.0
  0
LINE
  5
106
  8
1
 62
     7
 10
-241.92987634020491
 20
34.999999999999957
 30
0.0
 11
-217.9298763402048
 21
34.999999999999957
 31
0.0
  0
LINE
  5
107
  8
1
 62
     7
 10
-243.92987634020491
 20
36.999999999999957
 30
0.0
 11
-243.92987634020491
 21
44.381197846482991
 31
0.0
  0
LINE
  5
108
  8
1
 62
     7
 10
-242.9298763402048
 20
46.113248654051773
 30
0.0
 11
-238.9298763402048
 21
48.422649730810292
 31
0.0
  0
LINE
  5
109
  8
1
 62
     7
 10
-215.9298763402048
 20
36.999999999999957
 30
0.0
 11
-215.9298763402048
 21
44.381197846482991
 31
0.0
  0
LINE
  5
10A
  8
1
 62
     7
 10
-216.92987634020491
 20
46.113248654051773
 30
0.0
 11
-220.92987634020491
 21
48.422649730810292
 31
0.0
  0
LINE
  5
10B
  8
1
 62
     7
 10
-237.59987634020479
 20
42.199999999999982
 30
0.0
 11
-238.25987634020481
 21
42.199999999999982
 31
0.0
  0
LINE
  5
10C
  8
1
 62
     7
 10
-240.12987634020479
 20
40.32999999999997
 30
0.0
 11
-240.12987634020479
 21
39.66999999999998
 31
0.0
  0
LINE
  5
10D
  8
1
 62
     7
 10
-238.25987634020481
 20
37.799999999999969
 30
0.0
 11
-237.59987634020479
 21
37.799999999999969
 31
0.0
  0
LINE
  5
10E
  8
1
 62
     7
 10
-235.72987634020481
 20
39.66999999999998
 30
0.0
 11
-235.72987634020481
 21
40.32999999999997
 31
0.0
  0
LINE
  5
10F
  8
1
 62
     7
 10
-221.59987634020479
 20
42.199999999999982
 30
0.0
 11
-222.25987634020481
 21
42.199999999999982
 31
0.0
  0
LINE
  5
110
  8
1
 62
     7
 10
-224.12987634020479
 20
40.32999999999997
 30
0.0
 11
-224.12987634020479
 21
39.66999999999998
 31
0.0
  0
LINE
  5
111
  8
1
 62
     7
 10
-222.25987634020481
 20
37.799999999999969
 30
0.0
 11
-221.59987634020479
 21
37.799999999999969
 31
0.0
  0
LINE
  5
112
  8
1
 62
     7
 10
-219.72987634020481
 20
39.66999999999998
 30
0.0
 11
-219.72987634020481
 21
40.32999999999997
 31
0.0
  0
LINE
  5
113
  8
1
  6
DASHDOT
 62
     3
 10
-226.76519975968441
 20
0.0
 30
0.0
 11
-233.09455292072511
 21
0.0
 31
0.0
  0
LINE
  5
114
  8
1
  6
DASHDOT
 62
     3
 10
-229.9298763402048
 20
3.1646765805203931
 30
0.0
 11
-229.9298763402048
 21
-3.1646765805203931
 31
0.0
  0
LINE
  5
115
  8
1
  6
DASHDOT
 62
     3
 10
-225.3523158066748
 20
62.999999999999972
 30
0.0
 11
-234.5074368737348
 21
62.999999999999972
 31
0.0
  0
LINE
  5
116
  8
1
  6
DASHDOT
 62
     3
 10
-229.9298763402048
 20
67.577560533529976
 30
0.0
 11
-229.9298763402048
 21
58.422439466469967
 31
0.0
  0
LINE
  5
117
  8
1
  6
DASHDOT
 62
     3
 10
180.0164550939175
 20
0.0
 30
0.0
 11
173.6871019328768
 21
0.0
 31
0.0
  0
LINE
  5
118
  8
1
  6
DASHDOT
 62
     3
 10
176.85177851339711
 20
3.1646765805203931
 30
0.0
 11
176.85177851339711
 21
-3.1646765805203931
 31
0.0
  0
LINE
  5
119
  8
1
  6
DASHDOT
 62
     3
 10
181.92109915065149
 20
62.999999999999972
 30
0.0
 11
171.78245787614279
 21
62.999999999999972
 31
0.0
  0
LINE
  5
11A
  8
1
  6
DASHDOT
 62
     3
 10
176.85177851339711
 20
68.069320637254378
 30
0.0
 11
176.85177851339711
 21
57.930679362745593
 31
0.0
  0
LINE
  5
11B
  8
1
 62
     3
 10
58.5
 20
-46.0
 30
0.0
 11
58.5
 21
-50.0
 31
0.0
  0
ARC
  5
11C
  8
1
 62
     7
 10
170.85177851339711
 20
66.999999999999972
 30
0.0
 40
2.0
 50
90.0
 51
180.0
  0
ARC
  5
11D
  8
1
 62
     7
 10
182.85177851339711
 20
66.999999999999972
 30
0.0
 40
2.0
 50
0.0
 51
90.0
  0
ARC
  5
11E
  8
1
 62
     7
 10
-235.92987634020491
 20
66.999999999999972
 30
0.0
 40
2.0
 50
90.0
 51
180.0
  0
ARC
  5
11F
  8
1
 62
     7
 10
-223.9298763402048
 20
66.999999999999972
 30
0.0
 40
2.0
 50
0.0
 51
90.0
  0
ARC
  5
120
  8
1
 62
     7
 10
-241.92987634020491
 20
44.381197846482991
 30
0.0
 40
1.9999999999999181
 50
120.00000000000141
 51
180.0
  0
ARC
  5
121
  8
1
 62
     7
 10
-217.9298763402048
 20
44.381197846482991
 30
0.0
 40
2.0
 50
0.0
 51
59.999999999998643
  0
ARC
  5
122
  8
1
 62
     7
 10
-241.92987634020491
 20
36.999999999999957
 30
0.0
 40
2.0
 50
180.0
 51
270.0
  0
ARC
  5
123
  8
1
 62
     7
 10
-217.9298763402048
 20
36.999999999999957
 30
0.0
 40
2.0
 50
270.0
 51
0.0
  0
ARC
  5
124
  8
1
 62
     7
 10
-239.92987634020491
 20
50.154700538379181
 30
0.0
 40
2.0000000000000151
 50
299.99999999999972
 51
0.0
  0
ARC
  5
125
  8
1
 62
     7
 10
-219.9298763402048
 20
50.154700538379181
 30
0.0
 40
2.0
 50
180.0
 51
240.00000000000031
  0
ARC
  5
126
  8
1
 62
     7
 10
176.85177851339711
 20
0.0
 30
0.0
 40
15.0
 50
0.0
 51
76.506601178448278
  0
ARC
  5
127
  8
1
 62
     7
 10
176.85177851339711
 20
0.0
 30
0.0
 40
14.999999999999931
 50
270.0
 51
0.0
  0
ARC
  5
128
  8
1
 62
     7
 10
176.85177851339711
 20
0.0
 30
0.0
 40
14.999999999999931
 50
103.49339882155169
 51
270.0
  0
ARC
  5
129
  8
1
  6
DASHDOT
 62
     3
 10
176.85177851339711
 20
0.0
 30
0.0
 40
33.999999999999957
 50
150.4660678545244
 51
164.09959667756459
  0
ARC
  5
12A
  8
1
  6
DASHDOT
 62
     3
 10
176.85177851339711
 20
0.0
 30
0.0
 40
33.999999999999922
 50
166.88646144118599
 51
194.37433338661319
  0
ARC
  5
12B
  8
1
  6
DASHDOT
 62
     3
 10
176.85177851339711
 20
0.0
 30
0.0
 40
34.000000000000028
 50
254.8955883312415
 51
284.54117992046639
  0
ARC
  5
12C
  8
1
  6
DASHDOT
 62
     3
 10
176.85177851339711
 20
0.0
 30
0.0
 40
34.0
 50
347.68078954777701
 51
13.677662920981801
  0
ARC
  5
12D
  8
1
  6
DASHDOT
 62
     3
 10
176.85177851339711
 20
0.0
 30
0.0
 40
33.999999999999957
 50
76.595825358019198
 51
103.2587874546859
  0
ARC
  5
12E
  8
1
  6
DASHDOT
 62
     3
 10
176.85177851339711
 20
0.0
 30
0.0
 40
33.999999999999979
 50
329.95471969887092
 51
344.57278064684311
  0
ARC
  5
12F
  8
1
 62
     7
 10
-229.9298763402048
 20
0.0
 30
0.0
 40
15.0
 50
0.0
 51
76.506601178448278
  0
ARC
  5
130
  8
1
 62
     7
 10
-229.9298763402048
 20
0.0
 30
0.0
 40
14.999999999999931
 50
270.0
 51
0.0
  0
ARC
  5
131
  8
1
 62
     7
 10
-229.9298763402048
 20
0.0
 30
0.0
 40
14.999999999999931
 50
103.49339882155169
 51
270.0
  0
ARC
  5
132
  8
1
 62
     7
 10
-229.9298763402048
 20
0.0
 30
0.0
 40
45.44999999999996
 50
107.9405975433875
 51
0.0
  0
ARC
  5
133
  8
1
 62
     7
 10
-229.9298763402048
 20
0.0
 30
0.0
 40
45.45000000000001
 50
0.0
 51
72.05940245661256
  0
ARC
  5
134
  8
1
 62
     7
 10
-229.9298763402048
 20
0.0
 30
0.0
 40
49.999999999999908
 50
99.415426877574205
 51
0.0
  0
ARC
  5
135
  8
1
 62
     7
 10
-229.9298763402048
 20
0.0
 30
0.0
 40
50.0
 50
0.0
 51
80.584573122425795
  0
ARC
  5
136
  8
1
 62
     7
 10
-235.72987634020481
 20
42.199999999999982
 30
0.0
 40
1.869999999999975
 50
180.0
 51
270.0
  0
ARC
  5
137
  8
1
 62
     7
 10
-240.12987634020479
 20
42.199999999999982
 30
0.0
 40
1.870000000000011
 50
270.0
 51
0.0
  0
ARC
  5
138
  8
1
 62
     7
 10
-240.12987634020479
 20
37.799999999999969
 30
0.0
 40
1.869999999999975
 50
0.0
 51
90.0
  0
ARC
  5
139
  8
1
 62
     7
 10
-235.72987634020481
 20
37.799999999999969
 30
0.0
 40
1.8700000000000041
 50
90.0
 51
180.0
  0
ARC
  5
13A
  8
1
 62
     7
 10
-219.72987634020481
 20
42.199999999999982
 30
0.0
 40
1.869999999999975
 50
180.0
 51
270.0
  0
ARC
  5
13B
  8
1
 62
     7
 10
-224.12987634020479
 20
42.199999999999982
 30
0.0
 40
1.870000000000011
 50
270.0
 51
0.0
  0
ARC
  5
13C
  8
1
 62
     7
 10
-224.12987634020479
 20
37.799999999999969
 30
0.0
 40
1.869999999999975
 50
0.0
 51
90.0
  0
ARC
  5
13D
  8
1
 62
     7
 10
-219.72987634020481
 20
37.799999999999969
 30
0.0
 40
1.8700000000000041
 50
90.0
 51
180.0
  0
CIRCLE
  5
13E
  8
1
 62
     7
 10
12.575000000000021
 20
-27.0
 30
0.0
 40
4.1999999999999877
  0
CIRCLE
  5
13F
  8
1
 62
     7
 10
176.85177851339711
 20
0.0
 30
0.0
 40
50.0
  0
CIRCLE
  5
140
  8
1
 62
     7
 10
176.85177851339711
 20
0.0
 30
0.0
 40
45.45000000000001
  0
CIRCLE
  5
141
  8
1
 62
     7
 10
176.85177851339711
 20
0.0
 30
0.0
 40
42.0
  0
CIRCLE
  5
142
  8
1
 62
     7
 10
176.85177851339711
 20
0.0
 30
0.0
 40
25.0
  0
CIRCLE
  5
143
  8
1
 62
     7
 10
176.85177851339711
 20
33.999999999999957
 30
0.0
 40
3.25
  0
CIRCLE
  5
144
  8
1
  6
DASHED
 62
     7
 10
176.85177851339711
 20
33.999999999999957
 30
0.0
 40
6.5
  0
CIRCLE
  5
145
  8
1
  6
DASHED
 62
     7
 10
176.85177851339711
 20
-34.0
 30
0.0
 40
6.5
  0
CIRCLE
  5
146
  8
1
 62
     7
 10
176.85177851339711
 20
-34.0
 30
0.0
 40
3.25
  0
CIRCLE
  5
147
  8
1
  6
DASHED
 62
     7
 10
142.85177851339711
 20
0.0
 30
0.0
 40
6.5
  0
CIRCLE
  5
148
  8
1
 62
     7
 10
142.85177851339711
 20
0.0
 30
0.0
 40
3.25
  0
CIRCLE
  5
149
  8
1
  6
DASHED
 62
     7
 10
210.85177851339719
 20
0.0
 30
0.0
 40
6.5
  0
CIRCLE
  5
14A
  8
1
 62
     7
 10
210.85177851339719
 20
0.0
 30
0.0
 40
3.25
  0
CIRCLE
  5
14B
  8
1
 62
     7
 10
176.85177851339711
 20
62.999999999999972
 30
0.0
 40
2.75
  0
CIRCLE
  5
14C
  8
1
 62
     7
 10
200.8934090737398
 20
24.041630560342579
 30
0.0
 40
4.5
  0
CIRCLE
  5
14D
  8
1
 62
     7
 10
200.8934090737398
 20
24.041630560342579
 30
0.0
 40
4.9999999999996856
  0
CIRCLE
  5
14E
  8
1
 62
     7
 10
152.81014795305461
 20
-24.041630560342629
 30
0.0
 40
4.5000000000000853
  0
CIRCLE
  5
14F
  8
1
 62
     7
 10
152.81014795305461
 20
-24.041630560342629
 30
0.0
 40
4.9999999999996021
  0
CIRCLE
  5
150
  8
1
 62
     7
 10
152.81014795305461
 20
24.041630560342579
 30
0.0
 40
4.5
  0
CIRCLE
  5
151
  8
1
 62
     7
 10
152.81014795305461
 20
24.041630560342579
 30
0.0
 40
4.9999999999996021
  0
CIRCLE
  5
152
  8
1
 62
     7
 10
200.8934090737398
 20
-24.041630560342629
 30
0.0
 40
4.5
  0
CIRCLE
  5
153
  8
1
 62
     7
 10
200.8934090737398
 20
-24.041630560342629
 30
0.0
 40
4.9999999999996856
  0
CIRCLE
  5
154
  8
1
 62
     7
 10
208.26368261878099
 20
-13.01123670041312
 30
0.0
 40
2.9000000000000061
  0
CIRCLE
  5
155
  8
1
 62
     7
 10
145.43987440801351
 20
13.01123670041294
 30
0.0
 40
2.8999999999999759
  0
CIRCLE
  5
156
  8
1
 62
     7
 10
12.575000000000021
 20
26.99999999999989
 30
0.0
 40
4.1999999999999877
  0
CIRCLE
  5
157
  8
1
 62
     7
 10
-229.9298763402048
 20
62.999999999999972
 30
0.0
 40
2.75
  0
CIRCLE
  5
158
  8
1
 62
     7
 10
-229.9298763402048
 20
0.0
 30
0.0
 40
20.0
  0
CIRCLE
  5
159
  8
1
 62
     7
 10
-229.9298763402048
 20
0.0
 30
0.0
 40
33.999999999999922
  0
CIRCLE
  5
15A
  8
1
 62
     7
 10
-237.92987634020491
 20
39.999999999999957
 30
0.0
 40
4.0
  0
CIRCLE
  5
15B
  8
1
 62
     7
 10
-221.9298763402048
 20
39.999999999999957
 30
0.0
 40
4.0
  0
CIRCLE
  5
15C
  8
1
 62
     7
 10
176.85177851339711
 20
0.0
 30
0.0
 40
20.0
  0
TEXT
  5
15E
  8
1
 62
     7
 10
-244.5342459203591
 20
129.25110376470539
 30
0.0
 40
6.0
  1
MZ 10
 41
0.9
  7
SIMPLEX
  0
ENDSEC
  0
EOF
