  0
SECTION
  2
HEADER
  9
$ACADVER
  1
AC1009
  9
$INSBASE
 10
0.0
 20
0.0
 30
0.0
  9
$EXTMIN
 10
-407.87354532758911
 20
-87.5
 30
0.0
  9
$EXTMAX
 10
355.86944793443661
 20
167.3345970215837
 30
0.0
  9
$LIMMIN
 10
-407.87354532758911
 20
-87.5
  9
$LIMMAX
 10
355.86944793443672
 20
167.3345970215837
  9
$ORTHOMODE
 70
     0
  9
$REGENMODE
 70
     1
  9
$FILLMODE
 70
     1
  9
$QTEXTMODE
 70
     0
  9
$MIRRTEXT
 70
     1
  9
$DRAGMODE
 70
     2
  9
$LTSCALE
 40
1.0
  9
$OSMODE
 70
    37
  9
$ATTMODE
 70
     1
  9
$TEXTSIZE
 40
3.5
  9
$TRACEWID
 40
0.5
  9
$TEXTSTYLE
  7
STANDARD
  9
$CLAYER
  8
0
  9
$CELTYPE
  6
BYLAYER
  9
$CECOLOR
 62
   256
  9
$DIMSCALE
 40
1.0
  9
$DIMASZ
 40
0.18
  9
$DIMEXO
 40
0.0625
  9
$DIMDLI
 40
0.38
  9
$DIMRND
 40
0.0
  9
$DIMDLE
 40
0.0
  9
$DIMEXE
 40
0.18
  9
$DIMTP
 40
0.0
  9
$DIMTM
 40
0.0
  9
$DIMTXT
 40
0.18
  9
$DIMCEN
 40
0.09
  9
$DIMTSZ
 40
0.0
  9
$DIMTOL
 70
     0
  9
$DIMLIM
 70
     0
  9
$DIMTIH
 70
     1
  9
$DIMTOH
 70
     1
  9
$DIMSE1
 70
     0
  9
$DIMSE2
 70
     0
  9
$DIMTAD
 70
     0
  9
$DIMZIN
 70
     0
  9
$DIMBLK
  1

  9
$DIMASO
 70
     1
  9
$DIMSHO
 70
     1
  9
$DIMPOST
  1

  9
$DIMAPOST
  1

  9
$DIMALT
 70
     0
  9
$DIMALTD
 70
     2
  9
$DIMALTF
 40
25.399999999999999
  9
$DIMLFAC
 40
1.0
  9
$DIMTOFL
 70
     0
  9
$DIMTVP
 40
0.0
  9
$DIMTIX
 70
     0
  9
$DIMSOXD
 70
     0
  9
$DIMSAH
 70
     0
  9
$DIMBLK1
  1

  9
$DIMBLK2
  1

  9
$DIMSTYLE
  2
STANDARD
  9
$DIMCLRD
 70
     0
  9
$DIMCLRE
 70
     0
  9
$DIMCLRT
 70
     0
  9
$DIMTFAC
 40
1.0
  9
$DIMGAP
 40
0.09
  9
$LUNITS
 70
     2
  9
$LUPREC
 70
     4
  9
$SKETCHINC
 40
0.1
  9
$FILLETRAD
 40
2.0
  9
$AUNITS
 70
     0
  9
$AUPREC
 70
     0
  9
$MENU
  1
ACAD
  9
$ELEVATION
 40
0.0
  9
$PELEVATION
 40
0.0
  9
$THICKNESS
 40
0.0
  9
$LIMCHECK
 70
     0
  9
$BLIPMODE
 70
     0
  9
$CHAMFERA
 40
0.0
  9
$CHAMFERB
 40
0.0
  9
$SKPOLY
 70
     0
  9
$TDCREATE
 40
2452095.0845750002
  9
$TDUPDATE
 40
2452095.0851878468
  9
$TDINDWG
 40
0.0006293981
  9
$TDUSRTIMER
 40
0.0006293981
  9
$USRTIMER
 70
     1
  9
$ANGBASE
 50
0.0
  9
$ANGDIR
 70
     0
  9
$PDMODE
 70
     0
  9
$PDSIZE
 40
0.0
  9
$PLINEWID
 40
0.0
  9
$COORDS
 70
     1
  9
$SPLFRAME
 70
     0
  9
$SPLINETYPE
 70
     6
  9
$SPLINESEGS
 70
     8
  9
$ATTDIA
 70
     0
  9
$ATTREQ
 70
     1
  9
$HANDLING
 70
 10241
  9
$HANDSEED
  5
12C
  9
$SURFTAB1
 70
     6
  9
$SURFTAB2
 70
     6
  9
$SURFTYPE
 70
     6
  9
$SURFU
 70
     6
  9
$SURFV
 70
     6
  9
$UCSNAME
  2

  9
$UCSORG
 10
0.0
 20
0.0
 30
0.0
  9
$UCSXDIR
 10
1.0
 20
0.0
 30
0.0
  9
$UCSYDIR
 10
0.0
 20
1.0
 30
0.0
  9
$PUCSNAME
  2

  9
$PUCSORG
 10
0.0
 20
0.0
 30
0.0
  9
$PUCSXDIR
 10
1.0
 20
0.0
 30
0.0
  9
$PUCSYDIR
 10
0.0
 20
1.0
 30
0.0
  9
$USERI1
 70
     0
  9
$USERI2
 70
     0
  9
$USERI3
 70
     0
  9
$USERI4
 70
     0
  9
$USERI5
 70
     0
  9
$USERR1
 40
0.0
  9
$USERR2
 40
0.0
  9
$USERR3
 40
0.0
  9
$USERR4
 40
0.0
  9
$USERR5
 40
0.0
  9
$WORLDVIEW
 70
     1
  9
$SHADEDGE
 70
     3
  9
$SHADEDIF
 70
    70
  9
$TILEMODE
 70
     1
  9
$MAXACTVP
 70
    64
  9
$PLIMCHECK
 70
     0
  9
$PEXTMIN
 10
1.0000000000000000E+020
 20
1.0000000000000000E+020
 30
1.0000000000000000E+020
  9
$PEXTMAX
 10
-1.0000000000000000E+020
 20
-1.0000000000000000E+020
 30
-1.0000000000000000E+020
  9
$PLIMMIN
 10
0.0
 20
0.0
  9
$PLIMMAX
 10
12.0
 20
9.0
  9
$UNITMODE
 70
     0
  9
$VISRETAIN
 70
     1
  9
$PLINEGEN
 70
     0
  9
$PSLTSCALE
 70
     1
  0
ENDSEC
  0
SECTION
  2
TABLES
  0
TABLE
  2
VPORT
 70
     2
  0
VPORT
  2
*ACTIVE
 70
     0
 10
0.0
 20
0.0
 11
1.0
 21
1.0
 12
-333.4410276836125
 22
144.77967673881619
 13
0.0
 23
0.0
 14
1.0
 24
1.0
 15
0.0
 25
0.0
 16
0.0
 26
0.0
 36
1.0
 17
0.0
 27
0.0
 37
0.0
 40
8.9999998873499862
 41
2.4144144144144142
 42
50.0
 43
0.0
 44
0.0
 50
0.0
 51
0.0
 71
     0
 72
   100
 73
     1
 74
     1
 75
     0
 76
     0
 77
     0
 78
     0
  0
ENDTAB
  0
TABLE
  2
LTYPE
 70
     9
  0
LTYPE
  2
CONTINUOUS
 70
     0
  3
Solid line
 72
    65
 73
     0
 40
0.0
  0
LTYPE
  2
BORDER
 70
     0
  3
__ __ . __ __ .
 72
    65
 73
     6
 40
35.172374689698557
 49
10.04924991134245
 49
-5.0246249556712206
 49
10.04924991134245
 49
-5.0246249556712206
 49
0.0
 49
-5.0246249556712206
  0
LTYPE
  2
CENTER
 70
     0
  3
____ _ ____ _
 72
    65
 73
     4
 40
40.196999645369779
 49
25.1231247783561
 49
-5.0246249556712206
 49
5.0246249556712206
 49
-5.0246249556712206
  0
LTYPE
  2
DASHDOT
 70
     0
  3
__ . __ . __ .
 72
    65
 73
     4
 40
20.098499822684889
 49
10.04924991134245
 49
-5.0246249556712206
 49
0.0
 49
-5.0246249556712206
  0
LTYPE
  2
DASHED
 70
     0
  3
__ __ __ __ __
 72
    65
 73
     2
 40
15.073874867013661
 49
10.04924991134245
 49
-5.0246249556712206
  0
LTYPE
  2
DIVIDE
 70
     0
  3
__ . . __ . . 
 72
    65
 73
     6
 40
25.1231247783561
 49
10.04924991134245
 49
-5.0246249556712206
 49
0.0
 49
-5.0246249556712206
 49
0.0
 49
-5.0246249556712206
  0
LTYPE
  2
DOT
 70
     0
  3
..............
 72
    65
 73
     4
 40
10.04924991134245
 49
0.0
 49
-5.0246249556712206
 49
0.0
 49
-5.0246249556712206
  0
LTYPE
  2
HIDDEN
 70
     0
  3
_ _ _ _ _ _ _
 72
    65
 73
     2
 40
7.536937433506834
 49
5.0246249556712206
 49
-2.5123124778356098
  0
LTYPE
  2
PHANTOM
 70
     0
  3
_____ _ _ _____ _ _ 
 72
    65
 73
     6
 40
50.246249556712208
 49
25.1231247783561
 49
-5.0246249556712206
 49
5.0246249556712206
 49
-5.0246249556712206
 49
5.0246249556712206
 49
-5.0246249556712206
  0
ENDTAB
  0
TABLE
  2
LAYER
 70
     2
  0
LAYER
  2
0
 70
     0
 62
     7
  6
CONTINUOUS
  0
LAYER
  2
1
 70
     0
 62
     7
  6
CONTINUOUS
  0
ENDTAB
  0
TABLE
  2
STYLE
 70
     4
  0
STYLE
  2
STANDARD
 70
     0
 40
0.0
 41
1.0
 50
0.0
 71
     0
 42
3.5
  3
txt
  4

  0
STYLE
  2
SIMPLEX
 70
     0
 40
0.0
 41
1.0
 50
0.0
 71
     0
 42
3.5
  3
simplex
  4

  0
STYLE
  2
COMPLEX
 70
     0
 40
0.0
 41
1.0
 50
0.0
 71
     0
 42
3.5
  3
complex
  4

  0
STYLE
  2
ITALIC
 70
     0
 40
0.0
 41
1.0
 50
0.0
 71
     0
 42
3.5
  3
italic
  4

  0
ENDTAB
  0
TABLE
  2
VIEW
 70
     0
  0
ENDTAB
  0
TABLE
  2
UCS
 70
     0
  0
ENDTAB
  0
TABLE
  2
APPID
 70
     1
  0
APPID
  2
ACAD
 70
     0
  0
ENDTAB
  0
TABLE
  2
DIMSTYLE
 70
     1
  0
DIMSTYLE
  2
STANDARD
 70
     0
  3

  4

  5

  6

  7

 40
1.0
 41
0.18
 42
0.0625
 43
0.38
 44
0.18
 45
0.0
 46
0.0
 47
0.0
 48
0.0
140
0.18
141
0.09
142
0.0
143
25.399999999999999
144
1.0
145
0.0
146
1.0
147
0.09
 71
     0
 72
     0
 73
     1
 74
     1
 75
     0
 76
     0
 77
     0
 78
     0
170
     0
171
     2
172
     0
173
     0
174
     0
175
     0
176
     0
177
     0
178
     0
  0
ENDTAB
  0
ENDSEC
  0
SECTION
  2
BLOCKS
  0
BLOCK
  8
0
  2
$MODEL_SPACE
 70
     0
 10
0.0
 20
0.0
 30
0.0
  3
$MODEL_SPACE
  1

  0
ENDBLK
  5
20
  8
0
  0
BLOCK
 67
     1
  8
0
  2
$PAPER_SPACE
 70
     0
 10
0.0
 20
0.0
 30
0.0
  3
$PAPER_SPACE
  1

  0
ENDBLK
  5
1C
 67
     1
  8
0
  0
ENDSEC
  0
SECTION
  2
ENTITIES
  0
LINE
  5
33
  8
1
 62
     7
 10
-322.07354532758899
 20
76.987383686421325
 30
0.0
 11
-322.07354532758899
 21
117.5977617181717
 31
0.0
  0
LINE
  5
34
  8
1
 62
     7
 10
-320.37354532758911
 20
77.003899530839135
 30
0.0
 11
-320.37354532758911
 21
117.5977617181717
 31
0.0
  0
LINE
  5
35
  8
1
 62
     7
 10
-318.67354532758901
 20
117.5977617181717
 30
0.0
 11
-318.67354532758901
 21
76.987383686421325
 31
0.0
  0
LINE
  5
36
  8
1
 62
     7
 10
-321.8235453275891
 20
117.5977617181717
 30
0.0
 11
-321.8235453275891
 21
120.7091747893556
 31
0.0
  0
LINE
  5
37
  8
1
 62
     7
 10
-321.52354532758892
 20
120.7091747893556
 30
0.0
 11
-321.52354532758892
 21
117.5977617181717
 31
0.0
  0
LINE
  5
38
  8
1
 62
     7
 10
-321.22354532758908
 20
117.5977617181717
 30
0.0
 11
-321.22354532758908
 21
120.7091747893556
 31
0.0
  0
LINE
  5
39
  8
1
 62
     7
 10
-320.92354532758912
 20
120.7091747893556
 30
0.0
 11
-320.92354532758912
 21
117.5977617181717
 31
0.0
  0
LINE
  5
3A
  8
1
 62
     7
 10
-320.623545327589
 20
117.5977617181717
 30
0.0
 11
-320.623545327589
 21
120.7091747893556
 31
0.0
  0
LINE
  5
3B
  8
1
 62
     7
 10
-322.07354532758899
 20
117.5977617181717
 30
0.0
 11
-320.37354532758911
 21
117.5977617181717
 31
0.0
  0
LINE
  5
3C
  8
1
 62
     7
 10
-320.12354532758911
 20
117.5977617181717
 30
0.0
 11
-320.12354532758911
 21
120.7091747893556
 31
0.0
  0
LINE
  5
3D
  8
1
 62
     7
 10
-319.82354532758899
 20
120.7091747893556
 30
0.0
 11
-319.82354532758899
 21
117.5977617181717
 31
0.0
  0
LINE
  5
3E
  8
1
 62
     7
 10
-319.52354532758892
 20
117.5977617181717
 30
0.0
 11
-319.52354532758892
 21
120.7091747893556
 31
0.0
  0
LINE
  5
3F
  8
1
 62
     7
 10
-319.22354532758908
 20
120.7091747893556
 30
0.0
 11
-319.22354532758908
 21
117.5977617181717
 31
0.0
  0
LINE
  5
40
  8
1
 62
     7
 10
-318.92354532758901
 20
117.5977617181717
 30
0.0
 11
-318.92354532758901
 21
120.7091747893556
 31
0.0
  0
LINE
  5
41
  8
1
 62
     7
 10
-320.37354532758911
 20
117.5977617181717
 30
0.0
 11
-318.67354532758901
 21
117.5977617181717
 31
0.0
  0
LINE
  5
42
  8
1
 62
     7
 10
266.66944793443662
 20
87.483484155582204
 30
0.0
 11
266.66944793443662
 21
117.5977617181717
 31
0.0
  0
LINE
  5
43
  8
1
 62
     7
 10
269.81944793443671
 20
120.7091747893556
 30
0.0
 11
269.81944793443671
 21
117.5977617181717
 31
0.0
  0
LINE
  5
44
  8
1
 62
     7
 10
269.51944793443653
 20
117.5977617181717
 30
0.0
 11
269.51944793443653
 21
120.7091747893556
 31
0.0
  0
LINE
  5
45
  8
1
 62
     7
 10
269.21944793443669
 20
120.7091747893556
 30
0.0
 11
269.21944793443669
 21
117.5977617181717
 31
0.0
  0
LINE
  5
46
  8
1
 62
     7
 10
268.91944793443662
 20
117.5977617181717
 30
0.0
 11
268.91944793443662
 21
120.7091747893556
 31
0.0
  0
LINE
  5
47
  8
1
 62
     7
 10
268.61944793443661
 20
120.7091747893556
 30
0.0
 11
268.61944793443661
 21
117.5977617181717
 31
0.0
  0
LINE
  5
48
  8
1
 62
     7
 10
268.36944793443661
 20
117.5977617181717
 30
0.0
 11
270.06944793443671
 21
117.5977617181717
 31
0.0
  0
LINE
  5
49
  8
1
 62
     7
 10
270.06944793443671
 20
117.5977617181717
 30
0.0
 11
270.06944793443671
 21
87.483484155582204
 31
0.0
  0
LINE
  5
4A
  8
1
 62
     7
 10
268.36944793443661
 20
117.5977617181717
 30
0.0
 11
268.36944793443661
 21
87.5
 31
0.0
  0
LINE
  5
4B
  8
1
 62
     7
 10
268.11944793443661
 20
120.7091747893556
 30
0.0
 11
268.11944793443661
 21
117.5977617181717
 31
0.0
  0
LINE
  5
4C
  8
1
 62
     7
 10
267.81944793443648
 20
117.5977617181717
 30
0.0
 11
267.81944793443648
 21
120.7091747893556
 31
0.0
  0
LINE
  5
4D
  8
1
 62
     7
 10
267.51944793443653
 20
120.7091747893556
 30
0.0
 11
267.51944793443653
 21
117.5977617181717
 31
0.0
  0
LINE
  5
4E
  8
1
 62
     7
 10
267.21944793443669
 20
117.5977617181717
 30
0.0
 11
267.21944793443669
 21
120.7091747893556
 31
0.0
  0
LINE
  5
4F
  8
1
 62
     7
 10
266.91944793443662
 20
120.7091747893556
 30
0.0
 11
266.91944793443662
 21
117.5977617181717
 31
0.0
  0
LINE
  5
50
  8
1
 62
     7
 10
266.66944793443662
 20
117.5977617181717
 30
0.0
 11
268.36944793443661
 21
117.5977617181717
 31
0.0
  0
LINE
  5
51
  8
1
 62
     7
 10
9.1500000000000341
 20
77.0
 30
0.0
 11
9.1500000000000341
 21
117.5977617181717
 31
0.0
  0
LINE
  5
52
  8
1
 62
     7
 10
10.85000000000001
 20
117.5977617181717
 30
0.0
 11
10.85000000000001
 21
77.0
 31
0.0
  0
LINE
  5
53
  8
1
 62
     7
 10
10.600000000000019
 20
120.7091747893556
 30
0.0
 11
10.600000000000019
 21
117.5977617181717
 31
0.0
  0
LINE
  5
54
  8
1
 62
     7
 10
10.300000000000001
 20
117.5977617181717
 30
0.0
 11
10.300000000000001
 21
120.7091747893556
 31
0.0
  0
LINE
  5
55
  8
1
 62
     7
 10
10.0
 20
120.7091747893556
 30
0.0
 11
10.0
 21
117.5977617181717
 31
0.0
  0
LINE
  5
56
  8
1
 62
     7
 10
9.6999999999999886
 20
117.5977617181717
 30
0.0
 11
9.6999999999999886
 21
120.7091747893556
 31
0.0
  0
LINE
  5
57
  8
1
 62
     7
 10
9.4000000000000341
 20
120.7091747893556
 30
0.0
 11
9.4000000000000341
 21
117.5977617181717
 31
0.0
  0
LINE
  5
58
  8
1
 62
     7
 10
9.1500000000000341
 20
117.5977617181717
 30
0.0
 11
10.85000000000001
 21
117.5977617181717
 31
0.0
  0
LINE
  5
59
  8
1
 62
     7
 10
-170.32275432613881
 20
120.7091747893556
 30
0.0
 11
-170.32275432613881
 21
117.5977617181717
 31
0.0
  0
LINE
  5
5A
  8
1
 62
     7
 10
-170.6227543261389
 20
117.5977617181717
 30
0.0
 11
-170.6227543261389
 21
120.7091747893556
 31
0.0
  0
LINE
  5
5B
  8
1
 62
     7
 10
-170.9227543261388
 20
120.7091747893556
 30
0.0
 11
-170.9227543261388
 21
117.5977617181717
 31
0.0
  0
LINE
  5
5C
  8
1
 62
     7
 10
-171.22275432613881
 20
117.5977617181717
 30
0.0
 11
-171.22275432613881
 21
120.7091747893556
 31
0.0
  0
LINE
  5
5D
  8
1
 62
     7
 10
-171.52275432613891
 20
120.7091747893556
 30
0.0
 11
-171.52275432613891
 21
117.5977617181717
 31
0.0
  0
LINE
  5
5E
  8
1
 62
     7
 10
-170.07275432613881
 20
117.5977617181717
 30
0.0
 11
-170.07275432613881
 21
77.0
 31
0.0
  0
LINE
  5
5F
  8
1
 62
     7
 10
-171.77275432613891
 20
117.5977617181717
 30
0.0
 11
-170.07275432613881
 21
117.5977617181717
 31
0.0
  0
LINE
  5
60
  8
1
 62
     7
 10
-171.77275432613891
 20
77.0
 30
0.0
 11
-171.77275432613891
 21
117.5977617181717
 31
0.0
  0
LINE
  5
61
  8
1
 62
     7
 10
-327.87354532758911
 20
29.047375096555619
 30
0.0
 11
-327.87354532758911
 21
35.0
 31
0.0
  0
LINE
  5
62
  8
1
 62
     7
 10
-312.87354532758911
 20
35.0
 30
0.0
 11
-312.87354532758911
 21
29.047375096555619
 31
0.0
  0
LINE
  5
63
  8
1
 62
     7
 10
-327.87354532758911
 20
35.0
 30
0.0
 11
-312.87354532758911
 21
35.0
 31
0.0
  0
LINE
  5
64
  8
1
  6
DASHDOT
 62
     3
 10
268.36944793443661
 20
4.7965426106379692
 30
0.0
 11
268.36944793443661
 21
-4.7965426106379709
 31
0.0
  0
LINE
  5
65
  8
1
  6
DASHDOT
 62
     3
 10
273.16599054507452
 20
0.0
 30
0.0
 11
263.57290532379858
 21
0.0
 31
0.0
  0
LINE
  5
66
  8
1
  6
DASHDOT
 62
     3
 10
-320.37354532758911
 20
8.0693715730287572
 30
0.0
 11
-320.37354532758911
 21
-8.0693715730287607
 31
0.0
  0
LINE
  5
67
  8
1
  6
DASHDOT
 62
     3
 10
-312.30417375456028
 20
0.0
 30
0.0
 11
-328.44291690061789
 21
0.0
 31
0.0
  0
LINE
  5
68
  8
1
  6
DASHDOT
 62
     3
 10
-268.22536795963339
 20
52.14817736795564
 30
0.0
 11
-276.00715591558247
 21
44.366389412006541
 31
0.0
  0
LINE
  5
69
  8
1
  6
DASHDOT
 62
     3
 10
-268.22536795963339
 20
-52.148177367955668
 30
0.0
 11
-276.00715591558247
 21
-44.366389412006583
 31
0.0
  0
LINE
  5
6A
  8
1
 62
     7
 10
-150.9227543261388
 20
87.5
 30
0.0
 11
-150.9227543261388
 21
-87.5
 31
0.0
  0
LINE
  5
6B
  8
1
 62
     7
 10
-55.922754326138879
 20
87.5
 30
0.0
 11
-55.922754326138879
 21
-87.5
 31
0.0
  0
LINE
  5
6C
  8
1
 62
     7
 10
-53.922754326138893
 20
-79.5
 30
0.0
 11
-55.922754326138879
 21
-79.5
 31
0.0
  0
LINE
  5
6D
  8
1
 62
     7
 10
-53.922754326138893
 20
79.5
 30
0.0
 11
-55.922754326138879
 21
79.5
 31
0.0
  0
LINE
  5
6E
  8
1
 62
     7
 10
-91.222754326138883
 20
87.5
 30
0.0
 11
-91.222754326138883
 21
-87.5
 31
0.0
  0
LINE
  5
6F
  8
1
 62
     3
 10
-93.072754326138877
 20
87.5
 30
0.0
 11
-93.072754326138877
 21
-87.499999972316076
 31
0.0
  0
LINE
  5
70
  8
1
 62
     3
 10
-89.072754326138892
 20
87.5
 30
0.0
 11
-89.072754326138892
 21
-87.499999999999986
 31
0.0
  0
LINE
  5
71
  8
1
 62
     7
 10
-90.922754326138858
 20
-87.5
 30
0.0
 11
-90.922754326138858
 21
87.5
 31
0.0
  0
LINE
  5
72
  8
1
 62
     3
 10
-180.92275432613889
 20
0.0
 30
0.0
 11
-186.1722593253908
 21
0.0
 31
0.0
  0
LINE
  5
73
  8
1
 62
     3
 10
-50.922754326138879
 20
0.0
 30
0.0
 11
-44.208637667990892
 21
0.0
 31
0.0
  0
LINE
  5
74
  8
1
 62
     7
 10
-180.92275432613889
 20
-30.0
 30
0.0
 11
-180.92275432613889
 21
-31.0
 31
0.0
  0
LINE
  5
75
  8
1
 62
     7
 10
-50.922754326138879
 20
-70.0
 30
0.0
 11
-53.922754326138893
 21
-70.0
 31
0.0
  0
LINE
  5
76
  8
1
 62
     7
 10
-53.922754326138893
 20
-79.5
 30
0.0
 11
-53.922754326138893
 21
79.5
 31
0.0
  0
LINE
  5
77
  8
1
 62
     7
 10
-55.922754326138879
 20
-87.5
 30
0.0
 11
-90.922754326138858
 21
-87.5
 31
0.0
  0
LINE
  5
78
  8
1
 62
     7
 10
-153.9227543261388
 20
-84.500000000000014
 30
0.0
 11
-150.9227543261388
 21
-87.5
 31
0.0
  0
LINE
  5
79
  8
1
 62
     7
 10
-91.222754326138883
 20
-87.5
 30
0.0
 11
-150.9227543261388
 21
-87.5
 31
0.0
  0
LINE
  5
7A
  8
1
 62
     7
 10
-153.9227543261388
 20
-84.500000000000014
 30
0.0
 11
-153.9227543261388
 21
84.500000000000014
 31
0.0
  0
LINE
  5
7B
  8
1
 62
     7
 10
-180.92275432613889
 20
-77.0
 30
0.0
 11
-153.9227543261388
 21
-77.0
 31
0.0
  0
LINE
  5
7C
  8
1
 62
     7
 10
-180.92275432613889
 20
31.0
 30
0.0
 11
-180.92275432613889
 21
30.0
 31
0.0
  0
LINE
  5
7D
  8
1
 62
     7
 10
-50.922754326138879
 20
70.0
 30
0.0
 11
-50.922754326138879
 21
-70.0
 31
0.0
  0
LINE
  5
7E
  8
1
 62
     7
 10
-50.922754326138879
 20
45.0
 30
0.0
 11
-50.922754326138879
 21
46.0
 31
0.0
  0
LINE
  5
7F
  8
1
 62
     7
 10
-53.922754326138893
 20
70.0
 30
0.0
 11
-50.922754326138879
 21
70.0
 31
0.0
  0
LINE
  5
80
  8
1
 62
     7
 10
-90.922754326138858
 20
87.5
 30
0.0
 11
-55.922754326138879
 21
87.5
 31
0.0
  0
LINE
  5
81
  8
1
 62
     7
 10
-180.92275432613889
 20
77.0
 30
0.0
 11
-180.92275432613889
 21
-77.0
 31
0.0
  0
LINE
  5
82
  8
1
 62
     7
 10
-150.9227543261388
 20
87.5
 30
0.0
 11
-153.9227543261388
 21
84.500000000000014
 31
0.0
  0
LINE
  5
83
  8
1
 62
     7
 10
-150.9227543261388
 20
87.5
 30
0.0
 11
-91.222754326138883
 21
87.5
 31
0.0
  0
LINE
  5
84
  8
1
 62
     7
 10
-180.92275432613889
 20
77.0
 30
0.0
 11
-153.9227543261388
 21
77.0
 31
0.0
  0
LINE
  5
85
  8
1
 62
     7
 10
90.000000000000057
 20
-77.500000027683924
 30
0.0
 11
91.950000000000102
 21
-77.500000027683924
 31
0.0
  0
LINE
  5
86
  8
1
 62
     3
 10
91.850000000000037
 20
-77.500000027683924
 30
0.0
 11
91.850000000000037
 21
-87.5
 31
0.0
  0
LINE
  5
87
  8
1
 62
     7
 10
90.000000000000057
 20
-87.5
 30
0.0
 11
90.000000000000057
 21
-77.500000027683924
 31
0.0
  0
LINE
  5
88
  8
1
 62
     7
 10
89.600000000000065
 20
-77.5
 30
0.0
 11
89.600000000000065
 21
-87.5
 31
0.0
  0
LINE
  5
89
  8
1
 62
     3
 10
87.750000000000114
 20
-87.5
 30
0.0
 11
87.750000000000114
 21
-77.5
 31
0.0
  0
LINE
  5
8A
  8
1
 62
     3
 10
87.750000000000114
 20
77.5
 30
0.0
 11
87.750000000000114
 21
87.5
 31
0.0
  0
LINE
  5
8B
  8
1
 62
     3
 10
91.850000000000037
 20
87.5
 30
0.0
 11
91.850000000000037
 21
77.500000027683924
 31
0.0
  0
LINE
  5
8C
  8
1
 62
     7
 10
90.000000000000057
 20
77.500000027683924
 30
0.0
 11
90.000000000000057
 21
87.5
 31
0.0
  0
LINE
  5
8D
  8
1
 62
     7
 10
89.600000000000065
 20
87.5
 30
0.0
 11
89.600000000000065
 21
77.5
 31
0.0
  0
LINE
  5
8E
  8
1
 62
     7
 10
91.950000000000102
 20
77.500000027683924
 30
0.0
 11
90.000000000000057
 21
77.500000027683924
 31
0.0
  0
LINE
  5
8F
  8
1
 62
     7
 10
86.000000000000057
 20
77.5
 30
0.0
 11
89.600000000000065
 21
77.5
 31
0.0
  0
LINE
  5
90
  8
1
 62
     3
 10
0.0
 20
0.0
 30
0.0
 11
-5.2495049992519958
 21
0.0
 31
0.0
  0
LINE
  5
91
  8
1
 62
     3
 10
130.0
 20
0.0
 30
0.0
 11
136.71411665814799
 21
0.0
 31
0.0
  0
LINE
  5
92
  8
1
 62
     7
 10
0.0
 20
35.0
 30
0.0
 11
90.000000000000057
 21
35.0
 31
0.0
  0
LINE
  5
93
  8
1
  6
DASHDOT
 62
     3
 10
268.36944793443661
 20
71.2545123283046
 30
0.0
 11
268.36944793443661
 21
47.358277379755599
 31
0.0
  0
LINE
  5
94
  8
1
  6
DASHDOT
 62
     3
 10
268.36944793443661
 20
-72.166481633239584
 30
0.0
 11
268.36944793443661
 21
-47.44124647571121
 31
0.0
  0
LINE
  5
95
  8
1
  6
DASHDOT
 62
     3
 10
196.32631857098681
 20
0.0
 30
0.0
 11
221.45732246475171
 21
0.0
 31
0.0
  0
LINE
  5
96
  8
1
  6
DASHDOT
 62
     3
 10
315.04458917269471
 20
0.0
 30
0.0
 11
341.12604758888972
 21
0.0
 31
0.0
  0
LINE
  5
97
  8
1
  6
DASHDOT
 62
     3
 10
207.09342391034869
 20
-25.381360199076848
 30
0.0
 11
221.26565962116911
 21
-19.511027958506691
 31
0.0
  0
LINE
  5
98
  8
1
  6
DASHDOT
 62
     3
 10
316.02670352220719
 20
19.74028160993555
 30
0.0
 11
330.18030581063312
 21
25.60289563423644
 31
0.0
  0
LINE
  5
99
  8
1
  6
DASHDOT
 62
     3
 10
301.44639632548439
 20
-33.076948391047821
 30
0.0
 11
319.20572816568131
 21
-50.836280231244793
 31
0.0
  0
LINE
  5
9A
  8
1
  6
DASHDOT
 62
     3
 10
235.2924995433888
 20
-33.076948391047821
 30
0.0
 11
217.53316770319191
 21
-50.836280231244679
 31
0.0
  0
LINE
  5
9B
  8
1
  6
DASHDOT
 62
     3
 10
235.2924995433888
 20
33.076948391047743
 30
0.0
 11
217.53316770319191
 21
50.836280231244707
 31
0.0
  0
LINE
  5
9C
  8
1
  6
DASHDOT
 62
     3
 10
301.44639632548439
 20
33.07694839104775
 30
0.0
 11
319.20572816568131
 21
50.836280231244679
 31
0.0
  0
LINE
  5
9D
  8
1
 62
     7
 10
260.86944793443661
 20
29.047375096555619
 30
0.0
 11
260.86944793443661
 21
35.0
 31
0.0
  0
LINE
  5
9E
  8
1
 62
     7
 10
275.86944793443661
 20
35.0
 30
0.0
 11
275.86944793443661
 21
29.047375096555619
 31
0.0
  0
LINE
  5
9F
  8
1
 62
     7
 10
260.86944793443661
 20
35.0
 30
0.0
 11
275.86944793443661
 21
35.0
 31
0.0
  0
LINE
  5
A0
  8
1
 62
     7
 10
91.950000000000102
 20
49.0
 30
0.0
 11
106.5000000000001
 21
49.0
 31
0.0
  0
LINE
  5
A1
  8
1
 62
     7
 10
106.5000000000001
 20
53.5
 30
0.0
 11
130.0
 21
53.5
 31
0.0
  0
LINE
  5
A2
  8
1
 62
     7
 10
106.5000000000001
 20
64.5
 30
0.0
 11
130.0
 21
64.5
 31
0.0
  0
LINE
  5
A3
  8
1
 62
     7
 10
91.950000000000102
 20
69.0
 30
0.0
 11
106.5000000000001
 21
69.0
 31
0.0
  0
LINE
  5
A4
  8
1
  6
DASHDOT
 62
     3
 10
-3.0
 20
68.0
 30
0.0
 11
24.847520861406782
 21
68.0
 31
0.0
  0
LINE
  5
A5
  8
1
 62
     3
 10
12.0
 20
64.0
 30
0.0
 11
13.385640646055091
 21
64.799999999999997
 31
0.0
  0
LINE
  5
A6
  8
1
 62
     3
 10
12.0
 20
72.0
 30
0.0
 11
13.385640646055091
 21
71.200000000000003
 31
0.0
  0
LINE
  5
A7
  8
1
 62
     3
 10
12.0
 20
64.0
 30
0.0
 11
0.0
 21
64.0
 31
0.0
  0
LINE
  5
A8
  8
1
 62
     7
 10
12.0
 20
72.0
 30
0.0
 11
12.0
 21
64.0
 31
0.0
  0
LINE
  5
A9
  8
1
 62
     3
 10
0.0
 20
72.0
 30
0.0
 11
12.0
 21
72.0
 31
0.0
  0
LINE
  5
AA
  8
1
 62
     7
 10
20.709401076758638
 20
68.0
 30
0.0
 11
18.400000000000091
 21
64.799999999999997
 31
0.0
  0
LINE
  5
AB
  8
1
 62
     7
 10
18.400000000000091
 20
71.200000000000003
 30
0.0
 11
20.709401076758638
 21
68.0
 31
0.0
  0
LINE
  5
AC
  8
1
 62
     7
 10
18.400000000000091
 20
64.799999999999997
 30
0.0
 11
0.0
 21
64.799999999999997
 31
0.0
  0
LINE
  5
AD
  8
1
 62
     7
 10
18.400000000000091
 20
71.200000000000003
 30
0.0
 11
18.400000000000091
 21
64.799999999999997
 31
0.0
  0
LINE
  5
AE
  8
1
 62
     7
 10
0.0
 20
71.200000000000003
 30
0.0
 11
18.400000000000091
 21
71.200000000000003
 31
0.0
  0
LINE
  5
AF
  8
1
 62
     7
 10
86.000000000000057
 20
-77.5
 30
0.0
 11
89.600000000000065
 21
-77.5
 31
0.0
  0
LINE
  5
B0
  8
1
 62
     7
 10
90.000000000000057
 20
-65.0
 30
0.0
 11
90.000000000000057
 21
65.0
 31
0.0
  0
LINE
  5
B1
  8
1
 62
     7
 10
106.5000000000001
 20
-81.0
 30
0.0
 11
106.5000000000001
 21
81.0
 31
0.0
  0
LINE
  5
B2
  8
1
 62
     7
 10
125.0000000000001
 20
-87.5
 30
0.0
 11
125.0000000000001
 21
-75.5
 31
0.0
  0
LINE
  5
B3
  8
1
 62
     7
 10
106.5000000000001
 20
-45.0
 30
0.0
 11
130.0
 21
-45.0
 31
0.0
  0
LINE
  5
B4
  8
1
 62
     7
 10
130.0
 20
-70.0
 30
0.0
 11
127.0000000000001
 21
-70.0
 31
0.0
  0
LINE
  5
B5
  8
1
 62
     7
 10
127.0000000000001
 20
-70.0
 30
0.0
 11
127.0000000000001
 21
-79.5
 31
0.0
  0
LINE
  5
B6
  8
1
 62
     7
 10
127.0000000000001
 20
-79.5
 30
0.0
 11
106.5000000000001
 21
-79.5
 31
0.0
  0
LINE
  5
B7
  8
1
 62
     7
 10
91.950000000000102
 20
-40.0
 30
0.0
 11
106.5000000000001
 21
-40.0
 31
0.0
  0
LINE
  5
B8
  8
1
 62
     7
 10
106.5000000000001
 20
-81.0
 30
0.0
 11
113.5000000000001
 21
-81.0
 31
0.0
  0
LINE
  5
B9
  8
1
 62
     7
 10
113.5000000000001
 20
-81.0
 30
0.0
 11
113.5000000000001
 21
-75.5
 31
0.0
  0
LINE
  5
BA
  8
1
 62
     7
 10
106.5000000000001
 20
-75.5
 30
0.0
 11
127.0000000000001
 21
-75.5
 31
0.0
  0
LINE
  5
BB
  8
1
 62
     7
 10
125.0000000000001
 20
-87.5
 30
0.0
 11
90.000000000000057
 21
-87.5
 31
0.0
  0
LINE
  5
BC
  8
1
 62
     7
 10
27.0
 20
-84.500000000000014
 30
0.0
 11
30.0
 21
-87.5
 31
0.0
  0
LINE
  5
BD
  8
1
 62
     7
 10
0.0
 20
-30.0
 30
0.0
 11
90.000000000000057
 21
-30.0
 31
0.0
  0
LINE
  5
BE
  8
1
 62
     7
 10
90.000000000000057
 20
-65.0
 30
0.0
 11
86.000000000000057
 21
-65.0
 31
0.0
  0
LINE
  5
BF
  8
1
 62
     7
 10
86.000000000000057
 20
-65.0
 30
0.0
 11
86.000000000000057
 21
-77.5
 31
0.0
  0
LINE
  5
C0
  8
1
 62
     7
 10
89.600000000000065
 20
-87.5
 30
0.0
 11
30.0
 21
-87.5
 31
0.0
  0
LINE
  5
C1
  8
1
 62
     7
 10
27.0
 20
-84.500000000000014
 30
0.0
 11
27.0
 21
-78.5
 31
0.0
  0
LINE
  5
C2
  8
1
 62
     7
 10
27.0
 20
-78.5
 30
0.0
 11
76.0
 21
-78.5
 31
0.0
  0
LINE
  5
C3
  8
1
 62
     7
 10
76.0
 20
-78.5
 30
0.0
 11
76.0
 21
-51.5
 31
0.0
  0
LINE
  5
C4
  8
1
 62
     7
 10
76.0
 20
-51.5
 30
0.0
 11
0.000000000000002
 21
-51.5
 31
0.0
  0
LINE
  5
C5
  8
1
 62
     7
 10
73.0
 20
-52.899999999999991
 30
0.0
 11
0.0
 21
-52.899999999999991
 31
0.0
  0
LINE
  5
C6
  8
1
 62
     7
 10
73.0
 20
-52.899999999999991
 30
0.0
 11
73.0
 21
-77.0
 31
0.0
  0
LINE
  5
C7
  8
1
 62
     7
 10
0.0
 20
-77.0
 30
0.0
 11
73.0
 21
-77.0
 31
0.0
  0
LINE
  5
C8
  8
1
 62
     7
 10
0.0
 20
-77.0
 30
0.0
 11
0.0
 21
77.0
 31
0.0
  0
LINE
  5
C9
  8
1
 62
     7
 10
91.950000000000102
 20
77.5
 30
0.0
 11
91.950000000000102
 21
-77.5
 31
0.0
  0
LINE
  5
CA
  8
1
 62
     7
 10
130.0
 20
70.0
 30
0.0
 11
130.0
 21
-70.0
 31
0.0
  0
LINE
  5
CB
  8
1
 62
     7
 10
130.0
 20
45.0
 30
0.0
 11
130.0
 21
46.0
 31
0.0
  0
LINE
  5
CC
  8
1
  6
DASHDOT
 62
     3
 10
88.539532544379014
 20
59.0
 30
0.0
 11
132.43658579881711
 21
59.0
 31
0.0
  0
LINE
  5
CD
  8
1
 62
     7
 10
130.0
 20
45.0
 30
0.0
 11
106.5000000000001
 21
45.0
 31
0.0
  0
LINE
  5
CE
  8
1
 62
     7
 10
127.0000000000001
 20
70.0
 30
0.0
 11
130.0
 21
70.0
 31
0.0
  0
LINE
  5
CF
  8
1
 62
     7
 10
127.0000000000001
 20
79.5
 30
0.0
 11
127.0000000000001
 21
70.0
 31
0.0
  0
LINE
  5
D0
  8
1
 62
     7
 10
106.5000000000001
 20
79.5
 30
0.0
 11
127.0000000000001
 21
79.5
 31
0.0
  0
LINE
  5
D1
  8
1
 62
     7
 10
106.5000000000001
 20
40.0
 30
0.0
 11
91.950000000000102
 21
40.0
 31
0.0
  0
LINE
  5
D2
  8
1
 62
     7
 10
113.5000000000001
 20
81.0
 30
0.0
 11
106.5000000000001
 21
81.0
 31
0.0
  0
LINE
  5
D3
  8
1
 62
     7
 10
113.5000000000001
 20
75.5
 30
0.0
 11
113.5000000000001
 21
81.0
 31
0.0
  0
LINE
  5
D4
  8
1
 62
     7
 10
127.0000000000001
 20
75.5
 30
0.0
 11
106.5000000000001
 21
75.5
 31
0.0
  0
LINE
  5
D5
  8
1
 62
     7
 10
125.0000000000001
 20
87.5
 30
0.0
 11
125.0000000000001
 21
75.5
 31
0.0
  0
LINE
  5
D6
  8
1
 62
     7
 10
90.000000000000057
 20
87.5
 30
0.0
 11
125.0000000000001
 21
87.5
 31
0.0
  0
LINE
  5
D7
  8
1
 62
     7
 10
30.0
 20
87.5
 30
0.0
 11
27.0
 21
84.500000000000014
 31
0.0
  0
LINE
  5
D8
  8
1
 62
     7
 10
0.0
 20
30.0
 30
0.0
 11
90.000000000000057
 21
30.0
 31
0.0
  0
LINE
  5
D9
  8
1
 62
     7
 10
86.000000000000057
 20
65.0
 30
0.0
 11
90.000000000000057
 21
65.0
 31
0.0
  0
LINE
  5
DA
  8
1
 62
     7
 10
86.000000000000057
 20
77.5
 30
0.0
 11
86.000000000000057
 21
65.0
 31
0.0
  0
LINE
  5
DB
  8
1
 62
     7
 10
30.0
 20
87.5
 30
0.0
 11
89.600000000000065
 21
87.5
 31
0.0
  0
LINE
  5
DC
  8
1
 62
     7
 10
27.0
 20
78.0
 30
0.0
 11
27.0
 21
84.500000000000014
 31
0.0
  0
LINE
  5
DD
  8
1
 62
     7
 10
76.0
 20
78.0
 30
0.0
 11
27.0
 21
78.0
 31
0.0
  0
LINE
  5
DE
  8
1
 62
     7
 10
76.0
 20
51.5
 30
0.0
 11
76.0
 21
78.0
 31
0.0
  0
LINE
  5
DF
  8
1
 62
     7
 10
0.0
 20
51.5
 30
0.0
 11
76.0
 21
51.5
 31
0.0
  0
LINE
  5
E0
  8
1
 62
     7
 10
0.0
 20
52.899999999999991
 30
0.0
 11
73.0
 21
52.899999999999991
 31
0.0
  0
LINE
  5
E1
  8
1
 62
     7
 10
73.0
 20
52.899999999999991
 30
0.0
 11
73.0
 21
77.0
 31
0.0
  0
LINE
  5
E2
  8
1
  6
DASHDOT
 62
     3
 10
-372.6309805895358
 20
52.257435261946782
 30
0.0
 11
-364.47534368597758
 21
44.101798358388528
 31
0.0
  0
LINE
  5
E3
  8
1
  6
DASHDOT
 62
     3
 10
-372.52172269554461
 20
-52.14817736795564
 30
0.0
 11
-364.73993473959558
 21
-44.366389412006541
 31
0.0
  0
LINE
  5
E4
  8
1
 62
     7
 10
73.0
 20
77.0
 30
0.0
 11
0.0
 21
77.0
 31
0.0
  0
ARC
  5
E5
  8
1
 62
     7
 10
268.36944793443661
 20
0.0
 30
0.0
 40
30.0
 50
0.0
 51
75.522487814070075
  0
ARC
  5
E6
  8
1
 62
     7
 10
-320.37354532758911
 20
0.0
 30
0.0
 40
30.0
 50
0.0
 51
75.522487814070075
  0
ARC
  5
E7
  8
1
 62
     7
 10
-320.37354532758911
 20
0.0
 30
0.0
 40
30.0
 50
104.4775121859299
 51
0.0
  0
ARC
  5
E8
  8
1
 62
     7
 10
-320.37354532758911
 20
0.0
 30
0.0
 40
87.499999999999986
 50
91.178739182864405
 51
88.821260817135652
  0
ARC
  5
E9
  8
1
  6
DASHDOT
 62
     3
 10
-320.37354532758911
 20
0.0
 30
0.0
 40
68.000000000000014
 50
40.098886313499918
 51
49.491865816795887
  0
ARC
  5
EA
  8
1
  6
DASHDOT
 62
     3
 10
-320.37354532758911
 20
0.0
 30
0.0
 40
68.000000000000014
 50
310.09888631349992
 51
319.49186581679589
  0
ARC
  5
EB
  8
1
  6
DASHDOT
 62
     3
 10
-320.37354532758911
 20
0.0
 30
0.0
 40
68.000000000000028
 50
220.09888631349989
 51
229.49186581679569
  0
ARC
  5
EC
  8
1
  6
DASHDOT
 62
     3
 10
-320.37354532758911
 20
0.0
 30
0.0
 40
68.000000000000028
 50
130.43443657738581
 51
139.6966938254406
  0
ARC
  5
ED
  8
1
 62
     7
 10
268.36944793443661
 20
0.0
 30
0.0
 40
30.0
 50
104.4775121859299
 51
0.0
  0
ARC
  5
EE
  8
1
  6
DASHDOT
 62
     3
 10
268.36944793443848
 20
-0.0000000000003553
 30
0.0
 40
58.99999999999995
 50
77.78413606934626
 51
78.634664922882152
  0
ARC
  5
EF
  8
1
  6
DASHDOT
 62
     3
 10
268.36944793443661
 20
0.0
 30
0.0
 40
58.999999999999979
 50
33.758429808184793
 51
56.524673345389651
  0
ARC
  5
F0
  8
1
  6
DASHDOT
 62
     3
 10
268.36944793443661
 20
0.0
 30
0.0
 40
58.999999999999922
 50
15.516837550086199
 51
29.519625138537599
  0
ARC
  5
F1
  8
1
  6
DASHDOT
 62
     3
 10
268.36944793443661
 20
0.0
 30
0.0
 40
59.0
 50
0.0
 51
11.52889394369844
  0
ARC
  5
F2
  8
1
  6
DASHDOT
 62
     3
 10
268.36944793443661
 20
0.0
 30
0.0
 40
58.999999999999957
 50
302.70271997411078
 51
326.99163767991041
  0
ARC
  5
F3
  8
1
  6
DASHDOT
 62
     3
 10
268.36944793443661
 20
0.0
 30
0.0
 40
58.999999999999993
 50
194.54290240953489
 51
210.09226666496511
  0
ARC
  5
F4
  8
1
  6
DASHDOT
 62
     3
 10
268.36944793443661
 20
0.0
 30
0.0
 40
59.000000000000007
 50
258.22433252849578
 51
281.95111172961032
  0
ARC
  5
F5
  8
1
  6
DASHDOT
 62
     3
 10
268.36944793443661
 20
0.0
 30
0.0
 40
58.999999999999993
 50
213.0736103002227
 51
237.08364380783121
  0
ARC
  5
F6
  8
1
  6
DASHDOT
 62
     3
 10
268.36944793443661
 20
0.0
 30
0.0
 40
59.000000000000057
 50
168.66054370698649
 51
192.4136193870101
  0
ARC
  5
F7
  8
1
  6
DASHDOT
 62
     3
 10
268.36944793443661
 20
0.0
 30
0.0
 40
59.000000000000007
 50
123.34683947369579
 51
146.78504018191151
  0
ARC
  5
F8
  8
1
  6
DASHDOT
 62
     3
 10
268.36944793443661
 20
0.0
 30
0.0
 40
58.999999999999972
 50
348.12092238149279
 51
0.0
  0
ARC
  5
F9
  8
1
  6
DASHDOT
 62
     3
 10
268.36944793443661
 20
0.0
 30
0.0
 40
58.999999999999972
 50
78.63466492288029
 51
102.33922877486771
  0
CIRCLE
  5
FA
  8
1
 62
     7
 10
-320.37354532758911
 20
0.0
 30
0.0
 40
52.90000000000002
  0
CIRCLE
  5
FB
  8
1
 62
     7
 10
-272.29028420690378
 20
48.083261120685222
 30
0.0
 40
3.1999999999998741
  0
CIRCLE
  5
FC
  8
1
 62
     3
 10
-272.29028420690378
 20
48.083261120685222
 30
0.0
 40
4.0
  0
CIRCLE
  5
FD
  8
1
 62
     7
 10
-272.29028420690372
 20
-48.083261120685187
 30
0.0
 40
3.1999999999998741
  0
CIRCLE
  5
FE
  8
1
 62
     3
 10
-272.29028420690372
 20
-48.083261120685187
 30
0.0
 40
4.0
  0
CIRCLE
  5
FF
  8
1
 62
     7
 10
-320.37354532758911
 20
0.0
 30
0.0
 40
77.0
  0
CIRCLE
  5
100
  8
1
 62
     7
 10
322.87834035260238
 20
-22.578322509540371
 30
0.0
 40
9.0
  0
CIRCLE
  5
101
  8
1
 62
     7
 10
322.87834035260238
 20
-22.578322509540371
 30
0.0
 40
8.0
  0
CIRCLE
  5
102
  8
1
 62
     7
 10
245.79112542489619
 20
-54.508892418165942
 30
0.0
 40
9.0
  0
CIRCLE
  5
103
  8
1
 62
     7
 10
245.79112542489619
 20
-54.508892418165942
 30
0.0
 40
8.0
  0
CIRCLE
  5
104
  8
1
 62
     7
 10
213.86055551627061
 20
22.5783225095403
 30
0.0
 40
8.0
  0
CIRCLE
  5
105
  8
1
 62
     7
 10
213.86055551627061
 20
22.5783225095403
 30
0.0
 40
9.0
  0
CIRCLE
  5
106
  8
1
 62
     7
 10
290.94777044397688
 20
54.508892418165892
 30
0.0
 40
8.0
  0
CIRCLE
  5
107
  8
1
 62
     7
 10
290.94777044397688
 20
54.508892418165892
 30
0.0
 40
9.0
  0
CIRCLE
  5
108
  8
1
 62
     7
 10
213.86055551627061
 20
-22.5783225095403
 30
0.0
 40
5.8499999999999943
  0
CIRCLE
  5
109
  8
1
 62
     7
 10
322.87834035260261
 20
22.5783225095403
 30
0.0
 40
5.849999999999965
  0
CIRCLE
  5
10A
  8
1
 62
     7
 10
327.36944793443661
 20
0.0
 30
0.0
 40
5.5
  0
CIRCLE
  5
10B
  8
1
  6
DASHED
 62
     7
 10
327.36944793443661
 20
0.0
 30
0.0
 40
10.00000000000005
  0
CIRCLE
  5
10C
  8
1
 62
     7
 10
310.08874802444302
 20
-41.719300090006307
 30
0.0
 40
5.5
  0
CIRCLE
  5
10D
  8
1
  6
DASHED
 62
     7
 10
310.08874802444302
 20
-41.719300090006307
 30
0.0
 40
10.00000000000005
  0
CIRCLE
  5
10E
  8
1
 62
     7
 10
268.36944793443661
 20
-59.0
 30
0.0
 40
5.5
  0
CIRCLE
  5
10F
  8
1
  6
DASHED
 62
     7
 10
268.36944793443661
 20
-59.0
 30
0.0
 40
10.000000000000171
  0
CIRCLE
  5
110
  8
1
 62
     7
 10
226.65014784443039
 20
-41.7193000900063
 30
0.0
 40
5.5
  0
CIRCLE
  5
111
  8
1
  6
DASHED
 62
     7
 10
226.65014784443039
 20
-41.7193000900063
 30
0.0
 40
10.0
  0
CIRCLE
  5
112
  8
1
 62
     7
 10
209.36944793443669
 20
0.0
 30
0.0
 40
5.5
  0
CIRCLE
  5
113
  8
1
  6
DASHED
 62
     7
 10
209.36944793443669
 20
0.0
 30
0.0
 40
10.00000000000011
  0
CIRCLE
  5
114
  8
1
 62
     7
 10
226.65014784443039
 20
41.7193000900063
 30
0.0
 40
5.5
  0
CIRCLE
  5
115
  8
1
  6
DASHED
 62
     7
 10
226.65014784443039
 20
41.7193000900063
 30
0.0
 40
10.0
  0
CIRCLE
  5
116
  8
1
 62
     7
 10
268.36944793443661
 20
58.999999999999993
 30
0.0
 40
5.5
  0
CIRCLE
  5
117
  8
1
  6
DASHED
 62
     7
 10
268.36944793443661
 20
58.999999999999993
 30
0.0
 40
10.0
  0
CIRCLE
  5
118
  8
1
  6
DASHED
 62
     7
 10
310.08874802444302
 20
41.7193000900063
 30
0.0
 40
10.0
  0
CIRCLE
  5
119
  8
1
 62
     7
 10
310.08874802444302
 20
41.7193000900063
 30
0.0
 40
5.5
  0
CIRCLE
  5
11A
  8
1
 62
     7
 10
268.36944793443661
 20
0.0
 30
0.0
 40
79.5
  0
CIRCLE
  5
11B
  8
1
 62
     7
 10
268.36944793443661
 20
0.0
 30
0.0
 40
87.5
  0
CIRCLE
  5
11C
  8
1
 62
     7
 10
268.36944793443661
 20
0.0
 30
0.0
 40
70.0
  0
CIRCLE
  5
11D
  8
1
 62
     7
 10
268.36944793443661
 20
0.0
 30
0.0
 40
45.0
  0
CIRCLE
  5
11E
  8
1
 62
     7
 10
268.36944793443661
 20
0.0
 30
0.0
 40
40.0
  0
CIRCLE
  5
11F
  8
1
 62
     7
 10
-368.45680644827428
 20
48.083261120685208
 30
0.0
 40
3.1999999999999882
  0
CIRCLE
  5
120
  8
1
 62
     3
 10
-368.45680644827428
 20
48.083261120685208
 30
0.0
 40
4.0
  0
CIRCLE
  5
121
  8
1
 62
     7
 10
-368.45680644827428
 20
-48.083261120685222
 30
0.0
 40
3.1999999999999882
  0
CIRCLE
  5
122
  8
1
 62
     3
 10
-368.45680644827428
 20
-48.083261120685222
 30
0.0
 40
4.0
  0
TEXT
  5
124
  8
1
 62
     7
 10
-348.312871827398
 20
157.3345970215837
 30
0.0
 40
10.0
  1
MZ 100
 41
0.9
  7
SIMPLEX
  0
ENDSEC
  0
EOF
