  0
SECTION
  2
HEADER
  9
$ACADVER
  1
AC1009
  9
$INSBASE
 10
0.0
 20
0.0
 30
0.0
  9
$EXTMIN
 10
-452.25324814917252
 20
-98.0
 30
0.0
  9
$EXTMAX
 10
401.01011791544897
 20
188.9374369325088
 30
0.0
  9
$LIMMIN
 10
-452.25324814917252
 20
-98.0
  9
$LIMMAX
 10
401.01011791544897
 20
188.93743693250869
  9
$ORTHOMODE
 70
     0
  9
$REGENMODE
 70
     1
  9
$FILLMODE
 70
     1
  9
$QTEXTMODE
 70
     0
  9
$MIRRTEXT
 70
     1
  9
$DRAGMODE
 70
     2
  9
$LTSCALE
 40
1.0
  9
$OSMODE
 70
    37
  9
$ATTMODE
 70
     1
  9
$TEXTSIZE
 40
3.5
  9
$TRACEWID
 40
0.5
  9
$TEXTSTYLE
  7
STANDARD
  9
$CLAYER
  8
0
  9
$CELTYPE
  6
BYLAYER
  9
$CECOLOR
 62
   256
  9
$DIMSCALE
 40
1.0
  9
$DIMASZ
 40
0.18
  9
$DIMEXO
 40
0.0625
  9
$DIMDLI
 40
0.38
  9
$DIMRND
 40
0.0
  9
$DIMDLE
 40
0.0
  9
$DIMEXE
 40
0.18
  9
$DIMTP
 40
0.0
  9
$DIMTM
 40
0.0
  9
$DIMTXT
 40
0.18
  9
$DIMCEN
 40
0.09
  9
$DIMTSZ
 40
0.0
  9
$DIMTOL
 70
     0
  9
$DIMLIM
 70
     0
  9
$DIMTIH
 70
     1
  9
$DIMTOH
 70
     1
  9
$DIMSE1
 70
     0
  9
$DIMSE2
 70
     0
  9
$DIMTAD
 70
     0
  9
$DIMZIN
 70
     0
  9
$DIMBLK
  1

  9
$DIMASO
 70
     1
  9
$DIMSHO
 70
     1
  9
$DIMPOST
  1

  9
$DIMAPOST
  1

  9
$DIMALT
 70
     0
  9
$DIMALTD
 70
     2
  9
$DIMALTF
 40
25.399999999999999
  9
$DIMLFAC
 40
1.0
  9
$DIMTOFL
 70
     0
  9
$DIMTVP
 40
0.0
  9
$DIMTIX
 70
     0
  9
$DIMSOXD
 70
     0
  9
$DIMSAH
 70
     0
  9
$DIMBLK1
  1

  9
$DIMBLK2
  1

  9
$DIMSTYLE
  2
STANDARD
  9
$DIMCLRD
 70
     0
  9
$DIMCLRE
 70
     0
  9
$DIMCLRT
 70
     0
  9
$DIMTFAC
 40
1.0
  9
$DIMGAP
 40
0.09
  9
$LUNITS
 70
     2
  9
$LUPREC
 70
     4
  9
$SKETCHINC
 40
0.1
  9
$FILLETRAD
 40
2.0
  9
$AUNITS
 70
     0
  9
$AUPREC
 70
     0
  9
$MENU
  1
ACAD
  9
$ELEVATION
 40
0.0
  9
$PELEVATION
 40
0.0
  9
$THICKNESS
 40
0.0
  9
$LIMCHECK
 70
     0
  9
$BLIPMODE
 70
     0
  9
$CHAMFERA
 40
0.0
  9
$CHAMFERB
 40
0.0
  9
$SKPOLY
 70
     0
  9
$TDCREATE
 40
2452095.0866137729
  9
$TDUPDATE
 40
2452095.0874306709
  9
$TDINDWG
 40
0.0008366898
  9
$TDUSRTIMER
 40
0.0008366898
  9
$USRTIMER
 70
     1
  9
$ANGBASE
 50
0.0
  9
$ANGDIR
 70
     0
  9
$PDMODE
 70
     0
  9
$PDSIZE
 40
0.0
  9
$PLINEWID
 40
0.0
  9
$COORDS
 70
     1
  9
$SPLFRAME
 70
     0
  9
$SPLINETYPE
 70
     6
  9
$SPLINESEGS
 70
     8
  9
$ATTDIA
 70
     0
  9
$ATTREQ
 70
     1
  9
$HANDLING
 70
 10241
  9
$HANDSEED
  5
133
  9
$SURFTAB1
 70
     6
  9
$SURFTAB2
 70
     6
  9
$SURFTYPE
 70
     6
  9
$SURFU
 70
     6
  9
$SURFV
 70
     6
  9
$UCSNAME
  2

  9
$UCSORG
 10
0.0
 20
0.0
 30
0.0
  9
$UCSXDIR
 10
1.0
 20
0.0
 30
0.0
  9
$UCSYDIR
 10
0.0
 20
1.0
 30
0.0
  9
$PUCSNAME
  2

  9
$PUCSORG
 10
0.0
 20
0.0
 30
0.0
  9
$PUCSXDIR
 10
1.0
 20
0.0
 30
0.0
  9
$PUCSYDIR
 10
0.0
 20
1.0
 30
0.0
  9
$USERI1
 70
     0
  9
$USERI2
 70
     0
  9
$USERI3
 70
     0
  9
$USERI4
 70
     0
  9
$USERI5
 70
     0
  9
$USERR1
 40
0.0
  9
$USERR2
 40
0.0
  9
$USERR3
 40
0.0
  9
$USERR4
 40
0.0
  9
$USERR5
 40
0.0
  9
$WORLDVIEW
 70
     1
  9
$SHADEDGE
 70
     3
  9
$SHADEDIF
 70
    70
  9
$TILEMODE
 70
     1
  9
$MAXACTVP
 70
    64
  9
$PLIMCHECK
 70
     0
  9
$PEXTMIN
 10
1.0000000000000000E+020
 20
1.0000000000000000E+020
 30
1.0000000000000000E+020
  9
$PEXTMAX
 10
-1.0000000000000000E+020
 20
-1.0000000000000000E+020
 30
-1.0000000000000000E+020
  9
$PLIMMIN
 10
0.0
 20
0.0
  9
$PLIMMAX
 10
12.0
 20
9.0
  9
$UNITMODE
 70
     0
  9
$VISRETAIN
 70
     1
  9
$PLINEGEN
 70
     0
  9
$PSLTSCALE
 70
     1
  0
ENDSEC
  0
SECTION
  2
TABLES
  0
TABLE
  2
VPORT
 70
     2
  0
VPORT
  2
*ACTIVE
 70
     0
 10
0.0
 20
0.0
 11
1.0
 21
1.0
 12
-357.12664092531662
 22
170.36211657764409
 13
0.0
 23
0.0
 14
1.0
 24
1.0
 15
0.0
 25
0.0
 16
0.0
 26
0.0
 36
1.0
 17
0.0
 27
0.0
 37
0.0
 40
9.0000000881374067
 41
2.4144144144144142
 42
50.0
 43
0.0
 44
0.0
 50
0.0
 51
0.0
 71
     0
 72
   100
 73
     1
 74
     1
 75
     0
 76
     0
 77
     0
 78
     0
  0
ENDTAB
  0
TABLE
  2
LTYPE
 70
     9
  0
LTYPE
  2
CONTINUOUS
 70
     0
  3
Solid line
 72
    65
 73
     0
 40
0.0
  0
LTYPE
  2
BORDER
 70
     0
  3
__ __ . __ __ .
 72
    65
 73
     6
 40
39.295023437186522
 49
11.22714955348186
 49
-5.6135747767409301
 49
11.22714955348186
 49
-5.6135747767409301
 49
0.0
 49
-5.6135747767409301
  0
LTYPE
  2
CENTER
 70
     0
  3
____ _ ____ _
 72
    65
 73
     4
 40
44.908598213927448
 49
28.06787388370466
 49
-5.6135747767409301
 49
5.6135747767409301
 49
-5.6135747767409301
  0
LTYPE
  2
DASHDOT
 70
     0
  3
__ . __ . __ .
 72
    65
 73
     4
 40
22.45429910696372
 49
11.22714955348186
 49
-5.6135747767409301
 49
0.0
 49
-5.6135747767409301
  0
LTYPE
  2
DASHED
 70
     0
  3
__ __ __ __ __
 72
    65
 73
     2
 40
16.840724330222791
 49
11.22714955348186
 49
-5.6135747767409301
  0
LTYPE
  2
DIVIDE
 70
     0
  3
__ . . __ . . 
 72
    65
 73
     6
 40
28.06787388370466
 49
11.22714955348186
 49
-5.6135747767409301
 49
0.0
 49
-5.6135747767409301
 49
0.0
 49
-5.6135747767409301
  0
LTYPE
  2
DOT
 70
     0
  3
..............
 72
    65
 73
     4
 40
11.22714955348186
 49
0.0
 49
-5.6135747767409301
 49
0.0
 49
-5.6135747767409301
  0
LTYPE
  2
HIDDEN
 70
     0
  3
_ _ _ _ _ _ _
 72
    65
 73
     2
 40
8.4203621651113956
 49
5.6135747767409301
 49
-2.806787388370465
  0
LTYPE
  2
PHANTOM
 70
     0
  3
_____ _ _ _____ _ _ 
 72
    65
 73
     6
 40
56.135747767409313
 49
28.06787388370466
 49
-5.6135747767409301
 49
5.6135747767409301
 49
-5.6135747767409301
 49
5.6135747767409301
 49
-5.6135747767409301
  0
ENDTAB
  0
TABLE
  2
LAYER
 70
     2
  0
LAYER
  2
0
 70
     0
 62
     7
  6
CONTINUOUS
  0
LAYER
  2
1
 70
     0
 62
     7
  6
CONTINUOUS
  0
ENDTAB
  0
TABLE
  2
STYLE
 70
     4
  0
STYLE
  2
STANDARD
 70
     0
 40
0.0
 41
1.0
 50
0.0
 71
     0
 42
3.5
  3
txt
  4

  0
STYLE
  2
SIMPLEX
 70
     0
 40
0.0
 41
1.0
 50
0.0
 71
     0
 42
3.5
  3
simplex
  4

  0
STYLE
  2
COMPLEX
 70
     0
 40
0.0
 41
1.0
 50
0.0
 71
     0
 42
3.5
  3
complex
  4

  0
STYLE
  2
ITALIC
 70
     0
 40
0.0
 41
1.0
 50
0.0
 71
     0
 42
3.5
  3
italic
  4

  0
ENDTAB
  0
TABLE
  2
VIEW
 70
     0
  0
ENDTAB
  0
TABLE
  2
UCS
 70
     0
  0
ENDTAB
  0
TABLE
  2
APPID
 70
     1
  0
APPID
  2
ACAD
 70
     0
  0
ENDTAB
  0
TABLE
  2
DIMSTYLE
 70
     1
  0
DIMSTYLE
  2
STANDARD
 70
     0
  3

  4

  5

  6

  7

 40
1.0
 41
0.18
 42
0.0625
 43
0.38
 44
0.18
 45
0.0
 46
0.0
 47
0.0
 48
0.0
140
0.18
141
0.09
142
0.0
143
25.399999999999999
144
1.0
145
0.0
146
1.0
147
0.09
 71
     0
 72
     0
 73
     1
 74
     1
 75
     0
 76
     0
 77
     0
 78
     0
170
     0
171
     2
172
     0
173
     0
174
     0
175
     0
176
     0
177
     0
178
     0
  0
ENDTAB
  0
ENDSEC
  0
SECTION
  2
BLOCKS
  0
BLOCK
  8
0
  2
$MODEL_SPACE
 70
     0
 10
0.0
 20
0.0
 30
0.0
  3
$MODEL_SPACE
  1

  0
ENDBLK
  5
20
  8
0
  0
BLOCK
 67
     1
  8
0
  2
$PAPER_SPACE
 70
     0
 10
0.0
 20
0.0
 30
0.0
  3
$PAPER_SPACE
  1

  0
ENDBLK
  5
1C
 67
     1
  8
0
  0
ENDSEC
  0
SECTION
  2
ENTITIES
  0
LINE
  5
33
  8
1
 62
     7
 10
-363.25324814917252
 20
41.0
 30
0.0
 11
-345.25324814917252
 21
41.0
 31
0.0
  0
LINE
  5
34
  8
1
 62
     7
 10
-345.25324814917252
 20
41.0
 30
0.0
 11
-345.25324814917252
 21
33.823069050575533
 31
0.0
  0
LINE
  5
35
  8
1
 62
     7
 10
-363.25324814917252
 20
33.823069050575533
 30
0.0
 11
-363.25324814917252
 21
41.0
 31
0.0
  0
LINE
  5
36
  8
1
  6
DASHDOT
 62
     3
 10
-413.23093178433629
 20
58.9776836351637
 30
0.0
 11
-405.72041037711108
 21
51.467162227938459
 31
0.0
  0
LINE
  5
37
  8
1
  6
DASHDOT
 62
     3
 10
249.21249301414289
 20
-22.283705857581499
 30
0.0
 11
231.27851736398799
 21
-29.712201799144481
 31
0.0
  0
LINE
  5
38
  8
1
  6
DASHDOT
 62
     3
 10
356.80774281675508
 20
22.283705857581541
 30
0.0
 11
374.74171846690979
 21
29.712201799144509
 31
0.0
  0
LINE
  5
39
  8
1
  6
DASHDOT
 62
     3
 10
341.24088168363647
 20
38.230763768187558
 30
0.0
 11
361.14871432556231
 21
58.138596410113458
 31
0.0
  0
LINE
  5
3A
  8
1
  6
DASHDOT
 62
     3
 10
341.24088168363647
 20
-38.2307637681876
 30
0.0
 11
361.14871432556231
 21
-58.1385964101135
 31
0.0
  0
LINE
  5
3B
  8
1
 62
     3
 10
264.77935414726142
 20
-38.2307637681876
 30
0.0
 11
244.87152150533549
 21
-58.1385964101135
 31
0.0
  0
LINE
  5
3C
  8
1
  6
DASHDOT
 62
     3
 10
264.77935414726142
 20
38.230763768187501
 30
0.0
 11
244.87152150533549
 21
58.138596410113458
 31
0.0
  0
LINE
  5
3D
  8
1
 62
     7
 10
0.0
 20
88.0
 30
0.0
 11
19.0
 21
88.0
 31
0.0
  0
LINE
  5
3E
  8
1
 62
     7
 10
19.0
 20
88.0
 30
0.0
 11
19.0
 21
85.59999999999998
 31
0.0
  0
LINE
  5
3F
  8
1
 62
     7
 10
19.0
 20
85.59999999999998
 30
0.0
 11
71.0
 21
85.59999999999998
 31
0.0
  0
LINE
  5
40
  8
1
 62
     7
 10
71.0
 20
85.59999999999998
 30
0.0
 11
71.0
 21
59.900000000000112
 31
0.0
  0
LINE
  5
41
  8
1
 62
     7
 10
0.0
 20
59.899999999999999
 30
0.0
 11
71.0
 21
59.900000000000112
 31
0.0
  0
LINE
  5
42
  8
1
 62
     7
 10
0.0
 20
59.0
 30
0.0
 11
74.0
 21
59.0
 31
0.0
  0
LINE
  5
43
  8
1
 62
     7
 10
74.0
 20
59.0
 30
0.0
 11
74.0
 21
86.5
 31
0.0
  0
LINE
  5
44
  8
1
 62
     7
 10
74.0
 20
86.5
 30
0.0
 11
22.0
 21
86.5
 31
0.0
  0
LINE
  5
45
  8
1
 62
     7
 10
22.0
 20
86.5
 30
0.0
 11
22.0
 21
95.0
 31
0.0
  0
LINE
  5
46
  8
1
 62
     7
 10
25.0
 20
98.0
 30
0.0
 11
89.500000000000014
 21
98.0
 31
0.0
  0
LINE
  5
47
  8
1
 62
     7
 10
86.0
 20
86.0
 30
0.0
 11
86.0
 21
72.0
 31
0.0
  0
LINE
  5
48
  8
1
 62
     7
 10
86.0
 20
72.0
 30
0.0
 11
90.0
 21
72.0
 31
0.0
  0
LINE
  5
49
  8
1
 62
     7
 10
90.0
 20
72.0
 30
0.0
 11
90.0
 21
-72.000000000000014
 31
0.0
  0
LINE
  5
4A
  8
1
 62
     7
 10
25.0
 20
98.0
 30
0.0
 11
22.0
 21
95.0
 31
0.0
  0
LINE
  5
4B
  8
1
 62
     7
 10
0.0
 20
41.0
 30
0.0
 11
90.0
 21
41.0
 31
0.0
  0
LINE
  5
4C
  8
1
 62
     7
 10
0.0
 20
35.0
 30
0.0
 11
90.0
 21
35.0
 31
0.0
  0
LINE
  5
4D
  8
1
 62
     7
 10
90.0
 20
98.0
 30
0.0
 11
129.0
 21
98.0
 31
0.0
  0
LINE
  5
4E
  8
1
 62
     7
 10
129.0
 20
98.0
 30
0.0
 11
129.0
 21
83.09999999999998
 31
0.0
  0
LINE
  5
4F
  8
1
 62
     7
 10
130.0
 20
83.09999999999998
 30
0.0
 11
109.0
 21
83.09999999999998
 31
0.0
  0
LINE
  5
50
  8
1
 62
     7
 10
114.0
 20
83.09999999999998
 30
0.0
 11
114.0
 21
89.500000000000014
 31
0.0
  0
LINE
  5
51
  8
1
 62
     7
 10
114.0
 20
89.500000000000014
 30
0.0
 11
109.0
 21
89.500000000000014
 31
0.0
  0
LINE
  5
52
  8
1
 62
     7
 10
109.0
 20
46.0
 30
0.0
 11
92.049999999999955
 21
46.0
 31
0.0
  0
LINE
  5
53
  8
1
 62
     7
 10
109.0
 20
50.0
 30
0.0
 11
134.0
 21
50.0
 31
0.0
  0
LINE
  5
54
  8
1
 62
     7
 10
134.0
 20
80.0
 30
0.0
 11
130.0
 21
80.0
 31
0.0
  0
LINE
  5
55
  8
1
 62
     7
 10
130.0
 20
80.0
 30
0.0
 11
130.0
 21
87.90000000000002
 31
0.0
  0
LINE
  5
56
  8
1
 62
     7
 10
130.0
 20
87.90000000000002
 30
0.0
 11
109.0
 21
87.90000000000002
 31
0.0
  0
LINE
  5
57
  8
1
 62
     7
 10
134.0
 20
80.0
 30
0.0
 11
134.0
 21
-80.000000000000014
 31
0.0
  0
LINE
  5
58
  8
1
  6
DASHDOT
 62
     3
 10
91.187378698224848
 20
68.0
 30
0.0
 11
135.79111834319491
 21
68.0
 31
0.0
  0
LINE
  5
59
  8
1
 62
     7
 10
0.0
 20
-88.000000000000014
 30
0.0
 11
0.0
 21
88.0
 31
0.0
  0
LINE
  5
5A
  8
1
 62
     7
 10
19.0
 20
-88.000000000000014
 30
0.0
 11
0.0
 21
-88.000000000000014
 31
0.0
  0
LINE
  5
5B
  8
1
 62
     7
 10
19.0
 20
-85.599999999999909
 30
0.0
 11
19.0
 21
-88.000000000000014
 31
0.0
  0
LINE
  5
5C
  8
1
 62
     7
 10
71.0
 20
-85.599999999999909
 30
0.0
 11
19.0
 21
-85.599999999999909
 31
0.0
  0
LINE
  5
5D
  8
1
 62
     7
 10
71.0
 20
-59.900000000000013
 30
0.0
 11
71.0
 21
-85.599999999999909
 31
0.0
  0
LINE
  5
5E
  8
1
 62
     7
 10
71.0
 20
-59.900000000000013
 30
0.0
 11
0.0
 21
-59.899999999999913
 31
0.0
  0
LINE
  5
5F
  8
1
 62
     7
 10
74.0
 20
-59.000000000000007
 30
0.0
 11
0.0
 21
-59.000000000000007
 31
0.0
  0
LINE
  5
60
  8
1
 62
     7
 10
74.0
 20
-86.500000000000014
 30
0.0
 11
74.0
 21
-59.000000000000007
 31
0.0
  0
LINE
  5
61
  8
1
 62
     7
 10
22.0
 20
-86.500000000000014
 30
0.0
 11
74.0
 21
-86.500000000000014
 31
0.0
  0
LINE
  5
62
  8
1
 62
     7
 10
22.0
 20
-95.0
 30
0.0
 11
22.0
 21
-86.500000000000014
 31
0.0
  0
LINE
  5
63
  8
1
 62
     7
 10
89.500000000000014
 20
-98.0
 30
0.0
 11
25.0
 21
-98.0
 31
0.0
  0
LINE
  5
64
  8
1
 62
     7
 10
86.0
 20
-72.000000000000014
 30
0.0
 11
86.0
 21
-86.000000000000014
 31
0.0
  0
LINE
  5
65
  8
1
 62
     7
 10
90.0
 20
-72.000000000000014
 30
0.0
 11
86.0
 21
-72.000000000000014
 31
0.0
  0
LINE
  5
66
  8
1
 62
     7
 10
22.0
 20
-95.0
 30
0.0
 11
25.0
 21
-98.0
 31
0.0
  0
LINE
  5
67
  8
1
 62
     7
 10
90.0
 20
-35.0
 30
0.0
 11
0.0
 21
-35.0
 31
0.0
  0
LINE
  5
68
  8
1
 62
     7
 10
129.0
 20
-98.0
 30
0.0
 11
90.0
 21
-98.0
 31
0.0
  0
LINE
  5
69
  8
1
 62
     7
 10
129.0
 20
-83.099999999999909
 30
0.0
 11
129.0
 21
-98.0
 31
0.0
  0
LINE
  5
6A
  8
1
 62
     7
 10
109.0
 20
-83.099999999999909
 30
0.0
 11
130.0
 21
-83.099999999999909
 31
0.0
  0
LINE
  5
6B
  8
1
 62
     7
 10
114.0
 20
-89.500000000000014
 30
0.0
 11
114.0
 21
-83.099999999999909
 31
0.0
  0
LINE
  5
6C
  8
1
 62
     7
 10
109.0
 20
-89.500000000000014
 30
0.0
 11
114.0
 21
-89.500000000000014
 31
0.0
  0
LINE
  5
6D
  8
1
 62
     7
 10
109.0
 20
89.500000000000014
 30
0.0
 11
109.0
 21
-89.500000000000014
 31
0.0
  0
LINE
  5
6E
  8
1
 62
     7
 10
109.0
 20
-46.0
 30
0.0
 11
92.150000000000077
 21
-46.0
 31
0.0
  0
LINE
  5
6F
  8
1
 62
     7
 10
134.0
 20
-50.0
 30
0.0
 11
109.0
 21
-50.0
 31
0.0
  0
LINE
  5
70
  8
1
 62
     7
 10
130.0
 20
-80.000000000000014
 30
0.0
 11
134.0
 21
-80.000000000000014
 31
0.0
  0
LINE
  5
71
  8
1
 62
     7
 10
130.0
 20
-87.899999999999906
 30
0.0
 11
130.0
 21
-80.000000000000014
 31
0.0
  0
LINE
  5
72
  8
1
 62
     7
 10
109.0
 20
-87.899999999999906
 30
0.0
 11
130.0
 21
-87.899999999999906
 31
0.0
  0
LINE
  5
73
  8
1
 62
     7
 10
92.049999999999955
 20
80.0
 30
0.0
 11
109.0
 21
80.0
 31
0.0
  0
LINE
  5
74
  8
1
 62
     7
 10
109.0
 20
74.5
 30
0.0
 11
134.0
 21
74.5
 31
0.0
  0
LINE
  5
75
  8
1
 62
     7
 10
134.0
 20
61.5
 30
0.0
 11
109.0
 21
61.5
 31
0.0
  0
LINE
  5
76
  8
1
 62
     7
 10
109.0
 20
56.0
 30
0.0
 11
92.049999999999955
 21
56.0
 31
0.0
  0
LINE
  5
77
  8
1
 62
     7
 10
294.01011791544892
 20
41.0
 30
0.0
 11
312.01011791544892
 21
41.0
 31
0.0
  0
LINE
  5
78
  8
1
 62
     7
 10
312.01011791544892
 20
41.0
 30
0.0
 11
312.01011791544892
 21
33.823069050575533
 31
0.0
  0
LINE
  5
79
  8
1
 62
     7
 10
294.01011791544892
 20
33.823069050575533
 30
0.0
 11
294.01011791544892
 21
41.0
 31
0.0
  0
LINE
  5
7A
  8
1
 62
     7
 10
0.0
 20
81.200000000000017
 30
0.0
 11
18.399999999999981
 21
81.200000000000017
 31
0.0
  0
LINE
  5
7B
  8
1
 62
     7
 10
18.399999999999981
 20
81.200000000000017
 30
0.0
 11
18.399999999999981
 21
74.799999999999997
 31
0.0
  0
LINE
  5
7C
  8
1
 62
     7
 10
18.399999999999981
 20
74.799999999999997
 30
0.0
 11
0.0
 21
74.799999999999997
 31
0.0
  0
LINE
  5
7D
  8
1
 62
     7
 10
18.399999999999981
 20
81.200000000000017
 30
0.0
 11
20.709401076758571
 21
78.0
 31
0.0
  0
LINE
  5
7E
  8
1
 62
     7
 10
20.709401076758571
 20
78.0
 30
0.0
 11
18.399999999999981
 21
74.799999999999997
 31
0.0
  0
LINE
  5
7F
  8
1
 62
     3
 10
0.0
 20
82.0
 30
0.0
 11
12.0
 21
82.0
 31
0.0
  0
LINE
  5
80
  8
1
 62
     7
 10
12.0
 20
82.0
 30
0.0
 11
12.0
 21
74.0
 31
0.0
  0
LINE
  5
81
  8
1
 62
     3
 10
12.0
 20
74.0
 30
0.0
 11
0.0
 21
74.0
 31
0.0
  0
LINE
  5
82
  8
1
 62
     3
 10
12.0
 20
82.0
 30
0.0
 11
13.385640646055091
 21
81.200000000000017
 31
0.0
  0
LINE
  5
83
  8
1
 62
     3
 10
12.0
 20
74.0
 30
0.0
 11
13.385640646055091
 21
74.799999999999997
 31
0.0
  0
LINE
  5
84
  8
1
 62
     3
 10
-3.0
 20
78.0
 30
0.0
 11
-1.4508902501530081
 21
78.0
 31
0.0
  0
LINE
  5
85
  8
1
 62
     3
 10
22.730189586910001
 20
78.0
 30
0.0
 11
24.847520861406782
 21
78.0
 31
0.0
  0
LINE
  5
86
  8
1
  6
DASHDOT
 62
     3
 10
-1.4508902501530081
 20
78.0
 30
0.0
 11
22.730189586910001
 21
78.0
 31
0.0
  0
LINE
  5
87
  8
1
  6
DASHDOT
 62
     3
 10
218.7321168689609
 20
0.0
 30
0.0
 11
247.010117915449
 21
0.0
 31
0.0
  0
LINE
  5
88
  8
1
  6
DASHDOT
 62
     3
 10
303.01011791544892
 20
-83.368449215365999
 30
0.0
 11
303.01011791544892
 21
-54.018884168121993
 31
0.0
  0
LINE
  5
89
  8
1
  6
DASHDOT
 62
     3
 10
356.08542639699891
 20
0.0
 30
0.0
 11
383.01011791544892
 21
0.0
 31
0.0
  0
LINE
  5
8A
  8
1
  6
DASHDOT
 62
     3
 10
303.01011791544892
 20
54.0974009174735
 30
0.0
 11
303.01011791544892
 21
81.216254375188583
 31
0.0
  0
LINE
  5
8B
  8
1
  6
DASHDOT
 62
     3
 10
313.35815237749182
 20
0.0
 30
0.0
 11
292.66208345340601
 21
0.0
 31
0.0
  0
LINE
  5
8C
  8
1
  6
DASHDOT
 62
     3
 10
303.01011791544892
 20
10.348034462043
 30
0.0
 11
303.01011791544892
 21
-10.348034462043
 31
0.0
  0
LINE
  5
8D
  8
1
 62
     3
 10
91.849999999999994
 20
98.0
 30
0.0
 11
91.849999999999994
 21
86.0
 31
0.0
  0
LINE
  5
8E
  8
1
 62
     3
 10
87.65000000000002
 20
86.0
 30
0.0
 11
87.65000000000002
 21
98.0
 31
0.0
  0
LINE
  5
8F
  8
1
 62
     7
 10
89.500000000000014
 20
86.0
 30
0.0
 11
86.0
 21
86.0
 31
0.0
  0
LINE
  5
90
  8
1
 62
     7
 10
90.0
 20
98.0
 30
0.0
 11
90.0
 21
86.0
 31
0.0
  0
LINE
  5
91
  8
1
 62
     7
 10
89.500000000000014
 20
86.0
 30
0.0
 11
89.500000000000014
 21
98.0
 31
0.0
  0
LINE
  5
92
  8
1
 62
     3
 10
87.65000000000002
 20
-98.0
 30
0.0
 11
87.65000000000002
 21
-86.000000000000014
 31
0.0
  0
LINE
  5
93
  8
1
 62
     7
 10
89.500000000000014
 20
-98.0
 30
0.0
 11
89.500000000000014
 21
-86.000000000000014
 31
0.0
  0
LINE
  5
94
  8
1
 62
     7
 10
90.0
 20
-86.000000000000014
 30
0.0
 11
90.0
 21
-98.0
 31
0.0
  0
LINE
  5
95
  8
1
 62
     3
 10
91.849999999999994
 20
-86.000000000000014
 30
0.0
 11
91.849999999999994
 21
-98.0
 31
0.0
  0
LINE
  5
96
  8
1
 62
     7
 10
89.500000000000014
 20
-86.000000000000014
 30
0.0
 11
86.0
 21
-86.000000000000014
 31
0.0
  0
LINE
  5
97
  8
1
 62
     3
 10
134.0
 20
0.0
 30
0.0
 11
139.17330354326191
 21
0.0
 31
0.0
  0
LINE
  5
98
  8
1
 62
     3
 10
0.0
 20
0.0
 30
0.0
 11
-5.2237912568640459
 21
0.0
 31
0.0
  0
LINE
  5
99
  8
1
 62
     7
 10
92.049999999999955
 20
86.0
 30
0.0
 11
92.049999999999955
 21
-86.000000000000014
 31
0.0
  0
LINE
  5
9A
  8
1
 62
     7
 10
92.049999999999955
 20
-86.000000000000014
 30
0.0
 11
90.0
 21
-86.000000000000014
 31
0.0
  0
LINE
  5
9B
  8
1
 62
     7
 10
92.049999999999955
 20
86.0
 30
0.0
 11
90.0
 21
86.0
 31
0.0
  0
LINE
  5
9C
  8
1
 62
     7
 10
-204.4876315457023
 20
88.0
 30
0.0
 11
-185.48763154570241
 21
88.0
 31
0.0
  0
LINE
  5
9D
  8
1
 62
     7
 10
-185.48763154570241
 20
85.59999999999998
 30
0.0
 11
-182.48763154570241
 21
85.59999999999998
 31
0.0
  0
LINE
  5
9E
  8
1
 62
     7
 10
-179.48763154570241
 20
98.0
 30
0.0
 11
-114.9876315457023
 21
98.0
 31
0.0
  0
LINE
  5
9F
  8
1
 62
     7
 10
-179.48763154570241
 20
98.0
 30
0.0
 11
-182.48763154570241
 21
95.0
 31
0.0
  0
LINE
  5
A0
  8
1
 62
     7
 10
-114.4876315457024
 20
98.0
 30
0.0
 11
-75.487631545702413
 21
98.0
 31
0.0
  0
LINE
  5
A1
  8
1
 62
     7
 10
-70.487631545702413
 20
80.0
 30
0.0
 11
-74.487631545702413
 21
80.0
 31
0.0
  0
LINE
  5
A2
  8
1
 62
     7
 10
-74.487631545702413
 20
87.90000000000002
 30
0.0
 11
-74.487631545702413
 21
-87.899999999999906
 31
0.0
  0
LINE
  5
A3
  8
1
 62
     7
 10
-70.487631545702413
 20
80.0
 30
0.0
 11
-70.487631545702413
 21
-80.000000000000014
 31
0.0
  0
LINE
  5
A4
  8
1
 62
     7
 10
-204.4876315457023
 20
-88.000000000000014
 30
0.0
 11
-204.4876315457023
 21
88.0
 31
0.0
  0
LINE
  5
A5
  8
1
 62
     7
 10
-185.48763154570241
 20
-88.000000000000014
 30
0.0
 11
-204.4876315457023
 21
-88.000000000000014
 31
0.0
  0
LINE
  5
A6
  8
1
 62
     7
 10
-114.9876315457023
 20
-98.0
 30
0.0
 11
-179.48763154570241
 21
-98.0
 31
0.0
  0
LINE
  5
A7
  8
1
 62
     7
 10
-182.48763154570241
 20
-95.0
 30
0.0
 11
-179.48763154570241
 21
-98.0
 31
0.0
  0
LINE
  5
A8
  8
1
 62
     7
 10
-75.487631545702413
 20
-98.0
 30
0.0
 11
-114.4876315457024
 21
-98.0
 31
0.0
  0
LINE
  5
A9
  8
1
 62
     7
 10
-74.487631545702413
 20
-80.000000000000014
 30
0.0
 11
-70.487631545702413
 21
-80.000000000000014
 31
0.0
  0
LINE
  5
AA
  8
1
 62
     7
 10
-114.9876315457023
 20
-98.0
 30
0.0
 11
-114.9876315457023
 21
98.0
 31
0.0
  0
LINE
  5
AB
  8
1
 62
     3
 10
-112.6376315457024
 20
-98.0
 30
0.0
 11
-112.6376315457024
 21
98.0
 31
0.0
  0
LINE
  5
AC
  8
1
 62
     3
 10
-70.487631545702413
 20
0.0
 30
0.0
 11
-65.314328002440433
 21
0.0
 31
0.0
  0
LINE
  5
AD
  8
1
 62
     3
 10
-204.4876315457023
 20
0.0
 30
0.0
 11
-209.7114228025664
 21
0.0
 31
0.0
  0
LINE
  5
AE
  8
1
 62
     7
 10
-74.487631545702413
 20
87.90000000000002
 30
0.0
 11
-75.487631545702413
 21
87.90000000000002
 31
0.0
  0
LINE
  5
AF
  8
1
 62
     7
 10
-74.487631545702413
 20
-87.899999999999906
 30
0.0
 11
-75.487631545702413
 21
-87.899999999999906
 31
0.0
  0
LINE
  5
B0
  8
1
 62
     7
 10
-75.487631545702413
 20
-98.0
 30
0.0
 11
-75.487631545702413
 21
98.0
 31
0.0
  0
LINE
  5
B1
  8
1
 62
     7
 10
-114.4876315457024
 20
98.0
 30
0.0
 11
-114.4876315457024
 21
-98.0
 31
0.0
  0
LINE
  5
B2
  8
1
 62
     3
 10
-116.83763154570229
 20
98.0
 30
0.0
 11
-116.83763154570229
 21
-98.0
 31
0.0
  0
LINE
  5
B3
  8
1
 62
     7
 10
-179.48763154570241
 20
98.0
 30
0.0
 11
-179.48763154570241
 21
-98.0
 31
0.0
  0
LINE
  5
B4
  8
1
 62
     7
 10
-182.48763154570241
 20
-95.0
 30
0.0
 11
-182.48763154570241
 21
95.0
 31
0.0
  0
LINE
  5
B5
  8
1
 62
     7
 10
-182.48763154570241
 20
-85.599999999999909
 30
0.0
 11
-185.48763154570241
 21
-85.599999999999909
 31
0.0
  0
LINE
  5
B6
  8
1
  6
DASHDOT
 62
     3
 10
-413.23093178433629
 20
-58.9776836351637
 30
0.0
 11
-405.72041037711108
 21
-51.46716222793853
 31
0.0
  0
LINE
  5
B7
  8
1
  6
DASHDOT
 62
     3
 10
-295.27556451400881
 20
-58.9776836351637
 30
0.0
 11
-302.78608592123419
 21
-51.46716222793853
 31
0.0
  0
LINE
  5
B8
  8
1
  6
DASHDOT
 62
     3
 10
-295.27556451400881
 20
58.977683635163743
 30
0.0
 11
-302.78608592123408
 21
51.467162227938474
 31
0.0
  0
LINE
  5
B9
  8
1
  6
DASHDOT
 62
     3
 10
-346.53924185104961
 20
0.0
 30
0.0
 11
-361.9672544472956
 21
0.0
 31
0.0
  0
LINE
  5
BA
  8
1
  6
DASHDOT
 62
     3
 10
-354.25324814917258
 20
7.7140062981229951
 30
0.0
 11
-354.25324814917258
 21
-7.7140062981230093
 31
0.0
  0
LINE
  5
BB
  8
1
 62
     7
 10
-185.48763154570241
 20
88.0
 30
0.0
 11
-185.48763154570241
 21
-88.000000000000014
 31
0.0
  0
LINE
  5
BC
  8
1
 62
     7
 10
-195.33763154570241
 20
88.0
 30
0.0
 11
-195.33763154570241
 21
133.22334839223589
 31
0.0
  0
LINE
  5
BD
  8
1
 62
     7
 10
-195.33763154570241
 20
133.22334839223589
 30
0.0
 11
-193.63763154570231
 21
133.22334839223589
 31
0.0
  0
LINE
  5
BE
  8
1
 62
     7
 10
-193.63763154570231
 20
133.22334839223589
 30
0.0
 11
-193.63763154570231
 21
88.0
 31
0.0
  0
LINE
  5
BF
  8
1
 62
     7
 10
-195.08763154570241
 20
137.57377767770441
 30
0.0
 11
-195.08763154570241
 21
133.22334839223589
 31
0.0
  0
LINE
  5
C0
  8
1
 62
     7
 10
-194.78763154570231
 20
133.22334839223589
 30
0.0
 11
-194.78763154570231
 21
137.57377767770441
 31
0.0
  0
LINE
  5
C1
  8
1
 62
     7
 10
-194.48763154570241
 20
137.57377767770441
 30
0.0
 11
-194.48763154570241
 21
133.22334839223589
 31
0.0
  0
LINE
  5
C2
  8
1
 62
     7
 10
-194.18763154570229
 20
133.22334839223589
 30
0.0
 11
-194.18763154570229
 21
137.57377767770441
 31
0.0
  0
LINE
  5
C3
  8
1
 62
     7
 10
-193.88763154570231
 20
137.57377767770441
 30
0.0
 11
-193.88763154570231
 21
133.22334839223589
 31
0.0
  0
LINE
  5
C4
  8
1
 62
     7
 10
9.1499999999999755
 20
133.22334839223589
 30
0.0
 11
10.849999999999969
 21
133.22334839223589
 31
0.0
  0
LINE
  5
C5
  8
1
 62
     7
 10
9.3999999999999755
 20
137.57377767770441
 30
0.0
 11
9.3999999999999755
 21
133.22334839223589
 31
0.0
  0
LINE
  5
C6
  8
1
 62
     7
 10
9.6999999999999886
 20
133.22334839223589
 30
0.0
 11
9.6999999999999886
 21
137.57377767770441
 31
0.0
  0
LINE
  5
C7
  8
1
 62
     7
 10
10.0
 20
137.57377767770441
 30
0.0
 11
10.0
 21
133.22334839223589
 31
0.0
  0
LINE
  5
C8
  8
1
 62
     7
 10
10.29999999999994
 20
133.22334839223589
 30
0.0
 11
10.29999999999994
 21
137.57377767770441
 31
0.0
  0
LINE
  5
C9
  8
1
 62
     7
 10
10.599999999999961
 20
137.57377767770441
 30
0.0
 11
10.599999999999961
 21
133.22334839223589
 31
0.0
  0
LINE
  5
CA
  8
1
 62
     7
 10
9.1499999999999755
 20
88.0
 30
0.0
 11
9.1499999999999755
 21
133.22334839223589
 31
0.0
  0
LINE
  5
CB
  8
1
 62
     7
 10
10.849999999999969
 20
133.22334839223589
 30
0.0
 11
10.849999999999969
 21
88.0
 31
0.0
  0
LINE
  5
CC
  8
1
 62
     7
 10
301.31011791544881
 20
133.22334839223589
 30
0.0
 11
303.01011791544892
 21
133.22334839223589
 31
0.0
  0
LINE
  5
CD
  8
1
 62
     7
 10
301.56011791544881
 20
137.57377767770441
 30
0.0
 11
301.56011791544881
 21
133.22334839223589
 31
0.0
  0
LINE
  5
CE
  8
1
 62
     7
 10
301.860117915449
 20
133.22334839223589
 30
0.0
 11
301.860117915449
 21
137.57377767770441
 31
0.0
  0
LINE
  5
CF
  8
1
 62
     7
 10
302.16011791544901
 20
137.57377767770441
 30
0.0
 11
302.16011791544901
 21
133.22334839223589
 31
0.0
  0
LINE
  5
D0
  8
1
 62
     7
 10
302.46011791544879
 20
133.22334839223589
 30
0.0
 11
302.46011791544879
 21
137.57377767770441
 31
0.0
  0
LINE
  5
D1
  8
1
 62
     7
 10
302.76011791544892
 20
137.57377767770441
 30
0.0
 11
302.76011791544892
 21
133.22334839223589
 31
0.0
  0
LINE
  5
D2
  8
1
 62
     7
 10
303.01011791544892
 20
133.22334839223589
 30
0.0
 11
303.01011791544892
 21
97.996313706179805
 31
0.0
  0
LINE
  5
D3
  8
1
 62
     7
 10
301.31011791544881
 20
97.996313706179805
 30
0.0
 11
301.31011791544881
 21
133.22334839223589
 31
0.0
  0
LINE
  5
D4
  8
1
 62
     7
 10
304.71011791544908
 20
133.22334839223589
 30
0.0
 11
304.71011791544908
 21
97.996313706179805
 31
0.0
  0
LINE
  5
D5
  8
1
 62
     7
 10
303.01011791544892
 20
133.22334839223589
 30
0.0
 11
304.71011791544908
 21
133.22334839223589
 31
0.0
  0
LINE
  5
D6
  8
1
 62
     7
 10
304.46011791544908
 20
133.22334839223589
 30
0.0
 11
304.46011791544908
 21
137.57377767770441
 31
0.0
  0
LINE
  5
D7
  8
1
 62
     7
 10
304.16011791544912
 20
137.57377767770441
 30
0.0
 11
304.16011791544912
 21
133.22334839223589
 31
0.0
  0
LINE
  5
D8
  8
1
 62
     7
 10
303.86011791544911
 20
133.22334839223589
 30
0.0
 11
303.86011791544911
 21
137.57377767770441
 31
0.0
  0
LINE
  5
D9
  8
1
 62
     7
 10
303.56011791544921
 20
137.57377767770441
 30
0.0
 11
303.56011791544921
 21
133.22334839223589
 31
0.0
  0
LINE
  5
DA
  8
1
 62
     7
 10
303.2601179154492
 20
133.22334839223589
 30
0.0
 11
303.2601179154492
 21
137.57377767770441
 31
0.0
  0
LINE
  5
DB
  8
1
 62
     7
 10
-354.25324814917258
 20
133.22334839223589
 30
0.0
 11
-352.55324814917259
 21
133.22334839223589
 31
0.0
  0
LINE
  5
DC
  8
1
 62
     7
 10
-352.80324814917259
 20
133.22334839223589
 30
0.0
 11
-352.80324814917259
 21
137.57377767770441
 31
0.0
  0
LINE
  5
DD
  8
1
 62
     7
 10
-353.1032481491726
 20
137.57377767770441
 30
0.0
 11
-353.1032481491726
 21
133.22334839223589
 31
0.0
  0
LINE
  5
DE
  8
1
 62
     7
 10
-353.40324814917261
 20
133.22334839223589
 30
0.0
 11
-353.40324814917261
 21
137.57377767770441
 31
0.0
  0
LINE
  5
DF
  8
1
 62
     7
 10
-353.70324814917251
 20
137.57377767770441
 30
0.0
 11
-353.70324814917251
 21
133.22334839223589
 31
0.0
  0
LINE
  5
E0
  8
1
 62
     7
 10
-354.00324814917269
 20
133.22334839223589
 30
0.0
 11
-354.00324814917269
 21
137.57377767770441
 31
0.0
  0
LINE
  5
E1
  8
1
 62
     7
 10
-355.95324814917291
 20
133.22334839223589
 30
0.0
 11
-354.25324814917258
 21
133.22334839223589
 31
0.0
  0
LINE
  5
E2
  8
1
 62
     7
 10
-355.70324814917291
 20
137.57377767770441
 30
0.0
 11
-355.70324814917291
 21
133.22334839223589
 31
0.0
  0
LINE
  5
E3
  8
1
 62
     7
 10
-355.4032481491729
 20
133.22334839223589
 30
0.0
 11
-355.4032481491729
 21
137.57377767770441
 31
0.0
  0
LINE
  5
E4
  8
1
 62
     7
 10
-355.10324814917283
 20
137.57377767770441
 30
0.0
 11
-355.10324814917283
 21
133.22334839223589
 31
0.0
  0
LINE
  5
E5
  8
1
 62
     7
 10
-354.80324814917299
 20
133.22334839223589
 30
0.0
 11
-354.80324814917299
 21
137.57377767770441
 31
0.0
  0
LINE
  5
E6
  8
1
 62
     7
 10
-354.50324814917292
 20
137.57377767770441
 30
0.0
 11
-354.50324814917292
 21
133.22334839223589
 31
0.0
  0
LINE
  5
E7
  8
1
 62
     7
 10
-354.25324814917258
 20
133.22334839223589
 30
0.0
 11
-354.25324814917258
 21
87.997520888476998
 31
0.0
  0
LINE
  5
E8
  8
1
 62
     7
 10
-355.95324814917291
 20
133.22334839223589
 30
0.0
 11
-355.95324814917291
 21
87.973094213430542
 31
0.0
  0
LINE
  5
E9
  8
1
 62
     7
 10
-352.55324814917259
 20
133.22334839223589
 30
0.0
 11
-352.55324814917259
 21
87.978520405986444
 31
0.0
  0
ARC
  5
EA
  8
1
 62
     7
 10
-354.25324814917258
 20
0.0
 30
0.0
 40
98.0
 50
90.993956233162237
 51
0.0
  0
ARC
  5
EB
  8
1
 62
     7
 10
-354.25324814917258
 20
0.0
 30
0.0
 40
98.0
 50
0.0
 51
89.006043766837777
  0
ARC
  5
EC
  8
1
  6
DASHDOT
 62
     3
 10
303.01011791544892
 20
0.0
 30
0.0
 40
68.000000000000071
 50
281.96185777551358
 51
283.02323229546693
  0
ARC
  5
ED
  8
1
  6
DASHDOT
 62
     3
 10
303.01011791544892
 20
0.0
 30
0.0
 40
68.000000000000028
 50
348.50218160473571
 51
0.0
  0
ARC
  5
EE
  8
1
  6
DASHDOT
 62
     3
 10
303.01011791544892
 20
0.0
 30
0.0
 40
67.999999999999986
 50
213.9962415851376
 51
236.55339508850381
  0
ARC
  5
EF
  8
1
  6
DASHDOT
 62
     3
 10
303.01011791544892
 20
0.0
 30
0.0
 40
67.999999999999986
 50
194.54241704348769
 51
210.0714155295432
  0
ARC
  5
F0
  8
1
  6
DASHDOT
 62
     3
 10
303.01011791544892
 20
0.0
 30
0.0
 40
68.000000000000043
 50
258.18383109981352
 51
281.96185777551358
  0
ARC
  5
F1
  8
1
  6
DASHDOT
 62
     3
 10
303.01011791544892
 20
0.0
 30
0.0
 40
67.999999999999929
 50
302.82548528535091
 51
326.42588983981898
  0
ARC
  5
F2
  8
1
  6
DASHDOT
 62
     3
 10
303.01011791544892
 20
0.0
 30
0.0
 40
68.0
 50
0.0
 51
11.19756474777348
  0
ARC
  5
F3
  8
1
  6
DASHDOT
 62
     3
 10
303.01011791544892
 20
0.0
 30
0.0
 40
68.0
 50
15.025828428456281
 51
30.015389741762331
  0
ARC
  5
F4
  8
1
  6
DASHDOT
 62
     3
 10
303.01011791544892
 20
0.0
 30
0.0
 40
68.000000000000014
 50
33.941279265196982
 51
56.50957451714234
  0
ARC
  5
F5
  8
1
  6
DASHDOT
 62
     3
 10
303.01011791544892
 20
0.0
 30
0.0
 40
68.000000000000099
 50
168.49385927099331
 51
191.33085743924249
  0
ARC
  5
F6
  8
1
  6
DASHDOT
 62
     3
 10
303.01011791544892
 20
0.0
 30
0.0
 40
67.999999999999972
 50
123.6767611148622
 51
146.6239746409527
  0
ARC
  5
F7
  8
1
  6
DASHDOT
 62
     3
 10
303.01011791544892
 20
0.0
 30
0.0
 40
67.999999999999986
 50
78.469972078427745
 51
101.4000830769907
  0
ARC
  5
F8
  8
1
  6
DASHDOT
 62
     3
 10
303.01011791544778
 20
-0.0000000000007674
 30
0.0
 40
67.999999999999957
 50
122.6303675056533
 51
123.67676111486099
  0
ARC
  5
F9
  8
1
 62
     7
 10
303.01011791544892
 20
0.0
 30
0.0
 40
35.0
 50
0.0
 51
75.099403312170139
  0
ARC
  5
FA
  8
1
 62
     7
 10
303.01011791544892
 20
0.0
 30
0.0
 40
35.0
 50
104.9005966878299
 51
0.0
  0
ARC
  5
FB
  8
1
  6
DASHDOT
 62
     3
 10
-354.25324814917258
 20
0.0
 30
0.0
 40
78.000000000000043
 50
130.92504899960741
 51
139.20442430517011
  0
ARC
  5
FC
  8
1
  6
DASHDOT
 62
     3
 10
-354.25324814917258
 20
0.0
 30
0.0
 40
78.000000000000071
 50
220.9250489996073
 51
229.20442430516999
  0
ARC
  5
FD
  8
1
  6
DASHDOT
 62
     3
 10
-354.25324814917258
 20
0.0
 30
0.0
 40
78.000000000000028
 50
310.92504899960733
 51
319.20442430517011
  0
ARC
  5
FE
  8
1
  6
DASHDOT
 62
     3
 10
-354.25324814917258
 20
0.0
 30
0.0
 40
77.999999999999929
 50
40.925048999607419
 51
49.204424305170143
  0
ARC
  5
FF
  8
1
 62
     7
 10
-354.25324814917258
 20
0.0
 30
0.0
 40
35.0
 50
104.9005966878299
 51
180.0
  0
ARC
  5
100
  8
1
 62
     7
 10
-354.25324814917258
 20
0.0
 30
0.0
 40
35.0
 50
180.0
 51
75.099403312170139
  0
CIRCLE
  5
101
  8
1
 62
     3
 10
-409.40757708172328
 20
55.154328932550698
 30
0.0
 40
4.0
  0
CIRCLE
  5
102
  8
1
 62
     7
 10
-409.40757708172328
 20
55.154328932550698
 30
0.0
 40
3.1999999999999882
  0
CIRCLE
  5
103
  8
1
 62
     7
 10
277.17898623080532
 20
-62.361868444511813
 30
0.0
 40
10.0
  0
CIRCLE
  5
104
  8
1
 62
     7
 10
277.17898623080532
 20
-62.361868444511813
 30
0.0
 40
11.5
  0
CIRCLE
  5
105
  8
1
 62
     7
 10
240.648249470937
 20
25.831131684643669
 30
0.0
 40
11.5
  0
CIRCLE
  5
106
  8
1
 62
     7
 10
240.648249470937
 20
25.831131684643669
 30
0.0
 40
10.0
  0
CIRCLE
  5
107
  8
1
 62
     7
 10
328.84124960009262
 20
62.36186844451187
 30
0.0
 40
10.0
  0
CIRCLE
  5
108
  8
1
 62
     7
 10
328.84124960009262
 20
62.36186844451187
 30
0.0
 40
11.5
  0
CIRCLE
  5
109
  8
1
 62
     7
 10
365.37198635996072
 20
-25.831131684643491
 30
0.0
 40
10.0
  0
CIRCLE
  5
10A
  8
1
 62
     7
 10
365.37198635996072
 20
-25.831131684643491
 30
0.0
 40
11.5
  0
CIRCLE
  5
10B
  8
1
 62
     7
 10
240.18630970468141
 20
-26.022473400826119
 30
0.0
 40
7.75
  0
CIRCLE
  5
10C
  8
1
 62
     7
 10
365.83392612621651
 20
26.022473400826101
 30
0.0
 40
7.75
  0
CIRCLE
  5
10D
  8
1
 62
     7
 10
351.09337903613431
 20
48.083261120685243
 30
0.0
 40
6.5
  0
CIRCLE
  5
10E
  8
1
  6
DASHED
 62
     7
 10
351.09337903613431
 20
48.083261120685243
 30
0.0
 40
12.0
  0
CIRCLE
  5
10F
  8
1
 62
     7
 10
371.01011791544892
 20
0.0
 30
0.0
 40
6.5
  0
CIRCLE
  5
110
  8
1
  6
DASHED
 62
     7
 10
371.01011791544892
 20
0.0
 30
0.0
 40
12.0
  0
CIRCLE
  5
111
  8
1
 62
     7
 10
351.09337903613402
 20
-48.083261120685208
 30
0.0
 40
6.4999999999999432
  0
CIRCLE
  5
112
  8
1
  6
DASHED
 62
     7
 10
351.09337903613402
 20
-48.083261120685208
 30
0.0
 40
11.999999999999931
  0
CIRCLE
  5
113
  8
1
 62
     7
 10
303.01011791544892
 20
-68.000000000000014
 30
0.0
 40
6.5
  0
CIRCLE
  5
114
  8
1
  6
DASHED
 62
     7
 10
303.01011791544892
 20
-68.000000000000014
 30
0.0
 40
12.0
  0
CIRCLE
  5
115
  8
1
 62
     7
 10
254.92685679476381
 20
-48.083261120685208
 30
0.0
 40
6.5000000000001128
  0
CIRCLE
  5
116
  8
1
  6
DASHED
 62
     7
 10
254.92685679476381
 20
-48.083261120685208
 30
0.0
 40
12.00000000000011
  0
CIRCLE
  5
117
  8
1
 62
     7
 10
235.01011791544889
 20
0.0
 30
0.0
 40
6.5
  0
CIRCLE
  5
118
  8
1
  6
DASHED
 62
     7
 10
235.01011791544889
 20
0.0
 30
0.0
 40
12.0
  0
CIRCLE
  5
119
  8
1
 62
     7
 10
254.92685679476361
 20
48.083261120685243
 30
0.0
 40
6.5
  0
CIRCLE
  5
11A
  8
1
  6
DASHED
 62
     7
 10
254.92685679476361
 20
48.083261120685243
 30
0.0
 40
12.0
  0
CIRCLE
  5
11B
  8
1
  6
DASHED
 62
     7
 10
303.01011791544892
 20
68.0
 30
0.0
 40
12.0
  0
CIRCLE
  5
11C
  8
1
 62
     7
 10
303.01011791544892
 20
68.0
 30
0.0
 40
6.5
  0
CIRCLE
  5
11D
  8
1
 62
     7
 10
303.01011791544892
 20
0.0
 30
0.0
 40
46.0
  0
CIRCLE
  5
11E
  8
1
 62
     7
 10
303.01011791544892
 20
0.0
 30
0.0
 40
50.0
  0
CIRCLE
  5
11F
  8
1
 62
     7
 10
303.01011791544892
 20
0.0
 30
0.0
 40
80.0
  0
CIRCLE
  5
120
  8
1
 62
     7
 10
303.01011791544892
 20
0.0
 30
0.0
 40
98.0
  0
CIRCLE
  5
121
  8
1
 62
     7
 10
303.01011791544892
 20
0.0
 30
0.0
 40
87.900000000000034
  0
CIRCLE
  5
122
  8
1
 62
     3
 10
-409.40757708172328
 20
-55.154328932550698
 30
0.0
 40
4.0
  0
CIRCLE
  5
123
  8
1
 62
     7
 10
-409.40757708172328
 20
-55.154328932550698
 30
0.0
 40
3.200000000000101
  0
CIRCLE
  5
124
  8
1
 62
     3
 10
-299.09891921662182
 20
-55.154328932550698
 30
0.0
 40
4.0
  0
CIRCLE
  5
125
  8
1
 62
     7
 10
-299.09891921662182
 20
-55.154328932550698
 30
0.0
 40
3.200000000000101
  0
CIRCLE
  5
126
  8
1
 62
     3
 10
-299.09891921662182
 20
55.154328932550698
 30
0.0
 40
4.0
  0
CIRCLE
  5
127
  8
1
 62
     7
 10
-299.09891921662182
 20
55.154328932550698
 30
0.0
 40
3.1999999999998741
  0
CIRCLE
  5
128
  8
1
 62
     7
 10
-354.25324814917258
 20
0.0
 30
0.0
 40
88.0
  0
CIRCLE
  5
129
  8
1
 62
     7
 10
-354.25324814917258
 20
0.0
 30
0.0
 40
59.5
  0
TEXT
  5
12B
  8
1
 62
     7
 10
-382.72661450566738
 20
178.9374369325088
 30
0.0
 40
10.0
  1
MZ 160
 41
0.9
  7
SIMPLEX
  0
ENDSEC
  0
EOF
