  0
SECTION
  2
HEADER
  9
$ACADVER
  1
AC1009
  9
$INSBASE
 10
0.0
 20
0.0
 30
0.0
  9
$EXTMIN
 10
-620.55299162182905
 20
-129.0000000000002
 30
0.0
  9
$EXTMAX
 10
532.85039826691104
 20
255.34058389958241
 30
0.0
  9
$LIMMIN
 10
-620.55299162182905
 20
-129.0000000000002
  9
$LIMMAX
 10
532.85039826691104
 20
255.34058389958241
  9
$ORTHOMODE
 70
     0
  9
$REGENMODE
 70
     1
  9
$FILLMODE
 70
     1
  9
$QTEXTMODE
 70
     0
  9
$MIRRTEXT
 70
     1
  9
$DRAGMODE
 70
     2
  9
$LTSCALE
 40
1.0
  9
$OSMODE
 70
    37
  9
$ATTMODE
 70
     1
  9
$TEXTSIZE
 40
3.5
  9
$TRACEWID
 40
0.5
  9
$TEXTSTYLE
  7
STANDARD
  9
$CLAYER
  8
0
  9
$CELTYPE
  6
BYLAYER
  9
$CECOLOR
 62
   256
  9
$DIMSCALE
 40
1.0
  9
$DIMASZ
 40
0.18
  9
$DIMEXO
 40
0.0625
  9
$DIMDLI
 40
0.38
  9
$DIMRND
 40
0.0
  9
$DIMDLE
 40
0.0
  9
$DIMEXE
 40
0.18
  9
$DIMTP
 40
0.0
  9
$DIMTM
 40
0.0
  9
$DIMTXT
 40
0.18
  9
$DIMCEN
 40
0.09
  9
$DIMTSZ
 40
0.0
  9
$DIMTOL
 70
     0
  9
$DIMLIM
 70
     0
  9
$DIMTIH
 70
     1
  9
$DIMTOH
 70
     1
  9
$DIMSE1
 70
     0
  9
$DIMSE2
 70
     0
  9
$DIMTAD
 70
     0
  9
$DIMZIN
 70
     0
  9
$DIMBLK
  1

  9
$DIMASO
 70
     1
  9
$DIMSHO
 70
     1
  9
$DIMPOST
  1

  9
$DIMAPOST
  1

  9
$DIMALT
 70
     0
  9
$DIMALTD
 70
     2
  9
$DIMALTF
 40
25.399999999999999
  9
$DIMLFAC
 40
1.0
  9
$DIMTOFL
 70
     0
  9
$DIMTVP
 40
0.0
  9
$DIMTIX
 70
     0
  9
$DIMSOXD
 70
     0
  9
$DIMSAH
 70
     0
  9
$DIMBLK1
  1

  9
$DIMBLK2
  1

  9
$DIMSTYLE
  2
STANDARD
  9
$DIMCLRD
 70
     0
  9
$DIMCLRE
 70
     0
  9
$DIMCLRT
 70
     0
  9
$DIMTFAC
 40
1.0
  9
$DIMGAP
 40
0.09
  9
$LUNITS
 70
     2
  9
$LUPREC
 70
     4
  9
$SKETCHINC
 40
0.1
  9
$FILLETRAD
 40
2.0
  9
$AUNITS
 70
     0
  9
$AUPREC
 70
     0
  9
$MENU
  1
ACAD
  9
$ELEVATION
 40
0.0
  9
$PELEVATION
 40
0.0
  9
$THICKNESS
 40
0.0
  9
$LIMCHECK
 70
     0
  9
$BLIPMODE
 70
     0
  9
$CHAMFERA
 40
0.0
  9
$CHAMFERB
 40
0.0
  9
$SKPOLY
 70
     0
  9
$TDCREATE
 40
2452095.0899245371
  9
$TDUPDATE
 40
2452095.0906918971
  9
$TDINDWG
 40
0.0007831019
  9
$TDUSRTIMER
 40
0.0007831019
  9
$USRTIMER
 70
     1
  9
$ANGBASE
 50
0.0
  9
$ANGDIR
 70
     0
  9
$PDMODE
 70
     0
  9
$PDSIZE
 40
0.0
  9
$PLINEWID
 40
0.0
  9
$COORDS
 70
     1
  9
$SPLFRAME
 70
     0
  9
$SPLINETYPE
 70
     6
  9
$SPLINESEGS
 70
     8
  9
$ATTDIA
 70
     0
  9
$ATTREQ
 70
     1
  9
$HANDLING
 70
 10241
  9
$HANDSEED
  5
12C
  9
$SURFTAB1
 70
     6
  9
$SURFTAB2
 70
     6
  9
$SURFTYPE
 70
     6
  9
$SURFU
 70
     6
  9
$SURFV
 70
     6
  9
$UCSNAME
  2

  9
$UCSORG
 10
0.0
 20
0.0
 30
0.0
  9
$UCSXDIR
 10
1.0
 20
0.0
 30
0.0
  9
$UCSYDIR
 10
0.0
 20
1.0
 30
0.0
  9
$PUCSNAME
  2

  9
$PUCSORG
 10
0.0
 20
0.0
 30
0.0
  9
$PUCSXDIR
 10
1.0
 20
0.0
 30
0.0
  9
$PUCSYDIR
 10
0.0
 20
1.0
 30
0.0
  9
$USERI1
 70
     0
  9
$USERI2
 70
     0
  9
$USERI3
 70
     0
  9
$USERI4
 70
     0
  9
$USERI5
 70
     0
  9
$USERR1
 40
0.0
  9
$USERR2
 40
0.0
  9
$USERR3
 40
0.0
  9
$USERR4
 40
0.0
  9
$USERR5
 40
0.0
  9
$WORLDVIEW
 70
     1
  9
$SHADEDGE
 70
     3
  9
$SHADEDIF
 70
    70
  9
$TILEMODE
 70
     1
  9
$MAXACTVP
 70
    64
  9
$PLIMCHECK
 70
     0
  9
$PEXTMIN
 10
1.0000000000000000E+020
 20
1.0000000000000000E+020
 30
1.0000000000000000E+020
  9
$PEXTMAX
 10
-1.0000000000000000E+020
 20
-1.0000000000000000E+020
 30
-1.0000000000000000E+020
  9
$PLIMMIN
 10
0.0
 20
0.0
  9
$PLIMMAX
 10
12.0
 20
9.0
  9
$UNITMODE
 70
     0
  9
$VISRETAIN
 70
     1
  9
$PLINEGEN
 70
     0
  9
$PSLTSCALE
 70
     1
  0
ENDSEC
  0
SECTION
  2
TABLES
  0
TABLE
  2
VPORT
 70
     2
  0
VPORT
  2
*ACTIVE
 70
     0
 10
0.0
 20
0.0
 11
1.0
 21
1.0
 12
-521.47827471712401
 22
221.02087469896881
 13
0.0
 23
0.0
 14
1.0
 24
1.0
 15
0.0
 25
0.0
 16
0.0
 26
0.0
 36
1.0
 17
0.0
 27
0.0
 37
0.0
 40
9.0000009988752936
 41
2.4144144144144142
 42
50.0
 43
0.0
 44
0.0
 50
0.0
 51
0.0
 71
     0
 72
   100
 73
     1
 74
     1
 75
     0
 76
     0
 77
     0
 78
     0
  0
ENDTAB
  0
TABLE
  2
LTYPE
 70
     9
  0
LTYPE
  2
CONTINUOUS
 70
     0
  3
Solid line
 72
    65
 73
     0
 40
0.0
  0
LTYPE
  2
BORDER
 70
     0
  3
__ __ . __ __ .
 72
    65
 73
     6
 40
53.117261376455133
 49
15.176360393272899
 49
-7.5881801966364471
 49
15.176360393272899
 49
-7.5881801966364471
 49
0.0
 49
-7.5881801966364471
  0
LTYPE
  2
CENTER
 70
     0
  3
____ _ ____ _
 72
    65
 73
     4
 40
60.705441573091569
 49
37.940900983182239
 49
-7.5881801966364471
 49
7.5881801966364471
 49
-7.5881801966364471
  0
LTYPE
  2
DASHDOT
 70
     0
  3
__ . __ . __ .
 72
    65
 73
     4
 40
30.352720786545781
 49
15.176360393272899
 49
-7.5881801966364471
 49
0.0
 49
-7.5881801966364471
  0
LTYPE
  2
DASHED
 70
     0
  3
__ __ __ __ __
 72
    65
 73
     2
 40
22.764540589909348
 49
15.176360393272899
 49
-7.5881801966364471
  0
LTYPE
  2
DIVIDE
 70
     0
  3
__ . . __ . . 
 72
    65
 73
     6
 40
37.940900983182239
 49
15.176360393272899
 49
-7.5881801966364471
 49
0.0
 49
-7.5881801966364471
 49
0.0
 49
-7.5881801966364471
  0
LTYPE
  2
DOT
 70
     0
  3
..............
 72
    65
 73
     4
 40
15.176360393272899
 49
0.0
 49
-7.5881801966364471
 49
0.0
 49
-7.5881801966364471
  0
LTYPE
  2
HIDDEN
 70
     0
  3
_ _ _ _ _ _ _
 72
    65
 73
     2
 40
11.38227029495466
 49
7.5881801966364471
 49
-3.7940900983182231
  0
LTYPE
  2
PHANTOM
 70
     0
  3
_____ _ _ _____ _ _ 
 72
    65
 73
     6
 40
75.881801966364492
 49
37.940900983182239
 49
-7.5881801966364471
 49
7.5881801966364471
 49
-7.5881801966364471
 49
7.5881801966364471
 49
-7.5881801966364471
  0
ENDTAB
  0
TABLE
  2
LAYER
 70
     2
  0
LAYER
  2
0
 70
     0
 62
     7
  6
CONTINUOUS
  0
LAYER
  2
1
 70
     0
 62
     7
  6
CONTINUOUS
  0
ENDTAB
  0
TABLE
  2
STYLE
 70
     4
  0
STYLE
  2
STANDARD
 70
     0
 40
0.0
 41
1.0
 50
0.0
 71
     0
 42
3.5
  3
txt
  4

  0
STYLE
  2
SIMPLEX
 70
     0
 40
0.0
 41
1.0
 50
0.0
 71
     0
 42
3.5
  3
simplex
  4

  0
STYLE
  2
COMPLEX
 70
     0
 40
0.0
 41
1.0
 50
0.0
 71
     0
 42
3.5
  3
complex
  4

  0
STYLE
  2
ITALIC
 70
     0
 40
0.0
 41
1.0
 50
0.0
 71
     0
 42
3.5
  3
italic
  4

  0
ENDTAB
  0
TABLE
  2
VIEW
 70
     0
  0
ENDTAB
  0
TABLE
  2
UCS
 70
     0
  0
ENDTAB
  0
TABLE
  2
APPID
 70
     1
  0
APPID
  2
ACAD
 70
     0
  0
ENDTAB
  0
TABLE
  2
DIMSTYLE
 70
     1
  0
DIMSTYLE
  2
STANDARD
 70
     0
  3

  4

  5

  6

  7

 40
1.0
 41
0.18
 42
0.0625
 43
0.38
 44
0.18
 45
0.0
 46
0.0
 47
0.0
 48
0.0
140
0.18
141
0.09
142
0.0
143
25.399999999999999
144
1.0
145
0.0
146
1.0
147
0.09
 71
     0
 72
     0
 73
     1
 74
     1
 75
     0
 76
     0
 77
     0
 78
     0
170
     0
171
     2
172
     0
173
     0
174
     0
175
     0
176
     0
177
     0
178
     0
  0
ENDTAB
  0
ENDSEC
  0
SECTION
  2
BLOCKS
  0
BLOCK
  8
0
  2
$MODEL_SPACE
 70
     0
 10
0.0
 20
0.0
 30
0.0
  3
$MODEL_SPACE
  1

  0
ENDBLK
  5
20
  8
0
  0
BLOCK
 67
     1
  8
0
  2
$PAPER_SPACE
 70
     0
 10
0.0
 20
0.0
 30
0.0
  3
$PAPER_SPACE
  1

  0
ENDBLK
  5
1C
 67
     1
  8
0
  0
ENDSEC
  0
SECTION
  2
ENTITIES
  0
LINE
  5
33
  8
1
 62
     7
 10
81.0
 20
114.5
 30
0.0
 11
81.0
 21
80.40000000000002
 31
0.0
  0
LINE
  5
34
  8
1
 62
     7
 10
-491.55299162182882
 20
115.0
 30
0.0
 11
-491.55299162182882
 21
180.06267449024531
 31
0.0
  0
LINE
  5
35
  8
1
 62
     7
 10
-493.65299162182862
 20
114.9808244882597
 30
0.0
 11
-493.65299162182862
 21
180.06267449024531
 31
0.0
  0
LINE
  5
36
  8
1
 62
     7
 10
-491.8029916218286
 20
184.43098545153379
 30
0.0
 11
-491.8029916218286
 21
180.06267449024531
 31
0.0
  0
LINE
  5
37
  8
1
 62
     7
 10
-492.20299162182857
 20
180.06267449024531
 30
0.0
 11
-492.20299162182857
 21
184.43098545153379
 31
0.0
  0
LINE
  5
38
  8
1
 62
     7
 10
-492.60299162182849
 20
184.43098545153379
 30
0.0
 11
-492.60299162182849
 21
180.06267449024531
 31
0.0
  0
LINE
  5
39
  8
1
 62
     7
 10
-493.00299162182858
 20
180.06267449024531
 30
0.0
 11
-493.00299162182858
 21
184.43098545153379
 31
0.0
  0
LINE
  5
3A
  8
1
 62
     7
 10
-493.40299162182851
 20
184.43098545153379
 30
0.0
 11
-493.40299162182851
 21
180.06267449024531
 31
0.0
  0
LINE
  5
3B
  8
1
 62
     7
 10
-493.65299162182862
 20
180.06267449024531
 30
0.0
 11
-491.55299162182882
 21
180.06267449024531
 31
0.0
  0
LINE
  5
3C
  8
1
 62
     7
 10
-489.45299162182903
 20
180.06267449024531
 30
0.0
 11
-489.45299162182903
 21
114.9808244882597
 31
0.0
  0
LINE
  5
3D
  8
1
 62
     7
 10
-491.30299162182882
 20
180.06267449024531
 30
0.0
 11
-491.30299162182882
 21
184.43098545153379
 31
0.0
  0
LINE
  5
3E
  8
1
 62
     7
 10
-490.90299162182879
 20
184.43098545153379
 30
0.0
 11
-490.90299162182879
 21
180.06267449024531
 31
0.0
  0
LINE
  5
3F
  8
1
 62
     7
 10
-490.50299162182881
 20
180.06267449024531
 30
0.0
 11
-490.50299162182881
 21
184.43098545153379
 31
0.0
  0
LINE
  5
40
  8
1
 62
     7
 10
-490.10299162182878
 20
184.43098545153379
 30
0.0
 11
-490.10299162182878
 21
180.06267449024531
 31
0.0
  0
LINE
  5
41
  8
1
 62
     7
 10
-489.70299162182891
 20
180.06267449024531
 30
0.0
 11
-489.70299162182891
 21
184.43098545153379
 31
0.0
  0
LINE
  5
42
  8
1
 62
     7
 10
-491.55299162182882
 20
180.06267449024531
 30
0.0
 11
-489.45299162182903
 21
180.06267449024531
 31
0.0
  0
LINE
  5
43
  8
1
 62
     7
 10
404.1003982669107
 20
175.38153909898631
 30
0.0
 11
404.1003982669107
 21
179.74985006027481
 31
0.0
  0
LINE
  5
44
  8
1
 62
     7
 10
404.50039826691079
 20
179.74985006027481
 30
0.0
 11
404.50039826691079
 21
175.38153909898631
 31
0.0
  0
LINE
  5
45
  8
1
 62
     7
 10
404.90039826691071
 20
175.38153909898631
 30
0.0
 11
404.90039826691071
 21
179.74985006027481
 31
0.0
  0
LINE
  5
46
  8
1
 62
     7
 10
405.30039826691069
 20
179.74985006027481
 30
0.0
 11
405.30039826691069
 21
175.38153909898631
 31
0.0
  0
LINE
  5
47
  8
1
 62
     7
 10
405.70039826691061
 20
175.38153909898631
 30
0.0
 11
405.70039826691061
 21
179.74985006027481
 31
0.0
  0
LINE
  5
48
  8
1
 62
     7
 10
403.85039826691099
 20
175.38153909898631
 30
0.0
 11
405.95039826691072
 21
175.38153909898631
 31
0.0
  0
LINE
  5
49
  8
1
 62
     7
 10
405.95039826691072
 20
175.38153909898631
 30
0.0
 11
405.95039826691072
 21
128.9829058441465
 31
0.0
  0
LINE
  5
4A
  8
1
 62
     7
 10
401.75039826691108
 20
128.9829058441465
 30
0.0
 11
401.75039826691108
 21
175.38153909898631
 31
0.0
  0
LINE
  5
4B
  8
1
 62
     7
 10
403.85039826691099
 20
175.38153909898631
 30
0.0
 11
403.85039826691099
 21
129.0
 31
0.0
  0
LINE
  5
4C
  8
1
 62
     7
 10
403.60039826691087
 20
179.74985006027481
 30
0.0
 11
403.60039826691087
 21
175.38153909898631
 31
0.0
  0
LINE
  5
4D
  8
1
 62
     7
 10
403.20039826691101
 20
175.38153909898631
 30
0.0
 11
403.20039826691101
 21
179.74985006027481
 31
0.0
  0
LINE
  5
4E
  8
1
 62
     7
 10
402.80039826691097
 20
179.74985006027481
 30
0.0
 11
402.80039826691097
 21
175.38153909898631
 31
0.0
  0
LINE
  5
4F
  8
1
 62
     7
 10
402.400398266911
 20
175.38153909898631
 30
0.0
 11
402.400398266911
 21
179.74985006027481
 31
0.0
  0
LINE
  5
50
  8
1
 62
     7
 10
402.00039826691102
 20
179.74985006027481
 30
0.0
 11
402.00039826691102
 21
175.38153909898631
 31
0.0
  0
LINE
  5
51
  8
1
 62
     7
 10
401.75039826691108
 20
175.38153909898631
 30
0.0
 11
403.85039826691099
 21
175.38153909898631
 31
0.0
  0
LINE
  5
52
  8
1
 62
     7
 10
11.04999999999994
 20
175.38153909898631
 30
0.0
 11
11.04999999999994
 21
114.5
 31
0.0
  0
LINE
  5
53
  8
1
 62
     7
 10
8.9500000000000473
 20
114.5
 30
0.0
 11
8.9500000000000473
 21
175.38153909898631
 31
0.0
  0
LINE
  5
54
  8
1
 62
     7
 10
10.79999999999994
 20
179.74985006027481
 30
0.0
 11
10.79999999999994
 21
175.38153909898631
 31
0.0
  0
LINE
  5
55
  8
1
 62
     7
 10
10.399999999999981
 20
175.38153909898631
 30
0.0
 11
10.399999999999981
 21
179.74985006027481
 31
0.0
  0
LINE
  5
56
  8
1
 62
     7
 10
10.0
 20
179.74985006027481
 30
0.0
 11
10.0
 21
175.38153909898631
 31
0.0
  0
LINE
  5
57
  8
1
 62
     7
 10
9.6000000000000245
 20
175.38153909898631
 30
0.0
 11
9.6000000000000245
 21
179.74985006027481
 31
0.0
  0
LINE
  5
58
  8
1
 62
     7
 10
9.2000000000000473
 20
179.74985006027481
 30
0.0
 11
9.2000000000000473
 21
175.38153909898631
 31
0.0
  0
LINE
  5
59
  8
1
 62
     7
 10
8.9500000000000473
 20
175.38153909898631
 30
0.0
 11
11.04999999999994
 21
175.38153909898631
 31
0.0
  0
LINE
  5
5A
  8
1
 62
     7
 10
-248.0615491185961
 20
179.74985006027481
 30
0.0
 11
-248.0615491185961
 21
175.38153909898631
 31
0.0
  0
LINE
  5
5B
  8
1
 62
     7
 10
-248.46154911859591
 20
175.38153909898631
 30
0.0
 11
-248.46154911859591
 21
179.74985006027481
 31
0.0
  0
LINE
  5
5C
  8
1
 62
     7
 10
-248.861549118596
 20
179.74985006027481
 30
0.0
 11
-248.861549118596
 21
175.38153909898631
 31
0.0
  0
LINE
  5
5D
  8
1
 62
     7
 10
-249.26154911859601
 20
175.38153909898631
 30
0.0
 11
-249.26154911859601
 21
179.74985006027481
 31
0.0
  0
LINE
  5
5E
  8
1
 62
     7
 10
-249.66154911859601
 20
179.74985006027481
 30
0.0
 11
-249.66154911859601
 21
175.38153909898631
 31
0.0
  0
LINE
  5
5F
  8
1
 62
     7
 10
-247.81154911859591
 20
175.38153909898631
 30
0.0
 11
-247.81154911859591
 21
114.5
 31
0.0
  0
LINE
  5
60
  8
1
 62
     7
 10
-249.91154911859601
 20
175.38153909898631
 30
0.0
 11
-247.81154911859591
 21
175.38153909898631
 31
0.0
  0
LINE
  5
61
  8
1
 62
     7
 10
-249.91154911859601
 20
114.5
 30
0.0
 11
-249.91154911859601
 21
175.38153909898631
 31
0.0
  0
LINE
  5
62
  8
1
  6
DASHDOT
 62
     3
 10
-411.82915941137668
 20
79.72383221045213
 30
0.0
 11
-422.5558669243652
 21
68.997124697463605
 31
0.0
  0
LINE
  5
63
  8
1
  6
DASHDOT
 62
     3
 10
-411.82915941137668
 20
-79.723832210452088
 30
0.0
 11
-422.5558669243652
 21
-68.997124697463605
 31
0.0
  0
LINE
  5
64
  8
1
  6
DASHDOT
 62
     3
 10
-571.27682383228091
 20
-79.723832210452088
 30
0.0
 11
-560.55011631929233
 21
-68.997124697463605
 31
0.0
  0
LINE
  5
65
  8
1
  6
DASHDOT
 62
     3
 10
-571.27682383228091
 20
79.72383221045213
 30
0.0
 11
-560.55011631929233
 21
68.997124697463605
 31
0.0
  0
LINE
  5
66
  8
1
 62
     7
 10
-477.55299162182882
 20
59.0
 30
0.0
 11
-477.55299162182882
 21
48.0
 31
0.0
  0
LINE
  5
67
  8
1
 62
     7
 10
-505.55299162182882
 20
48.0
 30
0.0
 11
-505.55299162182882
 21
59.0
 31
0.0
  0
LINE
  5
68
  8
1
 62
     7
 10
-505.55299162182882
 20
59.0
 30
0.0
 11
-477.55299162182882
 21
59.0
 31
0.0
  0
LINE
  5
69
  8
1
  6
DASHDOT
 62
     3
 10
-491.55299162182882
 20
11.411407001044481
 30
0.0
 11
-491.55299162182882
 21
-11.411407001044481
 31
0.0
  0
LINE
  5
6A
  8
1
  6
DASHDOT
 62
     3
 10
-480.14158462078427
 20
0.0
 30
0.0
 11
-502.96439862287332
 21
0.0
 31
0.0
  0
LINE
  5
6B
  8
1
 62
     7
 10
-238.861549118596
 20
114.59999999999989
 30
0.0
 11
-238.861549118596
 21
-114.59999999999989
 31
0.0
  0
LINE
  5
6C
  8
1
 62
     7
 10
-235.861549118596
 20
-114.59999999999989
 30
0.0
 11
-238.861549118596
 21
-114.59999999999989
 31
0.0
  0
LINE
  5
6D
  8
1
 62
     7
 10
-231.861549118596
 20
129.0
 30
0.0
 11
-231.861549118596
 21
-129.0
 31
0.0
  0
LINE
  5
6E
  8
1
 62
     7
 10
-102.8615491185959
 20
-116.5
 30
0.0
 11
-104.8615491185959
 21
-116.5
 31
0.0
  0
LINE
  5
6F
  8
1
 62
     7
 10
-102.8615491185959
 20
116.5
 30
0.0
 11
-104.8615491185959
 21
116.5
 31
0.0
  0
LINE
  5
70
  8
1
 62
     3
 10
-98.861549118595974
 20
0.0
 30
0.0
 11
-92.276116192065842
 21
0.0
 31
0.0
  0
LINE
  5
71
  8
1
 62
     7
 10
-98.861549118595974
 20
-104.0
 30
0.0
 11
-102.8615491185959
 21
-104.0
 31
0.0
  0
LINE
  5
72
  8
1
 62
     7
 10
-238.861549118596
 20
-114.5
 30
0.0
 11
-258.86154911859592
 21
-114.5
 31
0.0
  0
LINE
  5
73
  8
1
 62
     7
 10
-235.861549118596
 20
-125.0
 30
0.0
 11
-235.861549118596
 21
125.0
 31
0.0
  0
LINE
  5
74
  8
1
 62
     7
 10
-154.56154911859599
 20
-129.0
 30
0.0
 11
-231.861549118596
 21
-129.0
 31
0.0
  0
LINE
  5
75
  8
1
 62
     7
 10
-154.56154911859599
 20
129.0
 30
0.0
 11
-154.56154911859599
 21
-129.0
 31
0.0
  0
LINE
  5
76
  8
1
 62
     7
 10
-235.861549118596
 20
-125.0
 30
0.0
 11
-231.861549118596
 21
-129.0
 31
0.0
  0
LINE
  5
77
  8
1
 62
     7
 10
-104.8615491185959
 20
-129.0
 30
0.0
 11
-153.86154911859589
 21
-129.0
 31
0.0
  0
LINE
  5
78
  8
1
 62
     7
 10
-104.8615491185959
 20
-129.0
 30
0.0
 11
-104.8615491185959
 21
129.0
 31
0.0
  0
LINE
  5
79
  8
1
 62
     3
 10
-156.41154911859601
 20
129.0
 30
0.0
 11
-156.41154911859601
 21
-129.0
 31
0.0
  0
LINE
  5
7A
  8
1
 62
     3
 10
-152.01154911859601
 20
129.0
 30
0.0
 11
-152.01154911859601
 21
-129.0
 31
0.0
  0
LINE
  5
7B
  8
1
 62
     7
 10
-102.8615491185959
 20
104.0
 30
0.0
 11
-98.861549118595974
 21
104.0
 31
0.0
  0
LINE
  5
7C
  8
1
 62
     7
 10
-102.8615491185959
 20
116.5
 30
0.0
 11
-102.8615491185959
 21
-116.5
 31
0.0
  0
LINE
  5
7D
  8
1
 62
     7
 10
-98.861549118595974
 20
104.0
 30
0.0
 11
-98.861549118595974
 21
-104.0
 31
0.0
  0
LINE
  5
7E
  8
1
 62
     7
 10
-153.86154911859589
 20
129.0
 30
0.0
 11
-153.86154911859589
 21
-129.0
 31
0.0
  0
LINE
  5
7F
  8
1
 62
     3
 10
-264.06190883082593
 20
0.0
 30
0.0
 11
-258.86154911859592
 21
0.0
 31
0.0
  0
LINE
  5
80
  8
1
 62
     7
 10
-258.86154911859592
 20
114.5
 30
0.0
 11
-238.861549118596
 21
114.5
 31
0.0
  0
LINE
  5
81
  8
1
 62
     7
 10
-238.861549118596
 20
114.59999999999989
 30
0.0
 11
-235.861549118596
 21
114.59999999999989
 31
0.0
  0
LINE
  5
82
  8
1
 62
     7
 10
-258.86154911859592
 20
114.5
 30
0.0
 11
-258.86154911859592
 21
-114.5
 31
0.0
  0
LINE
  5
83
  8
1
 62
     7
 10
-231.861549118596
 20
129.0
 30
0.0
 11
-154.56154911859599
 21
129.0
 31
0.0
  0
LINE
  5
84
  8
1
 62
     7
 10
-231.861549118596
 20
129.0
 30
0.0
 11
-235.861549118596
 21
125.0
 31
0.0
  0
LINE
  5
85
  8
1
 62
     7
 10
-153.86154911859589
 20
129.0
 30
0.0
 11
-104.8615491185959
 21
129.0
 31
0.0
  0
LINE
  5
86
  8
1
  6
DASHDOT
 62
     3
 10
477.80435625290409
 20
73.953957985993014
 30
0.0
 11
453.97360887773578
 21
50.12321061082443
 31
0.0
  0
LINE
  5
87
  8
1
  6
DASHDOT
 62
     3
 10
508.43708864187312
 20
-0.0000000000002558
 30
0.0
 11
474.73532250242209
 21
-0.0000000000002416
 31
0.0
  0
LINE
  5
88
  8
1
  6
DASHDOT
 62
     3
 10
477.80435625290409
 20
-73.953957985993299
 30
0.0
 11
453.97360887773539
 21
-50.123210610824692
 31
0.0
  0
LINE
  5
89
  8
1
  6
DASHDOT
 62
     3
 10
403.8503982669107
 20
-104.58669037496141
 30
0.0
 11
403.8503982669107
 21
-70.884924235511107
 31
0.0
  0
LINE
  5
8A
  8
1
  6
DASHDOT
 62
     3
 10
329.89644028091789
 20
-73.953957985993085
 30
0.0
 11
353.72718765608653
 21
-50.123210610824493
 31
0.0
  0
LINE
  5
8B
  8
1
  6
DASHDOT
 62
     3
 10
299.26370789194942
 20
0.0000000000000853
 30
0.0
 11
332.96547403139982
 21
0.0000000000000853
 31
0.0
  0
LINE
  5
8C
  8
1
  6
DASHDOT
 62
     3
 10
329.89644028091789
 20
73.953957985993171
 30
0.0
 11
353.72718765608653
 21
50.123210610824557
 31
0.0
  0
LINE
  5
8D
  8
1
  6
DASHDOT
 62
     3
 10
475.07217913731932
 20
29.50102757288774
 30
0.0
 11
494.23306708658799
 21
37.437727228586191
 31
0.0
  0
LINE
  5
8E
  8
1
  6
DASHDOT
 62
     3
 10
313.35123140348389
 20
-37.485982298297287
 30
0.0
 11
332.70139745953981
 21
-29.4708810837074
 31
0.0
  0
LINE
  5
8F
  8
1
  6
DASHDOT
 62
     3
 10
403.85039826691099
 20
104.58669037496151
 30
0.0
 11
403.85039826691099
 21
70.884924235511107
 31
0.0
  0
LINE
  5
90
  8
1
 62
     7
 10
417.85039826691087
 20
59.0
 30
0.0
 11
417.85039826691087
 21
48.0
 31
0.0
  0
LINE
  5
91
  8
1
 62
     7
 10
389.85039826691099
 20
59.0
 30
0.0
 11
417.85039826691087
 21
59.0
 31
0.0
  0
LINE
  5
92
  8
1
 62
     7
 10
389.85039826691099
 20
48.0
 30
0.0
 11
389.85039826691099
 21
59.0
 31
0.0
  0
LINE
  5
93
  8
1
 62
     3
 10
160.0
 20
0.0
 30
0.0
 11
166.58543292652999
 21
0.0
 31
0.0
  0
LINE
  5
94
  8
1
  6
DASHDOT
 62
     3
 10
403.85039826691099
 20
10.09726400064301
 30
0.0
 11
403.85039826691099
 21
-10.097264000642991
 31
0.0
  0
LINE
  5
95
  8
1
  6
DASHDOT
 62
     3
 10
413.94766226755411
 20
0.0
 30
0.0
 11
393.75313426626792
 21
0.0
 31
0.0
  0
LINE
  5
96
  8
1
 62
     7
 10
0.0
 20
59.0
 30
0.0
 11
105.0
 21
59.0
 31
0.0
  0
LINE
  5
97
  8
1
 62
     3
 10
102.09999999999989
 20
-129.0
 30
0.0
 11
102.09999999999989
 21
-115.0
 31
0.0
  0
LINE
  5
98
  8
1
 62
     3
 10
106.84999999999999
 20
-115.0
 30
0.0
 11
106.84999999999999
 21
-129.0
 31
0.0
  0
LINE
  5
99
  8
1
 62
     7
 10
130.0
 20
-108.4999999999999
 30
0.0
 11
156.0
 21
-108.4999999999999
 31
0.0
  0
LINE
  5
9A
  8
1
 62
     7
 10
160.0
 20
-104.0
 30
0.0
 11
156.0
 21
-104.0
 31
0.0
  0
LINE
  5
9B
  8
1
 62
     7
 10
156.0
 20
-104.0
 30
0.0
 11
156.0
 21
-116.5
 31
0.0
  0
LINE
  5
9C
  8
1
 62
     7
 10
160.0
 20
-70.0
 30
0.0
 11
130.0
 21
-70.0
 31
0.0
  0
LINE
  5
9D
  8
1
 62
     7
 10
105.0
 20
-115.0
 30
0.0
 11
105.0
 21
-129.0
 31
0.0
  0
LINE
  5
9E
  8
1
 62
     7
 10
81.0
 20
-114.5
 30
0.0
 11
0.0
 21
-114.5
 31
0.0
  0
LINE
  5
9F
  8
1
 62
     7
 10
81.0
 20
-80.40000000000002
 30
0.0
 11
0.0
 21
-80.40000000000002
 31
0.0
  0
LINE
  5
A0
  8
1
 62
     7
 10
84.0
 20
-79.0
 30
0.0
 11
0.0000000000000003
 21
-79.0
 31
0.0
  0
LINE
  5
A1
  8
1
 62
     7
 10
81.0
 20
-80.40000000000002
 30
0.0
 11
81.0
 21
-114.5
 31
0.0
  0
LINE
  5
A2
  8
1
 62
     7
 10
84.0
 20
-116.0
 30
0.0
 11
84.0
 21
-79.0
 31
0.0
  0
LINE
  5
A3
  8
1
 62
     7
 10
23.0
 20
-116.0
 30
0.0
 11
84.0
 21
-116.0
 31
0.0
  0
LINE
  5
A4
  8
1
 62
     7
 10
23.0
 20
-125.0
 30
0.0
 11
23.0
 21
-116.0
 31
0.0
  0
LINE
  5
A5
  8
1
 62
     7
 10
104.2999999999999
 20
-129.0
 30
0.0
 11
27.0
 21
-129.0
 31
0.0
  0
LINE
  5
A6
  8
1
 62
     7
 10
104.2999999999999
 20
-115.0
 30
0.0
 11
104.2999999999999
 21
-129.0
 31
0.0
  0
LINE
  5
A7
  8
1
 62
     7
 10
101.0
 20
-115.0
 30
0.0
 11
104.2999999999999
 21
-115.0
 31
0.0
  0
LINE
  5
A8
  8
1
 62
     7
 10
101.0
 20
-100.0
 30
0.0
 11
101.0
 21
-115.0
 31
0.0
  0
LINE
  5
A9
  8
1
 62
     7
 10
105.0
 20
-100.0
 30
0.0
 11
101.0
 21
-100.0
 31
0.0
  0
LINE
  5
AA
  8
1
 62
     7
 10
105.0
 20
-100.0
 30
0.0
 11
105.0
 21
100.0
 31
0.0
  0
LINE
  5
AB
  8
1
 62
     7
 10
105.0
 20
-50.0
 30
0.0
 11
0.0
 21
-50.0
 31
0.0
  0
LINE
  5
AC
  8
1
 62
     7
 10
23.0
 20
-125.0
 30
0.0
 11
27.0
 21
-129.0
 31
0.0
  0
LINE
  5
AD
  8
1
 62
     7
 10
0.0
 20
-114.5
 30
0.0
 11
0.0
 21
114.5
 31
0.0
  0
LINE
  5
AE
  8
1
 62
     7
 10
154.0
 20
-129.0
 30
0.0
 11
105.0
 21
-129.0
 31
0.0
  0
LINE
  5
AF
  8
1
 62
     7
 10
154.0
 20
-108.4999999999999
 30
0.0
 11
154.0
 21
-129.0
 31
0.0
  0
LINE
  5
B0
  8
1
 62
     7
 10
135.0
 20
-118.5
 30
0.0
 11
135.0
 21
-108.4999999999999
 31
0.0
  0
LINE
  5
B1
  8
1
 62
     7
 10
130.0
 20
-118.5
 30
0.0
 11
135.0
 21
-118.5
 31
0.0
  0
LINE
  5
B2
  8
1
 62
     7
 10
107.25
 20
-63.0
 30
0.0
 11
130.0
 21
-63.0
 31
0.0
  0
LINE
  5
B3
  8
1
 62
     7
 10
105.0
 20
-115.0
 30
0.0
 11
107.25
 21
-115.0
 31
0.0
  0
LINE
  5
B4
  8
1
 62
     7
 10
156.0
 20
-116.5
 30
0.0
 11
130.0
 21
-116.5
 31
0.0
  0
LINE
  5
B5
  8
1
  6
DASHDOT
 62
     3
 10
-3.0
 20
105.0
 30
0.0
 11
35.30940107675849
 21
105.0
 31
0.0
  0
LINE
  5
B6
  8
1
 62
     3
 10
20.0
 20
100.0
 30
0.0
 11
21.732050807568839
 21
101.0
 31
0.0
  0
LINE
  5
B7
  8
1
 62
     3
 10
20.0
 20
110.0
 30
0.0
 11
21.732050807568839
 21
109.0
 31
0.0
  0
LINE
  5
B8
  8
1
 62
     3
 10
20.0
 20
100.0
 30
0.0
 11
0.0
 21
100.0
 31
0.0
  0
LINE
  5
B9
  8
1
 62
     7
 10
20.0
 20
110.0
 30
0.0
 11
20.0
 21
100.0
 31
0.0
  0
LINE
  5
BA
  8
1
 62
     3
 10
0.0
 20
110.0
 30
0.0
 11
20.0
 21
110.0
 31
0.0
  0
LINE
  5
BB
  8
1
 62
     7
 10
30.886751345948142
 20
105.0
 30
0.0
 11
28.0
 21
101.0
 31
0.0
  0
LINE
  5
BC
  8
1
 62
     7
 10
28.0
 20
109.0
 30
0.0
 11
30.886751345948142
 21
105.0
 31
0.0
  0
LINE
  5
BD
  8
1
 62
     7
 10
28.0
 20
101.0
 30
0.0
 11
0.0
 21
101.0
 31
0.0
  0
LINE
  5
BE
  8
1
 62
     7
 10
28.0
 20
109.0
 30
0.0
 11
28.0
 21
101.0
 31
0.0
  0
LINE
  5
BF
  8
1
 62
     7
 10
0.0
 20
109.0
 30
0.0
 11
28.0
 21
109.0
 31
0.0
  0
LINE
  5
C0
  8
1
 62
     3
 10
102.09999999999989
 20
115.0
 30
0.0
 11
102.09999999999989
 21
129.0
 31
0.0
  0
LINE
  5
C1
  8
1
 62
     3
 10
106.84999999999999
 20
129.0
 30
0.0
 11
106.84999999999999
 21
115.0
 31
0.0
  0
LINE
  5
C2
  8
1
 62
     7
 10
130.0
 20
96.5
 30
0.0
 11
160.0
 21
96.5
 31
0.0
  0
LINE
  5
C3
  8
1
 62
     7
 10
130.0
 20
78.5
 30
0.0
 11
160.0
 21
78.5
 31
0.0
  0
LINE
  5
C4
  8
1
 62
     7
 10
107.25
 20
72.5
 30
0.0
 11
130.0
 21
72.5
 31
0.0
  0
LINE
  5
C5
  8
1
 62
     7
 10
107.25
 20
102.4999999999999
 30
0.0
 11
130.0
 21
102.4999999999999
 31
0.0
  0
LINE
  5
C6
  8
1
  6
DASHDOT
 62
     3
 10
106.141966673627
 20
87.5
 30
0.0
 11
162.45469264824811
 21
87.5
 31
0.0
  0
LINE
  5
C7
  8
1
 62
     7
 10
156.0
 20
108.4999999999999
 30
0.0
 11
130.0
 21
108.4999999999999
 31
0.0
  0
LINE
  5
C8
  8
1
 62
     7
 10
156.0
 20
104.0
 30
0.0
 11
160.0
 21
104.0
 31
0.0
  0
LINE
  5
C9
  8
1
 62
     7
 10
156.0
 20
116.5
 30
0.0
 11
156.0
 21
104.0
 31
0.0
  0
LINE
  5
CA
  8
1
 62
     7
 10
160.0
 20
104.0
 30
0.0
 11
160.0
 21
-104.0
 31
0.0
  0
LINE
  5
CB
  8
1
 62
     7
 10
130.0
 20
70.0
 30
0.0
 11
160.0
 21
70.0
 31
0.0
  0
LINE
  5
CC
  8
1
 62
     7
 10
105.0
 20
129.0
 30
0.0
 11
105.0
 21
115.0
 31
0.0
  0
LINE
  5
CD
  8
1
 62
     3
 10
-5.2003597122300107
 20
0.0
 30
0.0
 11
0.0
 21
0.0
 31
0.0
  0
LINE
  5
CE
  8
1
 62
     7
 10
0.0
 20
114.5
 30
0.0
 11
81.0
 21
114.5
 31
0.0
  0
LINE
  5
CF
  8
1
 62
     7
 10
0.0
 20
80.40000000000002
 30
0.0
 11
81.0
 21
80.40000000000002
 31
0.0
  0
LINE
  5
D0
  8
1
 62
     7
 10
0.0
 20
79.0
 30
0.0
 11
84.0
 21
79.0
 31
0.0
  0
LINE
  5
D1
  8
1
 62
     7
 10
84.0
 20
79.0
 30
0.0
 11
84.0
 21
115.5
 31
0.0
  0
LINE
  5
D2
  8
1
 62
     7
 10
84.0
 20
115.5
 30
0.0
 11
23.0
 21
115.5
 31
0.0
  0
LINE
  5
D3
  8
1
 62
     7
 10
23.0
 20
115.5
 30
0.0
 11
23.0
 21
125.0
 31
0.0
  0
LINE
  5
D4
  8
1
 62
     7
 10
27.0
 20
129.0
 30
0.0
 11
104.2999999999999
 21
129.0
 31
0.0
  0
LINE
  5
D5
  8
1
 62
     7
 10
104.2999999999999
 20
129.0
 30
0.0
 11
104.2999999999999
 21
115.0
 31
0.0
  0
LINE
  5
D6
  8
1
 62
     7
 10
104.2999999999999
 20
115.0
 30
0.0
 11
101.0
 21
115.0
 31
0.0
  0
LINE
  5
D7
  8
1
 62
     7
 10
101.0
 20
115.0
 30
0.0
 11
101.0
 21
100.0
 31
0.0
  0
LINE
  5
D8
  8
1
 62
     7
 10
101.0
 20
100.0
 30
0.0
 11
105.0
 21
100.0
 31
0.0
  0
LINE
  5
D9
  8
1
 62
     7
 10
0.0
 20
50.0
 30
0.0
 11
105.0
 21
50.0
 31
0.0
  0
LINE
  5
DA
  8
1
 62
     7
 10
27.0
 20
129.0
 30
0.0
 11
23.0
 21
125.0
 31
0.0
  0
LINE
  5
DB
  8
1
 62
     7
 10
105.0
 20
129.0
 30
0.0
 11
154.0
 21
129.0
 31
0.0
  0
LINE
  5
DC
  8
1
 62
     7
 10
154.0
 20
129.0
 30
0.0
 11
154.0
 21
108.4999999999999
 31
0.0
  0
LINE
  5
DD
  8
1
 62
     7
 10
135.0
 20
108.4999999999999
 30
0.0
 11
135.0
 21
118.5
 31
0.0
  0
LINE
  5
DE
  8
1
 62
     7
 10
135.0
 20
118.5
 30
0.0
 11
130.0
 21
118.5
 31
0.0
  0
LINE
  5
DF
  8
1
 62
     7
 10
130.0
 20
118.5
 30
0.0
 11
130.0
 21
-118.5
 31
0.0
  0
LINE
  5
E0
  8
1
 62
     7
 10
130.0
 20
63.0
 30
0.0
 11
107.25
 21
63.0
 31
0.0
  0
LINE
  5
E1
  8
1
 62
     7
 10
107.25
 20
115.0
 30
0.0
 11
107.25
 21
-115.0
 31
0.0
  0
LINE
  5
E2
  8
1
 62
     7
 10
107.25
 20
115.0
 30
0.0
 11
105.0
 21
115.0
 31
0.0
  0
LINE
  5
E3
  8
1
 62
     7
 10
130.0
 20
116.5
 30
0.0
 11
156.0
 21
116.5
 31
0.0
  0
ARC
  5
E4
  8
1
 62
     7
 10
-491.55299162182882
 20
0.0
 30
0.0
 40
129.0000000000002
 50
90.932763193469356
 51
89.067236806530573
  0
ARC
  5
E5
  8
1
  6
DASHDOT
 62
     3
 10
-491.55299162182882
 20
0.0
 30
0.0
 40
105.0
 50
41.129447299864502
 51
48.818207634127113
  0
ARC
  5
E6
  8
1
  6
DASHDOT
 62
     3
 10
-491.55299162182882
 20
0.0
 30
0.0
 40
105.0
 50
311.12944729986452
 51
318.81820763412702
  0
ARC
  5
E7
  8
1
  6
DASHDOT
 62
     3
 10
-491.55299162182882
 20
0.0
 30
0.0
 40
105.0
 50
221.12944729986441
 51
228.81820763412711
  0
ARC
  5
E8
  8
1
  6
DASHDOT
 62
     3
 10
-491.55299162182882
 20
0.0
 30
0.0
 40
105.0
 50
131.12944729986441
 51
138.81820763412711
  0
ARC
  5
E9
  8
1
 62
     7
 10
-491.55299162182882
 20
0.0
 30
0.0
 40
50.0
 50
106.260204708312
 51
73.739795291688054
  0
ARC
  5
EA
  8
1
  6
DASHDOT
 62
     3
 10
403.85039826691099
 20
0.0
 30
0.0
 40
87.5
 50
0.0
 51
11.807372324168551
  0
ARC
  5
EB
  8
1
  6
DASHDOT
 62
     3
 10
403.85039826691099
 20
0.0
 30
0.0
 40
87.5
 50
303.46905937066799
 51
326.80937051705359
  0
ARC
  5
EC
  8
1
  6
DASHDOT
 62
     3
 10
403.85039826691099
 20
0.0
 30
0.0
 40
87.499999999999915
 50
170.16579932894231
 51
191.59731187294079
  0
ARC
  5
ED
  8
1
  6
DASHDOT
 62
     3
 10
403.85039826691099
 20
0.0
 30
0.0
 40
87.500000000000114
 50
33.244889870466046
 51
57.175175577757138
  0
ARC
  5
EE
  8
1
  6
DASHDOT
 62
     3
 10
403.85039826691099
 20
0.0
 30
0.0
 40
87.499999999999957
 50
257.73138187331932
 51
282.51116020043958
  0
ARC
  5
EF
  8
1
  6
DASHDOT
 62
     3
 10
403.85039826691099
 20
0.0
 30
0.0
 40
87.499999999999915
 50
212.8861023030835
 51
236.988537041656
  0
ARC
  5
F0
  8
1
  6
DASHDOT
 62
     3
 10
403.85039826691099
 20
0.0
 30
0.0
 40
87.499999999999943
 50
122.67685299026181
 51
146.97413361018411
  0
ARC
  5
F1
  8
1
  6
DASHDOT
 62
     3
 10
403.85039826691099
 20
0.0
 30
0.0
 40
87.500000000000057
 50
77.599392022079343
 51
102.8463363529096
  0
ARC
  5
F2
  8
1
  6
DASHDOT
 62
     3
 10
403.85039826691099
 20
0.0
 30
0.0
 40
87.500000000000114
 50
16.43993748143269
 51
29.215337622919751
  0
ARC
  5
F3
  8
1
  6
DASHDOT
 62
     3
 10
403.85039826691099
 20
0.0
 30
0.0
 40
87.500000000000014
 50
195.6858669162732
 51
209.22579682988581
  0
ARC
  5
F4
  8
1
  6
DASHDOT
 62
     3
 10
403.8503982669111
 20
0.0000000000012079
 30
0.0
 40
87.499999999999758
 50
347.52578778830781
 51
359.99999999999909
  0
ARC
  5
F5
  8
1
 62
     7
 10
403.85039826691099
 20
0.0
 30
0.0
 40
50.0
 50
106.260204708312
 51
73.739795291688054
  0
CIRCLE
  5
F6
  8
1
 62
     3
 10
-417.3067795972413
 20
74.246212024587493
 30
0.0
 40
5.0
  0
CIRCLE
  5
F7
  8
1
 62
     7
 10
-417.3067795972413
 20
74.246212024587493
 30
0.0
 40
4.0
  0
CIRCLE
  5
F8
  8
1
 62
     3
 10
-417.3067795972413
 20
-74.246212024587493
 30
0.0
 40
5.0
  0
CIRCLE
  5
F9
  8
1
 62
     7
 10
-417.3067795972413
 20
-74.246212024587493
 30
0.0
 40
4.0
  0
CIRCLE
  5
FA
  8
1
 62
     3
 10
-565.79920364641623
 20
-74.246212024587493
 30
0.0
 40
5.0
  0
CIRCLE
  5
FB
  8
1
 62
     7
 10
-565.79920364641623
 20
-74.246212024587493
 30
0.0
 40
4.0
  0
CIRCLE
  5
FC
  8
1
 62
     3
 10
-565.79920364641623
 20
74.246212024587493
 30
0.0
 40
5.0
  0
CIRCLE
  5
FD
  8
1
 62
     7
 10
-565.79920364641623
 20
74.246212024587493
 30
0.0
 40
4.0
  0
CIRCLE
  5
FE
  8
1
 62
     7
 10
-491.55299162182882
 20
0.0
 30
0.0
 40
80.0
  0
CIRCLE
  5
FF
  8
1
 62
     7
 10
-491.55299162182882
 20
0.0
 30
0.0
 40
115.0
  0
CIRCLE
  5
100
  8
1
 62
     7
 10
437.33519859885661
 20
80.839459094737535
 30
0.0
 40
10.5
  0
CIRCLE
  5
101
  8
1
 62
     7
 10
484.68985736164888
 20
-33.484800331945507
 30
0.0
 40
10.500000000000281
  0
CIRCLE
  5
102
  8
1
 62
     7
 10
437.33519859885621
 20
-80.839459094737606
 30
0.0
 40
10.5
  0
CIRCLE
  5
103
  8
1
 62
     7
 10
370.36559793496548
 20
-80.839459094737606
 30
0.0
 40
10.5
  0
CIRCLE
  5
104
  8
1
 62
     7
 10
323.01093917217332
 20
33.484800331945351
 30
0.0
 40
10.49999999999994
  0
CIRCLE
  5
105
  8
1
 62
     7
 10
437.33519859885661
 20
80.839459094737535
 30
0.0
 40
12.0
  0
CIRCLE
  5
106
  8
1
 62
     7
 10
484.68985736164888
 20
-33.484800331945507
 30
0.0
 40
12.00000000000027
  0
CIRCLE
  5
107
  8
1
 62
     7
 10
437.33519859885621
 20
-80.839459094737606
 30
0.0
 40
12.0
  0
CIRCLE
  5
108
  8
1
 62
     7
 10
370.36559793496548
 20
-80.839459094737606
 30
0.0
 40
11.99999999999989
  0
CIRCLE
  5
109
  8
1
 62
     7
 10
323.01093917217332
 20
33.484800331945351
 30
0.0
 40
12.0
  0
CIRCLE
  5
10A
  8
1
 62
     7
 10
465.72224162073411
 20
61.871843353822783
 30
0.0
 40
9.0
  0
CIRCLE
  5
10B
  8
1
 62
     7
 10
491.35039826691099
 20
0.0
 30
0.0
 40
9.0000000000003428
  0
CIRCLE
  5
10C
  8
1
 62
     7
 10
465.72224162073371
 20
-61.871843353823003
 30
0.0
 40
9.0
  0
CIRCLE
  5
10D
  8
1
 62
     7
 10
403.8503982669107
 20
-87.5
 30
0.0
 40
9.0
  0
CIRCLE
  5
10E
  8
1
 62
     7
 10
341.97855491308792
 20
-61.871843353822811
 30
0.0
 40
8.9999999999999432
  0
CIRCLE
  5
10F
  8
1
 62
     7
 10
316.35039826691099
 20
0.0000000000000853
 30
0.0
 40
9.0
  0
CIRCLE
  5
110
  8
1
 62
     7
 10
341.97855491308798
 20
61.871843353822911
 30
0.0
 40
9.0000000000001137
  0
CIRCLE
  5
111
  8
1
  6
DASHED
 62
     7
 10
465.72224162073411
 20
61.871843353822783
 30
0.0
 40
15.0
  0
CIRCLE
  5
112
  8
1
  6
DASHED
 62
     7
 10
491.35039826691099
 20
0.0
 30
0.0
 40
15.000000000000339
  0
CIRCLE
  5
113
  8
1
  6
DASHED
 62
     7
 10
465.72224162073371
 20
-61.871843353823003
 30
0.0
 40
15.00000000000006
  0
CIRCLE
  5
114
  8
1
  6
DASHED
 62
     7
 10
403.8503982669107
 20
-87.5
 30
0.0
 40
15.0
  0
CIRCLE
  5
115
  8
1
  6
DASHED
 62
     7
 10
341.97855491308792
 20
-61.871843353822811
 30
0.0
 40
15.0
  0
CIRCLE
  5
116
  8
1
  6
DASHED
 62
     7
 10
316.35039826691099
 20
0.0000000000000853
 30
0.0
 40
15.0
  0
CIRCLE
  5
117
  8
1
  6
DASHED
 62
     7
 10
341.97855491308798
 20
61.871843353822911
 30
0.0
 40
15.0
  0
CIRCLE
  5
118
  8
1
 62
     7
 10
370.36559793496548
 20
80.839459094737606
 30
0.0
 40
10.5
  0
CIRCLE
  5
119
  8
1
 62
     7
 10
370.36559793496548
 20
80.839459094737606
 30
0.0
 40
12.0
  0
CIRCLE
  5
11A
  8
1
 62
     7
 10
484.68985736164888
 20
33.484800331945372
 30
0.0
 40
7.75
  0
CIRCLE
  5
11B
  8
1
 62
     7
 10
323.01093917217349
 20
-33.484800331945387
 30
0.0
 40
7.75
  0
CIRCLE
  5
11C
  8
1
  6
DASHED
 62
     7
 10
403.85039826691099
 20
87.5
 30
0.0
 40
15.0
  0
CIRCLE
  5
11D
  8
1
 62
     7
 10
403.85039826691099
 20
87.5
 30
0.0
 40
9.0
  0
CIRCLE
  5
11E
  8
1
 62
     7
 10
403.85039826691099
 20
0.0
 30
0.0
 40
63.0
  0
CIRCLE
  5
11F
  8
1
 62
     7
 10
403.85039826691099
 20
0.0
 30
0.0
 40
70.0
  0
CIRCLE
  5
120
  8
1
 62
     7
 10
403.85039826691099
 20
0.0
 30
0.0
 40
104.0
  0
CIRCLE
  5
121
  8
1
 62
     7
 10
403.85039826691099
 20
0.0
 30
0.0
 40
116.5
  0
CIRCLE
  5
122
  8
1
 62
     7
 10
403.85039826691099
 20
0.0
 30
0.0
 40
129.0
  0
TEXT
  5
123
  8
1
 62
     7
 10
-529.53770568599418
 20
240.34058389958241
 30
0.0
 40
15.0
  1
MZ 400
 41
0.9
  7
SIMPLEX
  0
ENDSEC
  0
EOF
