  0
SECTION
  2
HEADER
  9
$ACADVER
  1
AC1009
  9
$INSBASE
 10
0.0
 20
0.0
 30
0.0
  9
$EXTMIN
 10
-349.75109891737202
 20
-70.000000000000099
 30
0.0
  9
$EXTMAX
 10
300.731144506026
 20
153.403966263462
 30
0.0
  9
$LIMMIN
 10
-349.75109891737191
 20
-70.000000000000099
  9
$LIMMAX
 10
300.731144506026
 20
153.40396626346191
  9
$ORTHOMODE
 70
     0
  9
$REGENMODE
 70
     1
  9
$FILLMODE
 70
     1
  9
$QTEXTMODE
 70
     0
  9
$MIRRTEXT
 70
     1
  9
$DRAGMODE
 70
     2
  9
$LTSCALE
 40
1.0
  9
$OSMODE
 70
    37
  9
$ATTMODE
 70
     1
  9
$TEXTSIZE
 40
3.5
  9
$TRACEWID
 40
0.5
  9
$TEXTSTYLE
  7
STANDARD
  9
$CLAYER
  8
0
  9
$CELTYPE
  6
BYLAYER
  9
$CECOLOR
 62
   256
  9
$DIMSCALE
 40
1.0
  9
$DIMASZ
 40
0.18
  9
$DIMEXO
 40
0.0625
  9
$DIMDLI
 40
0.38
  9
$DIMRND
 40
0.0
  9
$DIMDLE
 40
0.0
  9
$DIMEXE
 40
0.18
  9
$DIMTP
 40
0.0
  9
$DIMTM
 40
0.0
  9
$DIMTXT
 40
0.18
  9
$DIMCEN
 40
0.09
  9
$DIMTSZ
 40
0.0
  9
$DIMTOL
 70
     0
  9
$DIMLIM
 70
     0
  9
$DIMTIH
 70
     1
  9
$DIMTOH
 70
     1
  9
$DIMSE1
 70
     0
  9
$DIMSE2
 70
     0
  9
$DIMTAD
 70
     0
  9
$DIMZIN
 70
     0
  9
$DIMBLK
  1

  9
$DIMASO
 70
     1
  9
$DIMSHO
 70
     1
  9
$DIMPOST
  1

  9
$DIMAPOST
  1

  9
$DIMALT
 70
     0
  9
$DIMALTD
 70
     2
  9
$DIMALTF
 40
25.399999999999999
  9
$DIMLFAC
 40
1.0
  9
$DIMTOFL
 70
     0
  9
$DIMTVP
 40
0.0
  9
$DIMTIX
 70
     0
  9
$DIMSOXD
 70
     0
  9
$DIMSAH
 70
     0
  9
$DIMBLK1
  1

  9
$DIMBLK2
  1

  9
$DIMSTYLE
  2
STANDARD
  9
$DIMCLRD
 70
     0
  9
$DIMCLRE
 70
     0
  9
$DIMCLRT
 70
     0
  9
$DIMTFAC
 40
1.0
  9
$DIMGAP
 40
0.09
  9
$LUNITS
 70
     2
  9
$LUPREC
 70
     4
  9
$SKETCHINC
 40
0.1
  9
$FILLETRAD
 40
2.0
  9
$AUNITS
 70
     0
  9
$AUPREC
 70
     0
  9
$MENU
  1
ACAD
  9
$ELEVATION
 40
0.0
  9
$PELEVATION
 40
0.0
  9
$THICKNESS
 40
0.0
  9
$LIMCHECK
 70
     0
  9
$BLIPMODE
 70
     0
  9
$CHAMFERA
 40
0.0
  9
$CHAMFERB
 40
0.0
  9
$SKPOLY
 70
     0
  9
$TDCREATE
 40
2452095.0829348378
  9
$TDUPDATE
 40
2452095.0839984948
  9
$TDINDWG
 40
0.0010826389
  9
$TDUSRTIMER
 40
0.0010826389
  9
$USRTIMER
 70
     1
  9
$ANGBASE
 50
0.0
  9
$ANGDIR
 70
     0
  9
$PDMODE
 70
     0
  9
$PDSIZE
 40
0.0
  9
$PLINEWID
 40
0.0
  9
$COORDS
 70
     1
  9
$SPLFRAME
 70
     0
  9
$SPLINETYPE
 70
     6
  9
$SPLINESEGS
 70
     8
  9
$ATTDIA
 70
     0
  9
$ATTREQ
 70
     1
  9
$HANDLING
 70
 10241
  9
$HANDSEED
  5
160
  9
$SURFTAB1
 70
     6
  9
$SURFTAB2
 70
     6
  9
$SURFTYPE
 70
     6
  9
$SURFU
 70
     6
  9
$SURFV
 70
     6
  9
$UCSNAME
  2

  9
$UCSORG
 10
0.0
 20
0.0
 30
0.0
  9
$UCSXDIR
 10
1.0
 20
0.0
 30
0.0
  9
$UCSYDIR
 10
0.0
 20
1.0
 30
0.0
  9
$PUCSNAME
  2

  9
$PUCSORG
 10
0.0
 20
0.0
 30
0.0
  9
$PUCSXDIR
 10
1.0
 20
0.0
 30
0.0
  9
$PUCSYDIR
 10
0.0
 20
1.0
 30
0.0
  9
$USERI1
 70
     0
  9
$USERI2
 70
     0
  9
$USERI3
 70
     0
  9
$USERI4
 70
     0
  9
$USERI5
 70
     0
  9
$USERR1
 40
0.0
  9
$USERR2
 40
0.0
  9
$USERR3
 40
0.0
  9
$USERR4
 40
0.0
  9
$USERR5
 40
0.0
  9
$WORLDVIEW
 70
     1
  9
$SHADEDGE
 70
     3
  9
$SHADEDIF
 70
    70
  9
$TILEMODE
 70
     1
  9
$MAXACTVP
 70
    64
  9
$PLIMCHECK
 70
     0
  9
$PEXTMIN
 10
1.0000000000000000E+020
 20
1.0000000000000000E+020
 30
1.0000000000000000E+020
  9
$PEXTMAX
 10
-1.0000000000000000E+020
 20
-1.0000000000000000E+020
 30
-1.0000000000000000E+020
  9
$PLIMMIN
 10
0.0
 20
0.0
  9
$PLIMMAX
 10
12.0
 20
9.0
  9
$UNITMODE
 70
     0
  9
$VISRETAIN
 70
     1
  9
$PLINEGEN
 70
     0
  9
$PSLTSCALE
 70
     1
  0
ENDSEC
  0
SECTION
  2
TABLES
  0
TABLE
  2
VPORT
 70
     2
  0
VPORT
  2
*ACTIVE
 70
     0
 10
0.0
 20
0.0
 11
1.0
 21
1.0
 12
-289.96829706368328
 22
134.41013542783
 13
0.0
 23
0.0
 14
1.0
 24
1.0
 15
0.0
 25
0.0
 16
0.0
 26
0.0
 36
1.0
 17
0.0
 27
0.0
 37
0.0
 40
9.0000001275087733
 41
2.4144144144144142
 42
50.0
 43
0.0
 44
0.0
 50
0.0
 51
0.0
 71
     0
 72
   100
 73
     1
 74
     1
 75
     0
 76
     0
 77
     0
 78
     0
  0
ENDTAB
  0
TABLE
  2
LTYPE
 70
     9
  0
LTYPE
  2
CONTINUOUS
 70
     0
  3
Solid line
 72
    65
 73
     0
 40
0.0
  0
LTYPE
  2
BORDER
 70
     0
  3
__ __ . __ __ .
 72
    65
 73
     6
 40
29.95641910502491
 49
8.5589768871499743
 49
-4.2794884435749871
 49
8.5589768871499743
 49
-4.2794884435749871
 49
0.0
 49
-4.2794884435749871
  0
LTYPE
  2
CENTER
 70
     0
  3
____ _ ____ _
 72
    65
 73
     4
 40
34.23590754859989
 49
21.397442217874939
 49
-4.2794884435749871
 49
4.2794884435749871
 49
-4.2794884435749871
  0
LTYPE
  2
DASHDOT
 70
     0
  3
__ . __ . __ .
 72
    65
 73
     4
 40
17.117953774299949
 49
8.5589768871499743
 49
-4.2794884435749871
 49
0.0
 49
-4.2794884435749871
  0
LTYPE
  2
DASHED
 70
     0
  3
__ __ __ __ __
 72
    65
 73
     2
 40
12.83846533072496
 49
8.5589768871499743
 49
-4.2794884435749871
  0
LTYPE
  2
DIVIDE
 70
     0
  3
__ . . __ . . 
 72
    65
 73
     6
 40
21.397442217874939
 49
8.5589768871499743
 49
-4.2794884435749871
 49
0.0
 49
-4.2794884435749871
 49
0.0
 49
-4.2794884435749871
  0
LTYPE
  2
DOT
 70
     0
  3
..............
 72
    65
 73
     4
 40
8.5589768871499743
 49
0.0
 49
-4.2794884435749871
 49
0.0
 49
-4.2794884435749871
  0
LTYPE
  2
HIDDEN
 70
     0
  3
_ _ _ _ _ _ _
 72
    65
 73
     2
 40
6.4192326653624798
 49
4.2794884435749871
 49
-2.139744221787494
  0
LTYPE
  2
PHANTOM
 70
     0
  3
_____ _ _ _____ _ _ 
 72
    65
 73
     6
 40
42.794884435749871
 49
21.397442217874939
 49
-4.2794884435749871
 49
4.2794884435749871
 49
-4.2794884435749871
 49
4.2794884435749871
 49
-4.2794884435749871
  0
ENDTAB
  0
TABLE
  2
LAYER
 70
     2
  0
LAYER
  2
0
 70
     0
 62
     7
  6
CONTINUOUS
  0
LAYER
  2
1
 70
     0
 62
     7
  6
CONTINUOUS
  0
ENDTAB
  0
TABLE
  2
STYLE
 70
     4
  0
STYLE
  2
STANDARD
 70
     0
 40
0.0
 41
1.0
 50
0.0
 71
     0
 42
3.5
  3
txt
  4

  0
STYLE
  2
SIMPLEX
 70
     0
 40
0.0
 41
1.0
 50
0.0
 71
     0
 42
3.5
  3
simplex
  4

  0
STYLE
  2
COMPLEX
 70
     0
 40
0.0
 41
1.0
 50
0.0
 71
     0
 42
3.5
  3
complex
  4

  0
STYLE
  2
ITALIC
 70
     0
 40
0.0
 41
1.0
 50
0.0
 71
     0
 42
3.5
  3
italic
  4

  0
ENDTAB
  0
TABLE
  2
VIEW
 70
     0
  0
ENDTAB
  0
TABLE
  2
UCS
 70
     0
  0
ENDTAB
  0
TABLE
  2
APPID
 70
     1
  0
APPID
  2
ACAD
 70
     0
  0
ENDTAB
  0
TABLE
  2
DIMSTYLE
 70
     1
  0
DIMSTYLE
  2
STANDARD
 70
     0
  3

  4

  5

  6

  7

 40
1.0
 41
0.18
 42
0.0625
 43
0.38
 44
0.18
 45
0.0
 46
0.0
 47
0.0
 48
0.0
140
0.18
141
0.09
142
0.0
143
25.399999999999999
144
1.0
145
0.0
146
1.0
147
0.09
 71
     0
 72
     0
 73
     1
 74
     1
 75
     0
 76
     0
 77
     0
 78
     0
170
     0
171
     2
172
     0
173
     0
174
     0
175
     0
176
     0
177
     0
178
     0
  0
ENDTAB
  0
ENDSEC
  0
SECTION
  2
BLOCKS
  0
BLOCK
  8
0
  2
$MODEL_SPACE
 70
     0
 10
0.0
 20
0.0
 30
0.0
  3
$MODEL_SPACE
  1

  0
ENDBLK
  5
20
  8
0
  0
BLOCK
 67
     1
  8
0
  2
$PAPER_SPACE
 70
     0
 10
0.0
 20
0.0
 30
0.0
  3
$PAPER_SPACE
  1

  0
ENDBLK
  5
1C
 67
     1
  8
0
  0
ENDSEC
  0
SECTION
  2
ENTITIES
  0
LINE
  5
33
  8
1
 62
     7
 10
24.0
 20
-32.499999999999908
 30
0.0
 11
24.0
 21
-49.999999999999908
 31
0.0
  0
LINE
  5
34
  8
1
 62
     7
 10
24.0
 20
-32.499999999999908
 30
0.0
 11
6.0
 21
-32.499999999999908
 31
0.0
  0
LINE
  5
35
  8
1
 62
     7
 10
6.0
 20
-30.999999999999901
 30
0.0
 11
6.0
 21
-51.749999999999901
 31
0.0
  0
LINE
  5
36
  8
1
 62
     7
 10
24.0
 20
50.0
 30
0.0
 11
24.0
 21
32.5
 31
0.0
  0
LINE
  5
37
  8
1
 62
     7
 10
6.0
 20
51.75
 30
0.0
 11
6.0
 21
31.0
 31
0.0
  0
LINE
  5
38
  8
1
  6
DASHDOT
 62
     3
 10
-158.82479244242199
 20
88.0
 30
0.0
 11
-150.5802552654321
 21
88.0
 31
0.0
  0
LINE
  5
39
  8
1
 62
     3
 10
86.5
 20
-70.000000000000099
 30
0.0
 11
86.5
 21
-61.999999999999908
 31
0.0
  0
LINE
  5
3A
  8
1
 62
     7
 10
85.0
 20
-62.000000000000099
 30
0.0
 11
85.0
 21
-69.999999999999915
 31
0.0
  0
LINE
  5
3B
  8
1
 62
     7
 10
84.699999999999932
 20
-62.000000000000099
 30
0.0
 11
84.699999999999932
 21
-69.999999999999915
 31
0.0
  0
LINE
  5
3C
  8
1
 62
     3
 10
83.149999999999878
 20
-62.000000000000099
 30
0.0
 11
83.149999999999878
 21
-70.000000000000099
 31
0.0
  0
LINE
  5
3D
  8
1
 62
     7
 10
84.699999999999932
 20
62.0
 30
0.0
 11
79.5
 21
62.0
 31
0.0
  0
LINE
  5
3E
  8
1
 62
     7
 10
84.699999999999932
 20
70.0
 30
0.0
 11
84.699999999999932
 21
62.0
 31
0.0
  0
LINE
  5
3F
  8
1
 62
     7
 10
85.0
 20
70.0
 30
0.0
 11
85.0
 21
62.0
 31
0.0
  0
LINE
  5
40
  8
1
 62
     3
 10
86.5
 20
62.0
 30
0.0
 11
86.5
 21
70.0
 31
0.0
  0
LINE
  5
41
  8
1
 62
     3
 10
83.149999999999878
 20
70.0
 30
0.0
 11
83.149999999999878
 21
62.0
 31
0.0
  0
LINE
  5
42
  8
1
 62
     7
 10
86.5
 20
62.0
 30
0.0
 11
85.0
 21
62.0
 31
0.0
  0
LINE
  5
43
  8
1
 62
     7
 10
0.0
 20
83.75
 30
0.0
 11
2.8999999999999759
 21
83.75
 31
0.0
  0
LINE
  5
44
  8
1
 62
     7
 10
0.0
 20
92.249999999999986
 30
0.0
 11
2.8999999999999759
 21
92.249999999999986
 31
0.0
  0
LINE
  5
45
  8
1
 62
     7
 10
0.0
 20
48.0
 30
0.0
 11
2.8999999999999759
 21
48.0
 31
0.0
  0
LINE
  5
46
  8
1
  6
DASHDOT
 62
     3
 10
-2.021392029835964
 20
88.0
 30
0.0
 11
6.223145147154014
 21
88.0
 31
0.0
  0
LINE
  5
47
  8
1
 62
     7
 10
0.0
 20
98.0
 30
0.0
 11
2.8999999999999759
 21
98.0
 31
0.0
  0
LINE
  5
48
  8
1
 62
     7
 10
2.8999999999999759
 20
98.0
 30
0.0
 11
2.8999999999999759
 21
47.028796535245988
 31
0.0
  0
LINE
  5
49
  8
1
 62
     7
 10
221.731144506026
 20
98.0
 30
0.0
 11
239.73114450602591
 21
98.0
 31
0.0
  0
LINE
  5
4A
  8
1
 62
     7
 10
85.0
 20
28.5
 30
0.0
 11
0.0
 21
28.5
 31
0.0
  0
LINE
  5
4B
  8
1
 62
     7
 10
224.731144506026
 20
24.269322199023168
 30
0.0
 11
224.731144506026
 21
28.5
 31
0.0
  0
LINE
  5
4C
  8
1
 62
     7
 10
236.731144506026
 20
28.5
 30
0.0
 11
236.731144506026
 21
24.269322199023168
 31
0.0
  0
LINE
  5
4D
  8
1
 62
     7
 10
224.731144506026
 20
28.5
 30
0.0
 11
236.731144506026
 21
28.5
 31
0.0
  0
LINE
  5
4E
  8
1
  6
DASHDOT
 62
     3
 10
199.2695461429015
 20
-18.16436228408574
 30
0.0
 11
183.23686240326549
 21
-27.420836556996619
 31
0.0
  0
LINE
  5
4F
  8
1
  6
DASHDOT
 62
     3
 10
199.26954614290159
 20
18.164362284085868
 30
0.0
 11
183.2368624032656
 21
27.42083655699679
 31
0.0
  0
LINE
  5
50
  8
1
  6
DASHDOT
 62
     3
 10
262.19274286915038
 20
-18.16436228408574
 30
0.0
 11
278.22542660878639
 21
-27.420836556996619
 31
0.0
  0
LINE
  5
51
  8
1
  6
DASHDOT
 62
     3
 10
262.19274286915038
 20
18.164362284085762
 30
0.0
 11
278.22542660878639
 21
27.42083655699679
 31
0.0
  0
LINE
  5
52
  8
1
 62
     7
 10
96.0
 20
-63.249999999999908
 30
0.0
 11
96.0
 21
63.25
 31
0.0
  0
LINE
  5
53
  8
1
 62
     7
 10
102.0
 20
38.0
 30
0.0
 11
102.0
 21
54.0
 31
0.0
  0
LINE
  5
54
  8
1
 62
     7
 10
102.0
 20
41.749999999999993
 30
0.0
 11
112.0
 21
41.749999999999993
 31
0.0
  0
LINE
  5
55
  8
1
 62
     7
 10
102.0
 20
50.25
 30
0.0
 11
112.0
 21
50.25
 31
0.0
  0
LINE
  5
56
  8
1
 62
     7
 10
86.5
 20
38.0
 30
0.0
 11
102.0
 21
38.0
 31
0.0
  0
LINE
  5
57
  8
1
 62
     7
 10
102.0
 20
54.0
 30
0.0
 11
86.5
 21
54.0
 31
0.0
  0
LINE
  5
58
  8
1
 62
     7
 10
27.0
 20
-66.999999999999929
 30
0.0
 11
30.0
 21
-69.999999999999915
 31
0.0
  0
LINE
  5
59
  8
1
 62
     7
 10
85.0
 20
-69.999999999999915
 30
0.0
 11
108.4499999999999
 21
-69.999999999999915
 31
0.0
  0
LINE
  5
5A
  8
1
 62
     7
 10
96.0
 20
-34.999999999999908
 30
0.0
 11
112.0
 21
-34.999999999999908
 31
0.0
  0
LINE
  5
5B
  8
1
 62
     7
 10
109.0
 20
-55.999999999999901
 30
0.0
 11
111.964034469691
 21
-55.999999999999901
 31
0.0
  0
LINE
  5
5C
  8
1
 62
     7
 10
109.0
 20
-55.999999999999901
 30
0.0
 11
109.0
 21
-61.999999999999908
 31
0.0
  0
LINE
  5
5D
  8
1
 62
     7
 10
109.0
 20
-61.999999999999908
 30
0.0
 11
96.0
 21
-61.999999999999908
 31
0.0
  0
LINE
  5
5E
  8
1
 62
     7
 10
79.5
 20
-61.999999999999908
 30
0.0
 11
84.699999999999932
 21
-62.000000000000099
 31
0.0
  0
LINE
  5
5F
  8
1
 62
     7
 10
86.5
 20
-61.999999999999908
 30
0.0
 11
85.0
 21
-62.000000000000099
 31
0.0
  0
LINE
  5
60
  8
1
 62
     7
 10
86.5
 20
-30.999999999999901
 30
0.0
 11
96.0
 21
-30.999999999999901
 31
0.0
  0
LINE
  5
61
  8
1
 62
     7
 10
96.0
 20
-63.249999999999908
 30
0.0
 11
100.0
 21
-63.249999999999908
 31
0.0
  0
LINE
  5
62
  8
1
 62
     7
 10
100.0
 20
-63.249999999999908
 30
0.0
 11
100.0
 21
-57.999999999999901
 31
0.0
  0
LINE
  5
63
  8
1
 62
     7
 10
96.0
 20
-57.999999999999901
 30
0.0
 11
109.0
 21
-57.999999999999901
 31
0.0
  0
LINE
  5
64
  8
1
 62
     7
 10
108.4499999999999
 20
-57.999999999999901
 30
0.0
 11
108.4499999999999
 21
-69.999999999999915
 31
0.0
  0
LINE
  5
65
  8
1
 62
     7
 10
85.0
 20
-24.999999999999911
 30
0.0
 11
0.0
 21
-24.999999999999911
 31
0.0
  0
LINE
  5
66
  8
1
 62
     7
 10
3.5
 20
-35.374009609672918
 30
0.0
 11
6.0
 21
-35.374009609672918
 31
0.0
  0
LINE
  5
67
  8
1
 62
     7
 10
3.0
 20
-47.028796535245917
 30
0.0
 11
6.0
 21
-47.028796535245917
 31
0.0
  0
LINE
  5
68
  8
1
 62
     7
 10
6.0
 20
-45.796633369868232
 30
0.0
 11
12.375
 21
-45.796633369868232
 31
0.0
  0
LINE
  5
69
  8
1
 62
     7
 10
24.0
 20
-45.796633369868232
 30
0.0
 11
17.625
 21
-45.796633369868232
 31
0.0
  0
LINE
  5
6A
  8
1
 62
     7
 10
24.0
 20
-36.703366630131733
 30
0.0
 11
17.625
 21
-36.703366630131733
 31
0.0
  0
LINE
  5
6B
  8
1
 62
     7
 10
6.0
 20
-36.703366630131733
 30
0.0
 11
12.375
 21
-36.703366630131733
 31
0.0
  0
LINE
  5
6C
  8
1
 62
     7
 10
6.0
 20
-49.999999999999908
 30
0.0
 11
24.0
 21
-49.999999999999908
 31
0.0
  0
LINE
  5
6D
  8
1
 62
     7
 10
0.0
 20
-32.499999999999908
 30
0.0
 11
3.5
 21
-32.499999999999908
 31
0.0
  0
LINE
  5
6E
  8
1
 62
     7
 10
3.5
 20
-35.374009609672918
 30
0.0
 11
3.5
 21
-30.999999999999901
 31
0.0
  0
LINE
  5
6F
  8
1
 62
     7
 10
3.5
 20
-30.999999999999901
 30
0.0
 11
6.0
 21
-30.999999999999901
 31
0.0
  0
LINE
  5
70
  8
1
 62
     7
 10
85.0
 20
-51.999999999999908
 30
0.0
 11
79.5
 21
-51.999999999999908
 31
0.0
  0
LINE
  5
71
  8
1
 62
     7
 10
79.5
 20
-51.999999999999908
 30
0.0
 11
79.5
 21
-61.999999999999908
 31
0.0
  0
LINE
  5
72
  8
1
 62
     7
 10
84.699999999999932
 20
-69.999999999999915
 30
0.0
 11
30.0
 21
-69.999999999999915
 31
0.0
  0
LINE
  5
73
  8
1
 62
     7
 10
27.0
 20
-66.999999999999929
 30
0.0
 11
27.0
 21
-62.499999999999908
 31
0.0
  0
LINE
  5
74
  8
1
 62
     7
 10
27.0
 20
-62.499999999999908
 30
0.0
 11
72.5
 21
-62.499999999999908
 31
0.0
  0
LINE
  5
75
  8
1
 62
     7
 10
72.5
 20
-62.499999999999908
 30
0.0
 11
72.5
 21
-39.999999999999908
 31
0.0
  0
LINE
  5
76
  8
1
 62
     7
 10
72.5
 20
-39.999999999999908
 30
0.0
 11
24.0
 21
-39.999999999999908
 31
0.0
  0
LINE
  5
77
  8
1
 62
     7
 10
0.0
 20
-49.999999999999908
 30
0.0
 11
3.0
 21
-49.999999999999908
 31
0.0
  0
LINE
  5
78
  8
1
 62
     7
 10
3.0
 20
-47.028796535245917
 30
0.0
 11
3.0
 21
-51.749999999999901
 31
0.0
  0
LINE
  5
79
  8
1
 62
     7
 10
3.0
 20
-51.749999999999901
 30
0.0
 11
6.0
 21
-51.749999999999901
 31
0.0
  0
LINE
  5
7A
  8
1
 62
     7
 10
24.0
 20
-43.999999999999901
 30
0.0
 11
25.0
 21
-43.999999999999901
 31
0.0
  0
LINE
  5
7B
  8
1
 62
     7
 10
25.0
 20
-43.999999999999901
 30
0.0
 11
25.0
 21
-40.80000000000004
 31
0.0
  0
LINE
  5
7C
  8
1
 62
     7
 10
25.0
 20
-40.80000000000004
 30
0.0
 11
71.0
 21
-40.80000000000004
 31
0.0
  0
LINE
  5
7D
  8
1
 62
     7
 10
71.0
 20
-40.80000000000004
 30
0.0
 11
71.0
 21
-61.69999999999996
 31
0.0
  0
LINE
  5
7E
  8
1
 62
     7
 10
0.0
 20
-61.699999999999932
 30
0.0
 11
71.0
 21
-61.69999999999996
 31
0.0
  0
LINE
  5
7F
  8
1
 62
     7
 10
30.0
 20
70.0
 30
0.0
 11
27.0
 21
67.0
 31
0.0
  0
LINE
  5
80
  8
1
 62
     7
 10
109.0
 20
61.5
 30
0.0
 11
108.999238886501
 21
62.0
 31
0.0
  0
LINE
  5
81
  8
1
 62
     7
 10
85.0
 20
70.0
 30
0.0
 11
108.4499999999999
 21
70.0
 31
0.0
  0
LINE
  5
82
  8
1
  6
DASHDOT
 62
     3
 10
85.622767800630996
 20
46.0
 30
0.0
 11
113.43450046459201
 21
46.0
 31
0.0
  0
LINE
  5
83
  8
1
 62
     7
 10
112.0
 20
-55.999999999999901
 30
0.0
 11
112.0
 21
55.983873960250953
 31
0.0
  0
LINE
  5
84
  8
1
 62
     7
 10
112.0
 20
35.0
 30
0.0
 11
96.0
 21
35.0
 31
0.0
  0
LINE
  5
85
  8
1
 62
     7
 10
109.0
 20
56.0
 30
0.0
 11
112.0
 21
56.0
 31
0.0
  0
LINE
  5
86
  8
1
 62
     7
 10
109.0
 20
61.5
 30
0.0
 11
109.0
 21
56.0
 31
0.0
  0
LINE
  5
87
  8
1
 62
     7
 10
96.0
 20
62.0
 30
0.0
 11
108.999238886501
 21
62.0
 31
0.0
  0
LINE
  5
88
  8
1
 62
     7
 10
86.5
 20
-61.999999999999908
 30
0.0
 11
86.5
 21
62.0
 31
0.0
  0
LINE
  5
89
  8
1
 62
     7
 10
96.0
 20
31.0
 30
0.0
 11
86.5
 21
31.0
 31
0.0
  0
LINE
  5
8A
  8
1
 62
     7
 10
100.0
 20
63.25
 30
0.0
 11
96.0
 21
63.25
 31
0.0
  0
LINE
  5
8B
  8
1
 62
     7
 10
100.0
 20
58.0
 30
0.0
 11
100.0
 21
63.25
 31
0.0
  0
LINE
  5
8C
  8
1
 62
     7
 10
109.0
 20
58.0
 30
0.0
 11
96.0
 21
58.0
 31
0.0
  0
LINE
  5
8D
  8
1
 62
     7
 10
108.4499999999999
 20
58.0
 30
0.0
 11
108.4499999999999
 21
69.992979031583957
 31
0.0
  0
LINE
  5
8E
  8
1
 62
     7
 10
0.0
 20
25.0
 30
0.0
 11
85.0
 21
25.0
 31
0.0
  0
LINE
  5
8F
  8
1
 62
     7
 10
6.0
 20
35.374009609672953
 30
0.0
 11
3.5
 21
35.374009609672953
 31
0.0
  0
LINE
  5
90
  8
1
 62
     7
 10
6.0
 20
47.028796535245988
 30
0.0
 11
2.8999999999999759
 21
47.028796535245988
 31
0.0
  0
LINE
  5
91
  8
1
 62
     7
 10
12.375
 20
45.796633369868282
 30
0.0
 11
6.0
 21
45.796633369868282
 31
0.0
  0
LINE
  5
92
  8
1
 62
     7
 10
17.625
 20
45.796633369868282
 30
0.0
 11
24.0
 21
45.796633369868282
 31
0.0
  0
LINE
  5
93
  8
1
 62
     7
 10
17.625
 20
36.703366630131647
 30
0.0
 11
24.0
 21
36.703366630131647
 31
0.0
  0
LINE
  5
94
  8
1
 62
     7
 10
12.375
 20
36.703366630131647
 30
0.0
 11
6.0
 21
36.703366630131647
 31
0.0
  0
LINE
  5
95
  8
1
 62
     7
 10
6.0
 20
32.5
 30
0.0
 11
24.0
 21
32.5
 31
0.0
  0
LINE
  5
96
  8
1
 62
     7
 10
24.0
 20
50.0
 30
0.0
 11
6.0
 21
50.0
 31
0.0
  0
LINE
  5
97
  8
1
 62
     7
 10
3.5
 20
32.5
 30
0.0
 11
0.0
 21
32.5
 31
0.0
  0
LINE
  5
98
  8
1
 62
     7
 10
3.5
 20
31.0
 30
0.0
 11
3.5
 21
35.374009609672953
 31
0.0
  0
LINE
  5
99
  8
1
 62
     7
 10
6.0
 20
31.0
 30
0.0
 11
3.5
 21
31.0
 31
0.0
  0
LINE
  5
9A
  8
1
 62
     7
 10
85.0
 20
52.0
 30
0.0
 11
85.0
 21
-51.999999999999908
 31
0.0
  0
LINE
  5
9B
  8
1
 62
     7
 10
79.5
 20
52.0
 30
0.0
 11
85.0
 21
52.0
 31
0.0
  0
LINE
  5
9C
  8
1
 62
     7
 10
79.5
 20
62.0
 30
0.0
 11
79.5
 21
52.0
 31
0.0
  0
LINE
  5
9D
  8
1
 62
     7
 10
30.0
 20
70.0
 30
0.0
 11
84.699999999999932
 21
70.0
 31
0.0
  0
LINE
  5
9E
  8
1
 62
     7
 10
27.0
 20
62.5
 30
0.0
 11
27.0
 21
67.0
 31
0.0
  0
LINE
  5
9F
  8
1
 62
     7
 10
72.5
 20
62.5
 30
0.0
 11
27.0
 21
62.5
 31
0.0
  0
LINE
  5
A0
  8
1
 62
     7
 10
72.5
 20
40.0
 30
0.0
 11
72.5
 21
62.5
 31
0.0
  0
LINE
  5
A1
  8
1
 62
     7
 10
24.0
 20
40.0
 30
0.0
 11
72.5
 21
40.0
 31
0.0
  0
LINE
  5
A2
  8
1
 62
     7
 10
0.0
 20
-61.699999999999932
 30
0.0
 11
0.0
 21
98.0
 31
0.0
  0
LINE
  5
A3
  8
1
 62
     7
 10
25.0
 20
44.0
 30
0.0
 11
24.0
 21
44.0
 31
0.0
  0
LINE
  5
A4
  8
1
 62
     7
 10
25.0
 20
40.799999999999947
 30
0.0
 11
25.0
 21
44.0
 31
0.0
  0
LINE
  5
A5
  8
1
 62
     7
 10
71.0
 20
40.799999999999947
 30
0.0
 11
25.0
 21
40.799999999999947
 31
0.0
  0
LINE
  5
A6
  8
1
 62
     7
 10
71.0
 20
61.699999999999868
 30
0.0
 11
71.0
 21
40.799999999999947
 31
0.0
  0
LINE
  5
A7
  8
1
 62
     7
 10
71.0
 20
61.699999999999868
 30
0.0
 11
2.8999999999999759
 21
61.699999999999989
 31
0.0
  0
LINE
  5
A8
  8
1
 62
     7
 10
218.73114450602591
 20
95.0
 30
0.0
 11
218.73114450602591
 21
68.957240755065357
 31
0.0
  0
LINE
  5
A9
  8
1
 62
     7
 10
8.0
 20
46.828435156652958
 30
0.0
 11
8.0
 21
35.647520085149949
 31
0.0
  0
LINE
  5
AA
  8
1
 62
     7
 10
22.0
 20
46.767669313872993
 30
0.0
 11
22.0
 21
35.586754242369977
 31
0.0
  0
LINE
  5
AB
  8
1
 62
     7
 10
8.0
 20
-35.47889888873604
 30
0.0
 11
8.0
 21
-47.328238230819032
 31
0.0
  0
LINE
  5
AC
  8
1
 62
     7
 10
22.0
 20
-47.02440901691903
 30
0.0
 11
22.0
 21
-35.539664731516027
 31
0.0
  0
LINE
  5
AD
  8
1
 62
     3
 10
0.0
 20
0.0
 30
0.0
 11
-4.3211892953249826
 21
0.0
 31
0.0
  0
LINE
  5
AE
  8
1
 62
     3
 10
112.0
 20
0.0
 30
0.0
 11
117.00569380514899
 21
0.0
 31
0.0
  0
LINE
  5
AF
  8
1
  6
DASHDOT
 62
     3
 10
237.74809890796999
 20
88.0
 30
0.0
 11
223.71419010408189
 21
88.0
 31
0.0
  0
LINE
  5
B0
  8
1
  6
DASHDOT
 62
     3
 10
230.731144506026
 20
95.016954401944076
 30
0.0
 11
230.731144506026
 21
80.98304559805598
 31
0.0
  0
LINE
  5
B1
  8
1
  6
DASHDOT
 62
     3
 10
230.731144506026
 20
36.150582888011968
 30
0.0
 11
230.731144506026
 21
55.124000232640967
 31
0.0
  0
LINE
  5
B2
  8
1
  6
DASHDOT
 62
     3
 10
178.14879586239999
 20
0.0
 30
0.0
 11
191.068854330157
 21
0.0
 31
0.0
  0
LINE
  5
B3
  8
1
  6
DASHDOT
 62
     3
 10
269.06668077863702
 20
0.0
 30
0.0
 11
283.56171262249092
 21
0.0
 31
0.0
  0
LINE
  5
B4
  8
1
  6
DASHDOT
 62
     3
 10
237.76898617703401
 20
0.0
 30
0.0
 11
223.69330283501799
 21
0.0
 31
0.0
  0
LINE
  5
B5
  8
1
  6
DASHDOT
 62
     3
 10
230.731144506026
 20
7.0378416710079819
 30
0.0
 11
230.731144506026
 21
-7.0378416710080378
 31
0.0
  0
LINE
  5
B6
  8
1
  6
DASHDOT
 62
     3
 10
230.731144506026
 20
-56.806954529281029
 30
0.0
 11
230.731144506026
 21
-34.20289852543501
 31
0.0
  0
LINE
  5
B7
  8
1
 62
     7
 10
-156.803400412586
 20
98.0
 30
0.0
 11
-153.90340041258611
 21
98.0
 31
0.0
  0
LINE
  5
B8
  8
1
 62
     7
 10
-156.803400412586
 20
98.0
 30
0.0
 11
-156.803400412586
 21
-61.699999999999932
 31
0.0
  0
LINE
  5
B9
  8
1
 62
     7
 10
-129.803400412586
 20
-66.999999999999929
 30
0.0
 11
-126.8034004125861
 21
-69.999999999999915
 31
0.0
  0
LINE
  5
BA
  8
1
 62
     7
 10
-71.8034004125861
 20
-69.999999999999915
 30
0.0
 11
-48.35340041258614
 21
-69.999999999999915
 31
0.0
  0
LINE
  5
BB
  8
1
 62
     7
 10
-47.8034004125861
 20
-55.999999999999901
 30
0.0
 11
-44.839365942895093
 21
-55.999999999999901
 31
0.0
  0
LINE
  5
BC
  8
1
 62
     7
 10
-72.103400412586154
 20
-69.999999999999915
 30
0.0
 11
-126.8034004125861
 21
-69.999999999999915
 31
0.0
  0
LINE
  5
BD
  8
1
 62
     7
 10
-129.803400412586
 20
-66.999999999999929
 30
0.0
 11
-129.803400412586
 21
67.0
 31
0.0
  0
LINE
  5
BE
  8
1
 62
     7
 10
-156.803400412586
 20
-61.699999999999932
 30
0.0
 11
-129.803400412586
 21
-61.699999999999932
 31
0.0
  0
LINE
  5
BF
  8
1
 62
     7
 10
-126.8034004125861
 20
70.0
 30
0.0
 11
-129.803400412586
 21
67.0
 31
0.0
  0
LINE
  5
C0
  8
1
 62
     7
 10
-71.8034004125861
 20
70.0
 30
0.0
 11
-48.35340041258614
 21
70.0
 31
0.0
  0
LINE
  5
C1
  8
1
 62
     7
 10
-44.803400412586093
 20
-55.999999999999901
 30
0.0
 11
-44.803400412586093
 21
55.983873960250953
 31
0.0
  0
LINE
  5
C2
  8
1
 62
     7
 10
-47.8034004125861
 20
56.0
 30
0.0
 11
-44.803400412586093
 21
56.0
 31
0.0
  0
LINE
  5
C3
  8
1
 62
     7
 10
-126.8034004125861
 20
70.0
 30
0.0
 11
-72.103400412586154
 21
70.0
 31
0.0
  0
LINE
  5
C4
  8
1
 62
     3
 10
-156.803400412586
 20
0.0
 30
0.0
 11
-161.12458970791101
 21
0.0
 31
0.0
  0
LINE
  5
C5
  8
1
 62
     3
 10
-44.803400412586093
 20
0.0
 30
0.0
 11
-39.797706607437071
 21
0.0
 31
0.0
  0
LINE
  5
C6
  8
1
 62
     7
 10
-47.8034004125861
 20
62.050000000000068
 30
0.0
 11
-48.35340041258614
 21
62.050000000000068
 31
0.0
  0
LINE
  5
C7
  8
1
 62
     7
 10
-48.35340041258614
 20
69.992979031583957
 30
0.0
 11
-48.35340041258614
 21
-69.999999999999915
 31
0.0
  0
LINE
  5
C8
  8
1
 62
     7
 10
-47.8034004125861
 20
-61.999999999999908
 30
0.0
 11
-48.35340041258614
 21
-61.999999999999908
 31
0.0
  0
LINE
  5
C9
  8
1
 62
     7
 10
-47.8034004125861
 20
62.050000000000068
 30
0.0
 11
-47.8034004125861
 21
-61.999999999999908
 31
0.0
  0
LINE
  5
CA
  8
1
 62
     3
 10
-70.253400412585989
 20
70.0
 30
0.0
 11
-70.253400412585989
 21
-70.000000000000099
 31
0.0
  0
LINE
  5
CB
  8
1
 62
     7
 10
-71.8034004125861
 20
-69.999999999999915
 30
0.0
 11
-71.8034004125861
 21
70.0
 31
0.0
  0
LINE
  5
CC
  8
1
 62
     7
 10
-72.103400412586154
 20
70.0
 30
0.0
 11
-72.103400412586154
 21
-69.999999999999915
 31
0.0
  0
LINE
  5
CD
  8
1
 62
     3
 10
-73.65340041258618
 20
70.0
 30
0.0
 11
-73.65340041258618
 21
-70.000000000000099
 31
0.0
  0
LINE
  5
CE
  8
1
 62
     7
 10
-126.8034004125861
 20
70.0
 30
0.0
 11
-126.8034004125861
 21
-69.999999999999915
 31
0.0
  0
LINE
  5
CF
  8
1
 62
     7
 10
-129.803400412586
 20
61.699999999999989
 30
0.0
 11
-156.803400412586
 21
61.699999999999989
 31
0.0
  0
LINE
  5
D0
  8
1
 62
     7
 10
-153.90340041258611
 20
61.699999999999989
 30
0.0
 11
-153.90340041258611
 21
98.0
 31
0.0
  0
LINE
  5
D1
  8
1
 62
     7
 10
-288.75109891737208
 20
98.0
 30
0.0
 11
-270.75109891737202
 21
98.0
 31
0.0
  0
LINE
  5
D2
  8
1
 62
     7
 10
-285.75109891737208
 20
24.269322199023168
 30
0.0
 11
-285.75109891737208
 21
28.5
 31
0.0
  0
LINE
  5
D3
  8
1
 62
     7
 10
-273.75109891737202
 20
28.5
 30
0.0
 11
-273.75109891737202
 21
24.269322199023168
 31
0.0
  0
LINE
  5
D4
  8
1
 62
     7
 10
-285.75109891737208
 20
28.5
 30
0.0
 11
-273.75109891737202
 21
28.5
 31
0.0
  0
LINE
  5
D5
  8
1
  6
DASHDOT
 62
     3
 10
-272.734144515428
 20
88.0
 30
0.0
 11
-286.7680533193161
 21
88.0
 31
0.0
  0
LINE
  5
D6
  8
1
  6
DASHDOT
 62
     3
 10
-279.75109891737202
 20
95.016954401944076
 30
0.0
 11
-279.75109891737202
 21
80.98304559805598
 31
0.0
  0
LINE
  5
D7
  8
1
  6
DASHDOT
 62
     3
 10
-272.71325724636409
 20
0.0
 30
0.0
 11
-286.78894058838011
 21
0.0
 31
0.0
  0
LINE
  5
D8
  8
1
  6
DASHDOT
 62
     3
 10
-279.75109891737202
 20
7.0378416710079819
 30
0.0
 11
-279.75109891737202
 21
-7.0378416710080378
 31
0.0
  0
LINE
  5
D9
  8
1
 62
     7
 10
-300.75109891737208
 20
58.016290815597699
 30
0.0
 11
-300.75109891737208
 21
45.3762052181537
 31
0.0
  0
LINE
  5
DA
  8
1
 62
     7
 10
-258.75109891737202
 20
58.016290815597699
 30
0.0
 11
-258.75109891737202
 21
45.3762052181537
 31
0.0
  0
LINE
  5
DB
  8
1
 62
     7
 10
-291.75109891737208
 20
95.0
 30
0.0
 11
-291.75109891737208
 21
66.0
 31
0.0
  0
LINE
  5
DC
  8
1
 62
     7
 10
-294.75109891737208
 20
63.0
 30
0.0
 11
-296.75109891737208
 21
63.0
 31
0.0
  0
LINE
  5
DD
  8
1
 62
     7
 10
-299.75109891737208
 20
60.0
 30
0.0
 11
-299.75109891737208
 21
48.0
 31
0.0
  0
LINE
  5
DE
  8
1
 62
     7
 10
-299.75109891737208
 20
48.0
 30
0.0
 11
-259.75109891737202
 21
48.0
 31
0.0
  0
LINE
  5
DF
  8
1
 62
     7
 10
-259.75109891737202
 20
48.0
 30
0.0
 11
-259.75109891737202
 21
60.0
 31
0.0
  0
LINE
  5
E0
  8
1
 62
     7
 10
-262.75109891737202
 20
63.0
 30
0.0
 11
-264.75109891737202
 21
63.0
 31
0.0
  0
LINE
  5
E1
  8
1
 62
     7
 10
-267.75109891737202
 20
66.0
 30
0.0
 11
-267.75109891737202
 21
95.0
 31
0.0
  0
LINE
  5
E2
  8
1
 62
     7
 10
-291.92109891737209
 20
57.199999999999982
 30
0.0
 11
-292.58109891737212
 21
57.199999999999982
 31
0.0
  0
LINE
  5
E3
  8
1
 62
     7
 10
-294.45109891737212
 20
55.329999999999977
 30
0.0
 11
-294.45109891737212
 21
54.669999999999959
 31
0.0
  0
LINE
  5
E4
  8
1
 62
     7
 10
-292.58109891737212
 20
52.799999999999947
 30
0.0
 11
-291.92109891737209
 21
52.799999999999947
 31
0.0
  0
LINE
  5
E5
  8
1
 62
     7
 10
-290.05109891737209
 20
54.669999999999959
 30
0.0
 11
-290.05109891737209
 21
55.329999999999977
 31
0.0
  0
LINE
  5
E6
  8
1
 62
     7
 10
-266.92109891737198
 20
57.199999999999982
 30
0.0
 11
-267.58109891737212
 21
57.199999999999982
 31
0.0
  0
LINE
  5
E7
  8
1
 62
     7
 10
-269.45109891737212
 20
55.329999999999977
 30
0.0
 11
-269.45109891737212
 21
54.669999999999959
 31
0.0
  0
LINE
  5
E8
  8
1
 62
     7
 10
-267.58109891737212
 20
52.799999999999947
 30
0.0
 11
-266.92109891737198
 21
52.799999999999947
 31
0.0
  0
LINE
  5
E9
  8
1
 62
     7
 10
-265.05109891737197
 20
54.669999999999959
 30
0.0
 11
-265.05109891737197
 21
55.329999999999977
 31
0.0
  0
LINE
  5
EA
  8
1
 62
     7
 10
-152.65340041258611
 20
61.699999999999989
 30
0.0
 11
-152.65340041258611
 21
90.208294442667977
 31
0.0
  0
LINE
  5
EB
  8
1
 62
     7
 10
-152.65340041258611
 20
90.208294442667977
 30
0.0
 11
-150.95340041258601
 21
90.208294442667977
 31
0.0
  0
LINE
  5
EC
  8
1
 62
     7
 10
-150.95340041258601
 20
90.208294442667977
 30
0.0
 11
-150.95340041258601
 21
61.699999999999989
 31
0.0
  0
LINE
  5
ED
  8
1
 62
     7
 10
-152.40340041258611
 20
93.014198031118966
 30
0.0
 11
-152.40340041258611
 21
90.208294442667977
 31
0.0
  0
LINE
  5
EE
  8
1
 62
     7
 10
-152.10340041258601
 20
93.014198031118966
 30
0.0
 11
-152.10340041258601
 21
90.208294442667977
 31
0.0
  0
LINE
  5
EF
  8
1
 62
     7
 10
-151.803400412586
 20
90.208294442667977
 30
0.0
 11
-151.803400412586
 21
93.014198031118966
 31
0.0
  0
LINE
  5
F0
  8
1
 62
     7
 10
-151.50340041258599
 20
93.014198031118966
 30
0.0
 11
-151.50340041258599
 21
90.208294442667977
 31
0.0
  0
LINE
  5
F1
  8
1
 62
     7
 10
-151.20340041258601
 20
90.208294442667977
 30
0.0
 11
-151.20340041258601
 21
93.014198031118966
 31
0.0
  0
LINE
  5
F2
  8
1
 62
     7
 10
4.1499999999999764
 20
90.208294442667977
 30
0.0
 11
5.8500000000000218
 21
90.208294442667977
 31
0.0
  0
LINE
  5
F3
  8
1
 62
     7
 10
4.3999999999999764
 20
93.014198031118966
 30
0.0
 11
4.3999999999999764
 21
90.208294442667977
 31
0.0
  0
LINE
  5
F4
  8
1
 62
     7
 10
4.6999999999999309
 20
93.014198031118966
 30
0.0
 11
4.6999999999999309
 21
90.208294442667977
 31
0.0
  0
LINE
  5
F5
  8
1
 62
     7
 10
5.0
 20
90.208294442667977
 30
0.0
 11
5.0
 21
93.014198031118966
 31
0.0
  0
LINE
  5
F6
  8
1
 62
     7
 10
5.3000000000000682
 20
93.014198031118966
 30
0.0
 11
5.3000000000000682
 21
90.208294442667977
 31
0.0
  0
LINE
  5
F7
  8
1
 62
     7
 10
5.6000000000000227
 20
90.208294442667977
 30
0.0
 11
5.6000000000000227
 21
93.014198031118966
 31
0.0
  0
LINE
  5
F8
  8
1
 62
     7
 10
5.8500000000000218
 20
90.208294442667977
 30
0.0
 11
5.8500000000000218
 21
61.699999999999989
 31
0.0
  0
LINE
  5
F9
  8
1
 62
     7
 10
4.1499999999999764
 20
61.699999999999989
 30
0.0
 11
4.1499999999999764
 21
90.208294442667977
 31
0.0
  0
LINE
  5
FA
  8
1
 62
     7
 10
236.70368303664461
 20
69.74474018519436
 30
0.0
 11
249.7347079362722
 21
92.31513738604427
 31
0.0
  0
LINE
  5
FB
  8
1
 62
     7
 10
249.7347079362722
 20
92.31513738604427
 30
0.0
 11
252.67919430913909
 21
90.615137386044367
 31
0.0
  0
LINE
  5
FC
  8
1
 62
     7
 10
252.67919430913909
 20
90.615137386044367
 30
0.0
 11
240.39042055862731
 21
69.330356887438882
 31
0.0
  0
LINE
  5
FD
  8
1
 62
     7
 10
251.2069511227057
 20
91.465137386044276
 30
0.0
 11
238.56046306475261
 21
69.560777532356383
 31
0.0
  0
LINE
  5
FE
  8
1
 62
     7
 10
242.731144506026
 20
73.384609690826551
 30
0.0
 11
242.731144506026
 21
68.963758598266679
 31
0.0
  0
LINE
  5
FF
  8
1
 62
     7
 10
242.731144506026
 20
80.184609690826434
 30
0.0
 11
242.731144506026
 21
95.0
 31
0.0
  0
LINE
  5
100
  8
1
 62
     7
 10
253.7825562257643
 20
93.026216284775558
 30
0.0
 11
252.4626879581931
 21
90.740137386044367
 31
0.0
  0
LINE
  5
101
  8
1
 62
     7
 10
252.20288033705791
 20
90.890137386044415
 30
0.0
 11
253.5227486046289
 21
93.176216284775606
 31
0.0
  0
LINE
  5
102
  8
1
 62
     7
 10
253.26294098349379
 20
93.326216284775569
 30
0.0
 11
251.94307271592251
 21
91.040137386044364
 31
0.0
  0
LINE
  5
103
  8
1
 62
     7
 10
251.6832650947872
 20
91.190137386044427
 30
0.0
 11
253.0031333623584
 21
93.47621628477556
 31
0.0
  0
LINE
  5
104
  8
1
 62
     7
 10
252.74332574122309
 20
93.62621628477558
 30
0.0
 11
251.42345747365189
 21
91.340137386044276
 31
0.0
  0
LINE
  5
105
  8
1
 62
     7
 10
250.9904447717596
 20
91.590137386044276
 30
0.0
 11
252.31031303933079
 21
93.876216284775595
 31
0.0
  0
LINE
  5
106
  8
1
 62
     7
 10
252.0505054181954
 20
94.026216284775558
 30
0.0
 11
250.73063715062429
 21
91.740137386044296
 31
0.0
  0
LINE
  5
107
  8
1
 62
     7
 10
250.47082952948881
 20
91.890137386044273
 30
0.0
 11
251.79069779706001
 21
94.176216284775606
 31
0.0
  0
LINE
  5
108
  8
1
 62
     7
 10
251.53089017592481
 20
94.326216284775569
 30
0.0
 11
250.2110219083535
 21
92.040137386044236
 31
0.0
  0
LINE
  5
109
  8
1
 62
     7
 10
249.95121428721811
 20
92.19013738604427
 30
0.0
 11
251.2710825547895
 21
94.47621628477556
 31
0.0
  0
LINE
  5
10A
  8
1
 62
     7
 10
-301.69914872048531
 20
90.615137386044367
 30
0.0
 11
-298.75466234761831
 21
92.31513738604427
 31
0.0
  0
LINE
  5
10B
  8
1
 62
     7
 10
-301.48264236953918
 20
90.740137386044367
 30
0.0
 11
-302.8025106371104
 21
93.026216284775558
 31
0.0
  0
LINE
  5
10C
  8
1
 62
     7
 10
-302.54270301597512
 20
93.176216284775606
 30
0.0
 11
-301.22283474840413
 21
90.890137386044415
 31
0.0
  0
LINE
  5
10D
  8
1
 62
     7
 10
-300.96302712726879
 20
91.040137386044364
 30
0.0
 11
-302.2828953948399
 21
93.326216284775569
 31
0.0
  0
LINE
  5
10E
  8
1
 62
     7
 10
-302.02308777370462
 20
93.47621628477556
 30
0.0
 11
-300.70321950613328
 21
91.190137386044427
 31
0.0
  0
LINE
  5
10F
  8
1
 62
     7
 10
-300.44341188499811
 20
91.340137386044276
 30
0.0
 11
-301.76328015256928
 21
93.62621628477558
 31
0.0
  0
LINE
  5
110
  8
1
 62
     7
 10
-301.33026745067701
 20
93.876216284775595
 30
0.0
 11
-300.01039918310568
 21
91.590137386044276
 31
0.0
  0
LINE
  5
111
  8
1
 62
     7
 10
-299.75059156197051
 20
91.740137386044296
 30
0.0
 11
-301.07045982954162
 21
94.026216284775558
 31
0.0
  0
LINE
  5
112
  8
1
 62
     7
 10
-300.8106522084064
 20
94.176216284775606
 30
0.0
 11
-299.49078394083512
 21
91.890137386044273
 31
0.0
  0
LINE
  5
113
  8
1
 62
     7
 10
-299.23097631969978
 20
92.040137386044236
 30
0.0
 11
-300.55084458727077
 21
94.326216284775569
 31
0.0
  0
LINE
  5
114
  8
1
 62
     7
 10
-300.29103696613561
 20
94.47621628477556
 30
0.0
 11
-298.9711686985645
 21
92.19013738604427
 31
0.0
  0
LINE
  5
115
  8
1
 62
     7
 10
-298.75466234761831
 20
92.31513738604427
 30
0.0
 11
-291.75109891737208
 21
80.184609690826278
 31
0.0
  0
LINE
  5
116
  8
1
 62
     7
 10
-291.75109891737208
 20
76.784609690826301
 30
0.0
 11
-300.22690553405181
 21
91.465137386044276
 31
0.0
  0
LINE
  5
117
  8
1
 62
     7
 10
-291.75109891737208
 20
73.38460969082648
 30
0.0
 11
-301.69914872048531
 21
90.615137386044367
 31
0.0
  0
LINE
  5
118
  8
1
 62
     7
 10
6.0
 20
51.75
 30
0.0
 11
2.8999999999999759
 21
51.75
 31
0.0
  0
ARC
  5
119
  8
1
 62
     7
 10
221.731144506026
 20
95.0
 30
0.0
 40
3.0
 50
90.0
 51
180.0
  0
ARC
  5
11A
  8
1
 62
     7
 10
239.73114450602591
 20
95.0
 30
0.0
 40
3.0
 50
0.0
 51
90.0
  0
ARC
  5
11B
  8
1
 62
     7
 10
-288.75109891737208
 20
95.0
 30
0.0
 40
3.0
 50
90.0
 51
180.0
  0
ARC
  5
11C
  8
1
 62
     7
 10
-270.75109891737202
 20
95.0
 30
0.0
 40
3.0
 50
0.0
 51
90.0
  0
ARC
  5
11D
  8
1
 62
     7
 10
-296.75109891737208
 20
60.0
 30
0.0
 40
3.0
 50
90.0
 51
180.0
  0
ARC
  5
11E
  8
1
 62
     7
 10
-262.75109891737202
 20
60.0
 30
0.0
 40
3.0
 50
0.0
 51
90.0
  0
ARC
  5
11F
  8
1
 62
     7
 10
-264.75109891737202
 20
66.0
 30
0.0
 40
3.0
 50
180.0
 51
270.0
  0
ARC
  5
120
  8
1
 62
     7
 10
-294.75109891737208
 20
66.0
 30
0.0
 40
3.0
 50
270.0
 51
0.0
  0
ARC
  5
121
  8
1
 62
     7
 10
230.731144506026
 20
0.0
 30
0.0
 40
24.999999999999989
 50
103.88654036262891
 51
76.113459637371022
  0
ARC
  5
122
  8
1
  6
DASHDOT
 62
     3
 10
230.731144506026
 20
0.0
 30
0.0
 40
46.000000000000057
 50
75.996562756255301
 51
103.5415496227386
  0
ARC
  5
123
  8
1
  6
DASHDOT
 62
     3
 10
230.731144506026
 20
0.0
 30
0.0
 40
46.000000000000142
 50
138.72735759579061
 51
163.77227950054029
  0
ARC
  5
124
  8
1
  6
DASHDOT
 62
     3
 10
230.731144506026
 20
0.0
 30
0.0
 40
45.999999999999972
 50
170.0589155362581
 51
189.7779200201058
  0
ARC
  5
125
  8
1
  6
DASHDOT
 62
     3
 10
230.731144506026
 20
0.0
 30
0.0
 40
46.000000000000057
 50
196.67696391040451
 51
221.27264240420931
  0
ARC
  5
126
  8
1
  6
DASHDOT
 62
     3
 10
230.731144506026
 20
0.0
 30
0.0
 40
46.0
 50
255.22888550785049
 51
283.17303614803382
  0
ARC
  5
127
  8
1
  6
DASHDOT
 62
     3
 10
230.731144506026
 20
0.0
 30
0.0
 40
46.000000000000043
 50
318.72735759579081
 51
341.95991577561352
  0
ARC
  5
128
  8
1
  6
DASHDOT
 62
     3
 10
230.731144506026
 20
0.0
 30
0.0
 40
46.0
 50
17.92627741355977
 51
41.897106441502807
  0
ARC
  5
129
  8
1
  6
DASHDOT
 62
     3
 10
230.731144506026
 20
0.0
 30
0.0
 40
46.000000000000043
 50
349.9924297182381
 51
10.03948410215153
  0
ARC
  5
12A
  8
1
 62
     7
 10
-279.75109891737202
 20
0.0
 30
0.0
 40
24.999999999999989
 50
103.88654036262891
 51
76.113459637371022
  0
ARC
  5
12B
  8
1
 62
     7
 10
-279.75109891737202
 20
0.0
 30
0.0
 40
50.0
 50
106.260204708312
 51
73.739795291688026
  0
ARC
  5
12C
  8
1
 62
     7
 10
-279.75109891737202
 20
0.0
 30
0.0
 40
61.70000000000001
 50
108.9140319667581
 51
71.085968033241912
  0
ARC
  5
12D
  8
1
 62
     7
 10
-290.05109891737209
 20
57.199999999999982
 30
0.0
 40
1.8700000000000041
 50
180.0
 51
270.0
  0
ARC
  5
12E
  8
1
 62
     7
 10
-294.45109891737212
 20
57.199999999999982
 30
0.0
 40
1.870000000000011
 50
270.0
 51
0.0
  0
ARC
  5
12F
  8
1
 62
     7
 10
-294.45109891737212
 20
52.799999999999947
 30
0.0
 40
1.8700000000000041
 50
0.0
 51
90.0
  0
ARC
  5
130
  8
1
 62
     7
 10
-290.05109891737209
 20
52.799999999999947
 30
0.0
 40
1.870000000000011
 50
90.0
 51
180.0
  0
ARC
  5
131
  8
1
 62
     7
 10
-265.05109891737197
 20
57.199999999999982
 30
0.0
 40
1.8700000000000041
 50
180.0
 51
270.0
  0
ARC
  5
132
  8
1
 62
     7
 10
-269.45109891737212
 20
57.199999999999982
 30
0.0
 40
1.870000000000011
 50
270.0
 51
0.0
  0
ARC
  5
133
  8
1
 62
     7
 10
-269.45109891737212
 20
52.799999999999947
 30
0.0
 40
1.8700000000000041
 50
0.0
 51
90.0
  0
ARC
  5
134
  8
1
 62
     7
 10
-265.05109891737197
 20
52.799999999999947
 30
0.0
 40
1.870000000000011
 50
90.0
 51
180.0
  0
ARC
  5
135
  8
1
 62
     7
 10
-279.75109891737202
 20
0.0
 30
0.0
 40
69.999999999999986
 50
99.870889606139514
 51
80.129110393860429
  0
CIRCLE
  5
136
  8
1
 62
     7
 10
230.731144506026
 20
88.0
 30
0.0
 40
4.25
  0
CIRCLE
  5
137
  8
1
 62
     7
 10
270.5683130801101
 20
-23.000000000000028
 30
0.0
 40
4.250000000000056
  0
CIRCLE
  5
138
  8
1
  6
DASHED
 62
     7
 10
270.5683130801101
 20
-23.000000000000028
 30
0.0
 40
8.0
  0
CIRCLE
  5
139
  8
1
 62
     7
 10
230.731144506026
 20
-46.000000000000028
 30
0.0
 40
4.2500000000001981
  0
CIRCLE
  5
13A
  8
1
  6
DASHED
 62
     7
 10
230.731144506026
 20
-46.000000000000028
 30
0.0
 40
8.0
  0
CIRCLE
  5
13B
  8
1
 62
     7
 10
190.8939759319417
 20
-23.000000000000028
 30
0.0
 40
4.2500000000000853
  0
CIRCLE
  5
13C
  8
1
  6
DASHED
 62
     7
 10
190.8939759319417
 20
-23.000000000000028
 30
0.0
 40
8.0
  0
CIRCLE
  5
13D
  8
1
 62
     7
 10
190.8939759319417
 20
23.00000000000005
 30
0.0
 40
4.2500000000000853
  0
CIRCLE
  5
13E
  8
1
  6
DASHED
 62
     7
 10
190.8939759319417
 20
23.00000000000005
 30
0.0
 40
8.0
  0
CIRCLE
  5
13F
  8
1
 62
     7
 10
230.731144506026
 20
46.000000000000057
 30
0.0
 40
4.2500000000001128
  0
CIRCLE
  5
140
  8
1
  6
DASHED
 62
     7
 10
230.731144506026
 20
46.000000000000057
 30
0.0
 40
8.0
  0
CIRCLE
  5
141
  8
1
 62
     7
 10
260.29937455160677
 20
-35.238044383472918
 30
0.0
 40
6.9999999999999432
  0
CIRCLE
  5
142
  8
1
 62
     7
 10
260.29937455160677
 20
-35.238044383472918
 30
0.0
 40
6.4999999999999432
  0
CIRCLE
  5
143
  8
1
 62
     7
 10
201.16291446044511
 20
35.238044383472968
 30
0.0
 40
6.4999999999999147
  0
CIRCLE
  5
144
  8
1
 62
     7
 10
201.16291446044511
 20
35.238044383472968
 30
0.0
 40
6.9999999999999147
  0
CIRCLE
  5
145
  8
1
  6
DASHED
 62
     7
 10
270.5683130801101
 20
23.0
 30
0.0
 40
8.0
  0
CIRCLE
  5
146
  8
1
 62
     7
 10
270.5683130801101
 20
23.0
 30
0.0
 40
4.25
  0
CIRCLE
  5
147
  8
1
 62
     7
 10
201.16291446044511
 20
-35.238044383473031
 30
0.0
 40
6.5
  0
CIRCLE
  5
148
  8
1
 62
     7
 10
201.16291446044511
 20
-35.238044383473031
 30
0.0
 40
7.0
  0
CIRCLE
  5
149
  8
1
 62
     7
 10
260.29937455160677
 20
35.238044383472968
 30
0.0
 40
6.5
  0
CIRCLE
  5
14A
  8
1
 62
     7
 10
260.29937455160677
 20
35.238044383472968
 30
0.0
 40
7.0
  0
CIRCLE
  5
14B
  8
1
 62
     7
 10
184.731144506026
 20
0.0
 30
0.0
 40
4.9000000000000048
  0
CIRCLE
  5
14C
  8
1
 62
     7
 10
276.731144506026
 20
0.0
 30
0.0
 40
4.8999999999999764
  0
CIRCLE
  5
14D
  8
1
 62
     7
 10
230.731144506026
 20
0.0
 30
0.0
 40
70.0
  0
CIRCLE
  5
14E
  8
1
 62
     7
 10
15.0
 20
-41.249999999999908
 30
0.0
 40
5.25
  0
CIRCLE
  5
14F
  8
1
 62
     7
 10
15.0
 20
41.25
 30
0.0
 40
5.25
  0
CIRCLE
  5
150
  8
1
 62
     7
 10
230.731144506026
 20
0.0
 30
0.0
 40
56.0
  0
CIRCLE
  5
151
  8
1
 62
     7
 10
230.731144506026
 20
0.0
 30
0.0
 40
35.0
  0
CIRCLE
  5
152
  8
1
 62
     7
 10
230.731144506026
 20
0.0
 30
0.0
 40
62.0
  0
CIRCLE
  5
153
  8
1
 62
     7
 10
-279.75109891737202
 20
88.0
 30
0.0
 40
4.25
  0
CIRCLE
  5
154
  8
1
 62
     7
 10
-279.75109891737202
 20
0.0
 30
0.0
 40
32.499999999999957
  0
CIRCLE
  5
155
  8
1
 62
     7
 10
-292.25109891737208
 20
55.0
 30
0.0
 40
4.0
  0
CIRCLE
  5
156
  8
1
 62
     7
 10
-267.25109891737202
 20
55.0
 30
0.0
 40
4.0
  0
TEXT
  5
158
  8
1
 62
     7
 10
-307.66141684962099
 20
143.40396626346191
 30
0.0
 40
10.0
  1
MZ 50
 41
0.9
  7
SIMPLEX
  0
ENDSEC
  0
EOF
