  0
SECTION
  2
HEADER
  9
$ACADVER
  1
AC1009
  9
$INSBASE
 10
0.0
 20
0.0
 30
0.0
  9
$EXTMIN
 10
-277.95816107134488
 20
-50.000000000000099
 30
0.0
  9
$EXTMAX
 10
226.1945400904431
 20
121.0872866869896
 30
0.0
  9
$LIMMIN
 10
-277.95816107134488
 20
-50.000000000000099
  9
$LIMMAX
 10
226.1945400904431
 20
121.0872866869896
  9
$ORTHOMODE
 70
     0
  9
$REGENMODE
 70
     1
  9
$FILLMODE
 70
     1
  9
$QTEXTMODE
 70
     0
  9
$MIRRTEXT
 70
     1
  9
$DRAGMODE
 70
     2
  9
$LTSCALE
 40
1.0
  9
$OSMODE
 70
    37
  9
$ATTMODE
 70
     1
  9
$TEXTSIZE
 40
3.5
  9
$TRACEWID
 40
0.5
  9
$TEXTSTYLE
  7
STANDARD
  9
$CLAYER
  8
0
  9
$CELTYPE
  6
BYLAYER
  9
$CECOLOR
 62
   256
  9
$DIMSCALE
 40
1.0
  9
$DIMASZ
 40
0.18
  9
$DIMEXO
 40
0.0625
  9
$DIMDLI
 40
0.38
  9
$DIMRND
 40
0.0
  9
$DIMDLE
 40
0.0
  9
$DIMEXE
 40
0.18
  9
$DIMTP
 40
0.0
  9
$DIMTM
 40
0.0
  9
$DIMTXT
 40
0.18
  9
$DIMCEN
 40
0.09
  9
$DIMTSZ
 40
0.0
  9
$DIMTOL
 70
     0
  9
$DIMLIM
 70
     0
  9
$DIMTIH
 70
     1
  9
$DIMTOH
 70
     1
  9
$DIMSE1
 70
     0
  9
$DIMSE2
 70
     0
  9
$DIMTAD
 70
     0
  9
$DIMZIN
 70
     0
  9
$DIMBLK
  1

  9
$DIMASO
 70
     1
  9
$DIMSHO
 70
     1
  9
$DIMPOST
  1

  9
$DIMAPOST
  1

  9
$DIMALT
 70
     0
  9
$DIMALTD
 70
     2
  9
$DIMALTF
 40
25.399999999999999
  9
$DIMLFAC
 40
1.0
  9
$DIMTOFL
 70
     0
  9
$DIMTVP
 40
0.0
  9
$DIMTIX
 70
     0
  9
$DIMSOXD
 70
     0
  9
$DIMSAH
 70
     0
  9
$DIMBLK1
  1

  9
$DIMBLK2
  1

  9
$DIMSTYLE
  2
STANDARD
  9
$DIMCLRD
 70
     0
  9
$DIMCLRE
 70
     0
  9
$DIMCLRT
 70
     0
  9
$DIMTFAC
 40
1.0
  9
$DIMGAP
 40
0.09
  9
$LUNITS
 70
     2
  9
$LUPREC
 70
     4
  9
$SKETCHINC
 40
0.1
  9
$FILLETRAD
 40
2.0
  9
$AUNITS
 70
     0
  9
$AUPREC
 70
     0
  9
$MENU
  1
ACAD
  9
$ELEVATION
 40
0.0
  9
$PELEVATION
 40
0.0
  9
$THICKNESS
 40
0.0
  9
$LIMCHECK
 70
     0
  9
$BLIPMODE
 70
     0
  9
$CHAMFERA
 40
0.0
  9
$CHAMFERB
 40
0.0
  9
$SKPOLY
 70
     0
  9
$TDCREATE
 40
2452095.0937489579
  9
$TDUPDATE
 40
2452095.0944584492
  9
$TDINDWG
 40
0.0007324074
  9
$TDUSRTIMER
 40
0.0007324074
  9
$USRTIMER
 70
     1
  9
$ANGBASE
 50
0.0
  9
$ANGDIR
 70
     0
  9
$PDMODE
 70
     0
  9
$PDSIZE
 40
0.0
  9
$PLINEWID
 40
0.0
  9
$COORDS
 70
     1
  9
$SPLFRAME
 70
     0
  9
$SPLINETYPE
 70
     6
  9
$SPLINESEGS
 70
     8
  9
$ATTDIA
 70
     0
  9
$ATTREQ
 70
     1
  9
$HANDLING
 70
 10241
  9
$HANDSEED
  5
16E
  9
$SURFTAB1
 70
     6
  9
$SURFTAB2
 70
     6
  9
$SURFTYPE
 70
     6
  9
$SURFU
 70
     6
  9
$SURFV
 70
     6
  9
$UCSNAME
  2

  9
$UCSORG
 10
0.0
 20
0.0
 30
0.0
  9
$UCSXDIR
 10
1.0
 20
0.0
 30
0.0
  9
$UCSYDIR
 10
0.0
 20
1.0
 30
0.0
  9
$PUCSNAME
  2

  9
$PUCSORG
 10
0.0
 20
0.0
 30
0.0
  9
$PUCSXDIR
 10
1.0
 20
0.0
 30
0.0
  9
$PUCSYDIR
 10
0.0
 20
1.0
 30
0.0
  9
$USERI1
 70
     0
  9
$USERI2
 70
     0
  9
$USERI3
 70
     0
  9
$USERI4
 70
     0
  9
$USERI5
 70
     0
  9
$USERR1
 40
0.0
  9
$USERR2
 40
0.0
  9
$USERR3
 40
0.0
  9
$USERR4
 40
0.0
  9
$USERR5
 40
0.0
  9
$WORLDVIEW
 70
     1
  9
$SHADEDGE
 70
     3
  9
$SHADEDIF
 70
    70
  9
$TILEMODE
 70
     1
  9
$MAXACTVP
 70
    64
  9
$PLIMCHECK
 70
     0
  9
$PEXTMIN
 10
1.0000000000000000E+020
 20
1.0000000000000000E+020
 30
1.0000000000000000E+020
  9
$PEXTMAX
 10
-1.0000000000000000E+020
 20
-1.0000000000000000E+020
 30
-1.0000000000000000E+020
  9
$PLIMMIN
 10
0.0
 20
0.0
  9
$PLIMMAX
 10
12.0
 20
9.0
  9
$UNITMODE
 70
     0
  9
$VISRETAIN
 70
     1
  9
$PLINEGEN
 70
     0
  9
$PSLTSCALE
 70
     1
  0
ENDSEC
  0
SECTION
  2
TABLES
  0
TABLE
  2
VPORT
 70
     2
  0
VPORT
  2
*ACTIVE
 70
     0
 10
0.0
 20
0.0
 11
1.0
 21
1.0
 12
-206.9706751172055
 22
107.5416188162762
 13
0.0
 23
0.0
 14
1.0
 24
1.0
 15
0.0
 25
0.0
 16
0.0
 26
0.0
 36
1.0
 17
0.0
 27
0.0
 37
0.0
 40
9.0000002299892365
 41
2.4144144144144142
 42
50.0
 43
0.0
 44
0.0
 50
0.0
 51
0.0
 71
     0
 72
   100
 73
     1
 74
     1
 75
     0
 76
     0
 77
     0
 78
     0
  0
ENDTAB
  0
TABLE
  2
LTYPE
 70
     9
  0
LTYPE
  2
CONTINUOUS
 70
     0
  3
Solid line
 72
    65
 73
     0
 40
0.0
  0
LTYPE
  2
BORDER
 70
     0
  3
__ __ . __ __ .
 72
    65
 73
     6
 40
23.217558606134979
 49
6.6335881731814217
 49
-3.3167940865907108
 49
6.6335881731814217
 49
-3.3167940865907108
 49
0.0
 49
-3.3167940865907108
  0
LTYPE
  2
CENTER
 70
     0
  3
____ _ ____ _
 72
    65
 73
     4
 40
26.53435269272569
 49
16.583970432953539
 49
-3.3167940865907108
 49
3.3167940865907108
 49
-3.3167940865907108
  0
LTYPE
  2
DASHDOT
 70
     0
  3
__ . __ . __ .
 72
    65
 73
     4
 40
13.267176346362829
 49
6.6335881731814217
 49
-3.3167940865907108
 49
0.0
 49
-3.3167940865907108
  0
LTYPE
  2
DASHED
 70
     0
  3
__ __ __ __ __
 72
    65
 73
     2
 40
9.9503822597721321
 49
6.6335881731814217
 49
-3.3167940865907108
  0
LTYPE
  2
DIVIDE
 70
     0
  3
__ . . __ . . 
 72
    65
 73
     6
 40
16.583970432953539
 49
6.6335881731814217
 49
-3.3167940865907108
 49
0.0
 49
-3.3167940865907108
 49
0.0
 49
-3.3167940865907108
  0
LTYPE
  2
DOT
 70
     0
  3
..............
 72
    65
 73
     4
 40
6.6335881731814217
 49
0.0
 49
-3.3167940865907108
 49
0.0
 49
-3.3167940865907108
  0
LTYPE
  2
HIDDEN
 70
     0
  3
_ _ _ _ _ _ _
 72
    65
 73
     2
 40
4.975191129886066
 49
3.3167940865907108
 49
-1.6583970432953541
  0
LTYPE
  2
PHANTOM
 70
     0
  3
_____ _ _ _____ _ _ 
 72
    65
 73
     6
 40
33.167940865907113
 49
16.583970432953539
 49
-3.3167940865907108
 49
3.3167940865907108
 49
-3.3167940865907108
 49
3.3167940865907108
 49
-3.3167940865907108
  0
ENDTAB
  0
TABLE
  2
LAYER
 70
     2
  0
LAYER
  2
0
 70
     0
 62
     7
  6
CONTINUOUS
  0
LAYER
  2
1
 70
     0
 62
     7
  6
CONTINUOUS
  0
ENDTAB
  0
TABLE
  2
STYLE
 70
     4
  0
STYLE
  2
STANDARD
 70
     0
 40
0.0
 41
1.0
 50
0.0
 71
     0
 42
3.5
  3
txt
  4

  0
STYLE
  2
SIMPLEX
 70
     0
 40
0.0
 41
1.0
 50
0.0
 71
     0
 42
3.5
  3
simplex
  4

  0
STYLE
  2
COMPLEX
 70
     0
 40
0.0
 41
1.0
 50
0.0
 71
     0
 42
3.5
  3
complex
  4

  0
STYLE
  2
ITALIC
 70
     0
 40
0.0
 41
1.0
 50
0.0
 71
     0
 42
3.5
  3
italic
  4

  0
ENDTAB
  0
TABLE
  2
VIEW
 70
     0
  0
ENDTAB
  0
TABLE
  2
UCS
 70
     0
  0
ENDTAB
  0
TABLE
  2
APPID
 70
     1
  0
APPID
  2
ACAD
 70
     0
  0
ENDTAB
  0
TABLE
  2
DIMSTYLE
 70
     1
  0
DIMSTYLE
  2
STANDARD
 70
     0
  3

  4

  5

  6

  7

 40
1.0
 41
0.18
 42
0.0625
 43
0.38
 44
0.18
 45
0.0
 46
0.0
 47
0.0
 48
0.0
140
0.18
141
0.09
142
0.0
143
25.399999999999999
144
1.0
145
0.0
146
1.0
147
0.09
 71
     0
 72
     0
 73
     1
 74
     1
 75
     0
 76
     0
 77
     0
 78
     0
170
     0
171
     2
172
     0
173
     0
174
     0
175
     0
176
     0
177
     0
178
     0
  0
ENDTAB
  0
ENDSEC
  0
SECTION
  2
BLOCKS
  0
BLOCK
  8
0
  2
$MODEL_SPACE
 70
     0
 10
0.0
 20
0.0
 30
0.0
  3
$MODEL_SPACE
  1

  0
ENDBLK
  5
20
  8
0
  0
BLOCK
 67
     1
  8
0
  2
$PAPER_SPACE
 70
     0
 10
0.0
 20
0.0
 30
0.0
  3
$PAPER_SPACE
  1

  0
ENDBLK
  5
1C
 67
     1
  8
0
  0
ENDSEC
  0
SECTION
  2
ENTITIES
  0
LINE
  5
33
  8
1
 62
     7
 10
20.0
 20
-33.999999999999893
 30
0.0
 11
5.149999999999995
 21
-33.999999999999893
 31
0.0
  0
LINE
  5
34
  8
1
 62
     7
 10
20.0
 20
-20.0
 30
0.0
 11
5.1499999999998991
 21
-20.0
 31
0.0
  0
LINE
  5
35
  8
1
 62
     7
 10
20.0
 20
-20.0
 30
0.0
 11
20.0
 21
-33.999999999999893
 31
0.0
  0
LINE
  5
36
  8
1
 62
     7
 10
2.5
 20
-30.637306695894551
 30
0.0
 11
2.5
 21
-35.499999999999893
 31
0.0
  0
LINE
  5
37
  8
1
 62
     7
 10
5.1500000000000048
 20
-35.499999999999893
 30
0.0
 11
5.1499999999998911
 21
-19.0
 31
0.0
  0
LINE
  5
38
  8
1
 62
     7
 10
3.25
 20
-19.0
 30
0.0
 11
3.25
 21
-22.234477033757461
 31
0.0
  0
LINE
  5
39
  8
1
 62
     7
 10
0.0
 20
45.700000000000038
 30
0.0
 11
0.0
 21
-45.699999999999932
 31
0.0
  0
LINE
  5
3A
  8
1
 62
     7
 10
21.0
 20
29.0
 30
0.0
 11
20.0
 21
29.0
 31
0.0
  0
LINE
  5
3B
  8
1
 62
     7
 10
20.0
 20
34.0
 30
0.0
 11
20.0
 21
20.0
 31
0.0
  0
LINE
  5
3C
  8
1
 62
     7
 10
20.0
 20
20.0
 30
0.0
 11
5.1499999999998911
 21
20.0
 31
0.0
  0
LINE
  5
3D
  8
1
 62
     7
 10
20.0
 20
34.0
 30
0.0
 11
5.149999999999995
 21
34.0
 31
0.0
  0
LINE
  5
3E
  8
1
 62
     7
 10
5.1500000000000048
 20
35.5
 30
0.0
 11
5.1499999999998911
 21
19.0
 31
0.0
  0
LINE
  5
3F
  8
1
 62
     7
 10
2.5
 20
30.637306695894601
 30
0.0
 11
2.5
 21
69.0
 31
0.0
  0
LINE
  5
40
  8
1
 62
     7
 10
3.25
 20
19.0
 30
0.0
 11
3.25
 21
22.234477033757731
 31
0.0
  0
LINE
  5
41
  8
1
  6
DASHDOT
 62
     3
 10
-227.9581610713449
 20
67.403018298279335
 30
0.0
 11
-227.9581610713449
 21
58.596981701720608
 31
0.0
  0
LINE
  5
42
  8
1
  6
DASHDOT
 62
     3
 10
-223.55514277306551
 20
63.0
 30
0.0
 11
-232.3611793696241
 21
63.0
 31
0.0
  0
LINE
  5
43
  8
1
 62
     7
 10
57.0
 20
25.0
 30
0.0
 11
57.0
 21
-37.999999999999893
 31
0.0
  0
LINE
  5
44
  8
1
  6
DASHDOT
 62
     3
 10
-127.7161319120045
 20
63.0
 30
0.0
 11
-121.23244266196561
 21
63.0
 31
0.0
  0
LINE
  5
45
  8
1
 62
     7
 10
-235.9581610713449
 20
50.456406460550902
 30
0.0
 11
-246.40233778681889
 21
68.546251174979716
 31
0.0
  0
LINE
  5
46
  8
1
 62
     7
 10
-235.9581610713449
 20
53.856406460550943
 30
0.0
 11
-244.9300946003853
 21
69.396251174979852
 31
0.0
  0
LINE
  5
47
  8
1
 62
     7
 10
-246.18583143587281
 20
68.67125117497983
 30
0.0
 11
-247.6954817659994
 21
71.286042248422518
 31
0.0
  0
LINE
  5
48
  8
1
 62
     7
 10
-245.92602381473731
 20
68.821251174979807
 30
0.0
 11
-247.43567414486421
 21
71.436042248422552
 31
0.0
  0
LINE
  5
49
  8
1
 62
     7
 10
-245.14660095133141
 20
69.271251174979739
 30
0.0
 11
-246.6562512814582
 21
71.886042248422442
 31
0.0
  0
LINE
  5
4A
  8
1
 62
     7
 10
-245.4064085724666
 20
69.121251174979705
 30
0.0
 11
-246.91605890259351
 21
71.73604224842245
 31
0.0
  0
LINE
  5
4B
  8
1
 62
     7
 10
-244.7135882494392
 20
69.521251174979852
 30
0.0
 11
-246.22323857956599
 21
72.136042248422442
 31
0.0
  0
LINE
  5
4C
  8
1
 62
     7
 10
-244.45378062830389
 20
69.671251174979716
 30
0.0
 11
-245.96343095843059
 21
72.286042248422405
 31
0.0
  0
LINE
  5
4D
  8
1
 62
     7
 10
-243.67435776489791
 20
70.121251174979719
 30
0.0
 11
-245.18400809502469
 21
72.73604224842245
 31
0.0
  0
LINE
  5
4E
  8
1
 62
     7
 10
-243.9341653860331
 20
69.971251174979841
 30
0.0
 11
-245.44381571616
 21
72.586042248422416
 31
0.0
  0
LINE
  5
4F
  8
1
 62
     7
 10
-245.66621619360211
 20
68.971251174979841
 30
0.0
 11
-247.17586652372881
 21
71.586042248422416
 31
0.0
  0
LINE
  5
50
  8
1
 62
     7
 10
-244.19397300716849
 20
69.821251174979807
 30
0.0
 11
-245.7036233372952
 21
72.436042248422424
 31
0.0
  0
LINE
  5
51
  8
1
 62
     7
 10
-246.40233778681889
 20
68.546251174979716
 30
0.0
 11
-243.4578514139518
 21
70.246251174979818
 31
0.0
  0
LINE
  5
52
  8
1
 62
     7
 10
-243.4578514139518
 20
70.246251174979818
 30
0.0
 11
-235.9581610713449
 21
57.256406460551027
 31
0.0
  0
LINE
  5
53
  8
1
 62
     7
 10
184.1945400904431
 20
57.256406460551148
 30
0.0
 11
184.1945400904431
 21
67.0
 31
0.0
  0
LINE
  5
54
  8
1
 62
     7
 10
195.9318607850978
 20
71.286042248422518
 30
0.0
 11
194.42221045497109
 21
68.67125117497983
 31
0.0
  0
LINE
  5
55
  8
1
 62
     7
 10
195.67205316396249
 20
71.436042248422552
 30
0.0
 11
194.16240283383561
 21
68.821251174979807
 31
0.0
  0
LINE
  5
56
  8
1
 62
     7
 10
194.89263030055639
 20
71.886042248422442
 30
0.0
 11
193.3829799704296
 21
69.271251174979739
 31
0.0
  0
LINE
  5
57
  8
1
 62
     7
 10
195.15243792169181
 20
71.73604224842245
 30
0.0
 11
193.642787591565
 21
69.121251174979705
 31
0.0
  0
LINE
  5
58
  8
1
 62
     7
 10
194.45961759866429
 20
72.136042248422442
 30
0.0
 11
192.94996726853751
 21
69.521251174979852
 31
0.0
  0
LINE
  5
59
  8
1
 62
     7
 10
194.1998099775289
 20
72.286042248422405
 30
0.0
 11
192.69015964740211
 21
69.671251174979716
 31
0.0
  0
LINE
  5
5A
  8
1
 62
     7
 10
193.420387114123
 20
72.73604224842245
 30
0.0
 11
191.91073678399621
 21
70.121251174979719
 31
0.0
  0
LINE
  5
5B
  8
1
 62
     7
 10
193.68019473525831
 20
72.586042248422416
 30
0.0
 11
192.17054440513161
 21
69.971251174979841
 31
0.0
  0
LINE
  5
5C
  8
1
 62
     7
 10
195.41224554282709
 20
71.586042248422416
 30
0.0
 11
193.90259521270039
 21
68.971251174979841
 31
0.0
  0
LINE
  5
5D
  8
1
 62
     7
 10
193.94000235639351
 20
72.436042248422424
 30
0.0
 11
192.4303520262668
 21
69.821251174979807
 31
0.0
  0
LINE
  5
5E
  8
1
 62
     7
 10
193.16647361948361
 20
69.396251174979852
 30
0.0
 11
181.7869104895336
 21
49.686269665968837
 31
0.0
  0
LINE
  5
5F
  8
1
 62
     7
 10
194.63871680591711
 20
68.546251174979716
 30
0.0
 11
183.61164646407559
 21
49.446805084274331
 31
0.0
  0
LINE
  5
60
  8
1
 62
     7
 10
191.69423043305
 20
70.246251174979818
 30
0.0
 11
194.63871680591711
 21
68.546251174979716
 31
0.0
  0
LINE
  5
61
  8
1
 62
     7
 10
179.9246105875942
 20
49.860671616879422
 30
0.0
 11
191.69423043305
 21
70.246251174979818
 31
0.0
  0
LINE
  5
62
  8
1
 62
     7
 10
5.0999999999999943
 20
65.501732911734621
 30
0.0
 11
5.0999999999999943
 21
62.588970545074787
 31
0.0
  0
LINE
  5
63
  8
1
 62
     7
 10
4.8000000000000123
 20
65.501732911734621
 30
0.0
 11
4.8000000000000123
 21
62.588970545074787
 31
0.0
  0
LINE
  5
64
  8
1
 62
     7
 10
3.9000000000000061
 20
65.501732911734621
 30
0.0
 11
3.9000000000000061
 21
62.588970545074787
 31
0.0
  0
LINE
  5
65
  8
1
 62
     7
 10
4.1999999999999877
 20
65.501732911734621
 30
0.0
 11
4.1999999999999877
 21
62.588970545074787
 31
0.0
  0
LINE
  5
66
  8
1
 62
     7
 10
4.5
 20
65.501732911734621
 30
0.0
 11
4.5
 21
62.588970545074787
 31
0.0
  0
LINE
  5
67
  8
1
 62
     7
 10
3.6500000000000061
 20
62.588970545074787
 30
0.0
 11
5.3499999999999943
 21
62.588970545074787
 31
0.0
  0
LINE
  5
68
  8
1
 62
     7
 10
5.3499999999999943
 20
62.588970545074787
 30
0.0
 11
5.3499999999999943
 21
45.700000000000038
 31
0.0
  0
LINE
  5
69
  8
1
 62
     7
 10
3.6500000000000061
 20
62.588970545074787
 30
0.0
 11
3.6500000000000061
 21
45.700000000000038
 31
0.0
  0
LINE
  5
6A
  8
1
 62
     7
 10
-120.6949465395785
 20
65.501732911734621
 30
0.0
 11
-120.6949465395785
 21
62.588970545074787
 31
0.0
  0
LINE
  5
6B
  8
1
 62
     7
 10
-120.99494653957839
 20
65.501732911734621
 30
0.0
 11
-120.99494653957839
 21
62.588970545074787
 31
0.0
  0
LINE
  5
6C
  8
1
 62
     7
 10
-121.8949465395783
 20
65.501732911734621
 30
0.0
 11
-121.8949465395783
 21
62.588970545074787
 31
0.0
  0
LINE
  5
6D
  8
1
 62
     7
 10
-121.5949465395784
 20
65.501732911734621
 30
0.0
 11
-121.5949465395784
 21
62.588970545074787
 31
0.0
  0
LINE
  5
6E
  8
1
 62
     7
 10
-121.29494653957831
 20
65.501732911734621
 30
0.0
 11
-121.29494653957831
 21
62.588970545074787
 31
0.0
  0
LINE
  5
6F
  8
1
  6
DASHDOT
 62
     3
 10
176.19454009044321
 20
3.7302564546614012
 30
0.0
 11
176.19454009044321
 21
-3.7302564546614012
 31
0.0
  0
LINE
  5
70
  8
1
  6
DASHDOT
 62
     3
 10
179.92479654510461
 20
0.0
 30
0.0
 11
172.46428363578181
 21
0.0
 31
0.0
  0
LINE
  5
71
  8
1
  6
DASHDOT
 62
     3
 10
176.19454009044321
 20
67.053674498762405
 30
0.0
 11
176.19454009044321
 21
58.946325501237652
 31
0.0
  0
LINE
  5
72
  8
1
  6
DASHDOT
 62
     3
 10
180.2482145892055
 20
63.0
 30
0.0
 11
172.14086559168081
 21
63.0
 31
0.0
  0
LINE
  5
73
  8
1
  6
DASHDOT
 62
     3
 10
-227.9581610713449
 20
3.16467658052045
 30
0.0
 11
-227.9581610713449
 21
-3.1646765805203931
 31
0.0
  0
LINE
  5
74
  8
1
  6
DASHDOT
 62
     3
 10
-224.79348449082451
 20
0.0
 30
0.0
 11
-231.12283765186521
 21
0.0
 31
0.0
  0
LINE
  5
75
  8
1
 62
     7
 10
56.5
 20
-45.999999999999893
 30
0.0
 11
56.5
 21
-49.999999999999893
 31
0.0
  0
LINE
  5
76
  8
1
 62
     3
 10
54.948006874970012
 20
-49.999999999999893
 30
0.0
 11
54.954684496405498
 21
-45.999999999999893
 31
0.0
  0
LINE
  5
77
  8
1
 62
     7
 10
3.25
 20
19.0
 30
0.0
 11
5.1499999999998911
 21
19.0
 31
0.0
  0
LINE
  5
78
  8
1
 62
     7
 10
57.0
 20
18.0
 30
0.0
 11
0.0
 21
18.0
 31
0.0
  0
LINE
  5
79
  8
1
 62
     3
 10
-4.3021582733813082
 20
0.0
 30
0.0
 11
0.0
 21
0.0
 31
0.0
  0
LINE
  5
7A
  8
1
 62
     7
 10
23.0
 20
46.5
 30
0.0
 11
23.0
 21
48.5
 31
0.0
  0
LINE
  5
7B
  8
1
 62
     7
 10
54.0
 20
38.0
 30
0.0
 11
54.0
 21
46.0
 31
0.0
  0
LINE
  5
7C
  8
1
 62
     7
 10
57.0
 20
38.0
 30
0.0
 11
54.0
 21
38.0
 31
0.0
  0
LINE
  5
7D
  8
1
 62
     7
 10
49.5
 20
46.5
 30
0.0
 11
23.0
 21
46.5
 31
0.0
  0
LINE
  5
7E
  8
1
 62
     7
 10
49.5
 20
24.0
 30
0.0
 11
49.5
 21
46.5
 31
0.0
  0
LINE
  5
7F
  8
1
 62
     7
 10
20.0
 20
24.0
 30
0.0
 11
49.5
 21
24.0
 31
0.0
  0
LINE
  5
80
  8
1
 62
     7
 10
0.0
 20
20.0
 30
0.0
 11
3.25
 21
20.0
 31
0.0
  0
LINE
  5
81
  8
1
 62
     7
 10
57.0
 20
15.0
 30
0.0
 11
0.0
 21
15.0
 31
0.0
  0
LINE
  5
82
  8
1
 62
     7
 10
47.949999999999989
 20
24.800000000000001
 30
0.0
 11
47.949999999999989
 21
45.700000000000038
 31
0.0
  0
LINE
  5
83
  8
1
 62
     7
 10
47.949999999999989
 20
45.700000000000038
 30
0.0
 11
2.5
 21
45.700000000000038
 31
0.0
  0
LINE
  5
84
  8
1
 62
     7
 10
57.099999999999987
 20
50.0
 30
0.0
 11
72.84999999999998
 21
50.0
 31
0.0
  0
LINE
  5
85
  8
1
 62
     7
 10
72.84999999999998
 20
43.050000000000011
 30
0.0
 11
72.84999999999998
 21
50.0
 31
0.0
  0
LINE
  5
86
  8
1
 62
     7
 10
69.0
 20
43.050000000000011
 30
0.0
 11
69.0
 21
46.5
 31
0.0
  0
LINE
  5
87
  8
1
 62
     7
 10
69.0
 20
46.5
 30
0.0
 11
65.699999999999989
 21
46.5
 31
0.0
  0
LINE
  5
88
  8
1
 62
     7
 10
65.699999999999989
 20
20.0
 30
0.0
 11
58.699999999999989
 21
20.0
 31
0.0
  0
LINE
  5
89
  8
1
 62
     7
 10
65.699999999999989
 20
25.0
 30
0.0
 11
76.5
 21
25.0
 31
0.0
  0
LINE
  5
8A
  8
1
 62
     7
 10
76.5
 20
42.0
 30
0.0
 11
73.5
 21
42.0
 31
0.0
  0
LINE
  5
8B
  8
1
 62
     7
 10
73.5
 20
42.0
 30
0.0
 11
73.5
 21
45.450000000000038
 31
0.0
  0
LINE
  5
8C
  8
1
 62
     7
 10
73.5
 20
45.450000000000038
 30
0.0
 11
65.699999999999989
 21
45.450000000000038
 31
0.0
  0
LINE
  5
8D
  8
1
 62
     7
 10
65.699999999999989
 20
43.050000000000011
 30
0.0
 11
73.5
 21
43.050000000000011
 31
0.0
  0
LINE
  5
8E
  8
1
 62
     7
 10
65.699999999999989
 20
-45.449999999999932
 30
0.0
 11
73.5
 21
-45.449999999999932
 31
0.0
  0
LINE
  5
8F
  8
1
 62
     7
 10
73.5
 20
-45.449999999999932
 30
0.0
 11
73.5
 21
-41.999999999999893
 31
0.0
  0
LINE
  5
90
  8
1
 62
     7
 10
73.5
 20
-41.999999999999893
 30
0.0
 11
76.5
 21
-41.999999999999893
 31
0.0
  0
LINE
  5
91
  8
1
 62
     7
 10
65.699999999999989
 20
-24.99999999999989
 30
0.0
 11
76.5
 21
-24.99999999999989
 31
0.0
  0
LINE
  5
92
  8
1
 62
     7
 10
65.699999999999989
 20
46.5
 30
0.0
 11
65.699999999999989
 21
-46.499999999999893
 31
0.0
  0
LINE
  5
93
  8
1
 62
     7
 10
65.699999999999989
 20
-46.499999999999893
 30
0.0
 11
69.0
 21
-46.499999999999893
 31
0.0
  0
LINE
  5
94
  8
1
 62
     7
 10
69.0
 20
-46.499999999999893
 30
0.0
 11
69.0
 21
-43.049999999999841
 31
0.0
  0
LINE
  5
95
  8
1
 62
     7
 10
65.699999999999989
 20
-43.049999999999841
 30
0.0
 11
73.5
 21
-43.049999999999841
 31
0.0
  0
LINE
  5
96
  8
1
 62
     7
 10
72.84999999999998
 20
-49.999999999999893
 30
0.0
 11
57.099999999999987
 21
-50.000000000000099
 31
0.0
  0
LINE
  5
97
  8
1
 62
     7
 10
5.1499999999998911
 20
-22.234477033757461
 30
0.0
 11
3.25
 21
-22.234477033757461
 31
0.0
  0
LINE
  5
98
  8
1
 62
     7
 10
2.5
 20
-30.637306695894551
 30
0.0
 11
10.474999999999991
 21
-30.637306695894551
 31
0.0
  0
LINE
  5
99
  8
1
 62
     7
 10
20.0
 20
-30.637306695894551
 30
0.0
 11
14.67500000000001
 21
-30.637306695894551
 31
0.0
  0
LINE
  5
9A
  8
1
 62
     7
 10
20.0
 20
-23.362693304105282
 30
0.0
 11
14.67500000000001
 21
-23.362693304105282
 31
0.0
  0
LINE
  5
9B
  8
1
 62
     7
 10
5.1500000000000048
 20
-23.362693304105282
 30
0.0
 11
10.474999999999991
 21
-23.362693304105282
 31
0.0
  0
LINE
  5
9C
  8
1
 62
     7
 10
2.5
 20
-33.999999999999893
 30
0.0
 11
0.0
 21
-33.999999999999893
 31
0.0
  0
LINE
  5
9D
  8
1
 62
     7
 10
47.949999999999989
 20
-45.699999999999932
 30
0.0
 11
47.949999999999989
 21
-24.799999999999901
 31
0.0
  0
LINE
  5
9E
  8
1
 62
     7
 10
47.949999999999989
 20
-24.799999999999901
 30
0.0
 11
21.0
 21
-24.799999999999901
 31
0.0
  0
LINE
  5
9F
  8
1
 62
     7
 10
21.0
 20
-24.799999999999901
 30
0.0
 11
21.0
 21
-28.99999999999989
 31
0.0
  0
LINE
  5
A0
  8
1
 62
     7
 10
21.0
 20
-28.99999999999989
 30
0.0
 11
20.0
 21
-28.99999999999989
 31
0.0
  0
LINE
  5
A1
  8
1
 62
     7
 10
5.1500000000000048
 20
-35.499999999999893
 30
0.0
 11
2.5
 21
-35.499999999999893
 31
0.0
  0
LINE
  5
A2
  8
1
 62
     7
 10
56.800000000000011
 20
-15.0
 30
0.0
 11
0.0
 21
-15.0
 31
0.0
  0
LINE
  5
A3
  8
1
 62
     7
 10
3.25
 20
-20.0
 30
0.0
 11
0.0
 21
-20.0
 31
0.0
  0
LINE
  5
A4
  8
1
 62
     7
 10
49.5
 20
-24.0
 30
0.0
 11
20.0
 21
-24.0
 31
0.0
  0
LINE
  5
A5
  8
1
 62
     7
 10
49.5
 20
-46.499999999999893
 30
0.0
 11
49.5
 21
-24.0
 31
0.0
  0
LINE
  5
A6
  8
1
 62
     7
 10
23.0
 20
-46.499999999999893
 30
0.0
 11
49.5
 21
-46.499999999999893
 31
0.0
  0
LINE
  5
A7
  8
1
 62
     7
 10
53.800000000000011
 20
-37.999999999999893
 30
0.0
 11
57.0
 21
-37.999999999999893
 31
0.0
  0
LINE
  5
A8
  8
1
 62
     7
 10
53.800000000000011
 20
-45.999999999999893
 30
0.0
 11
53.800000000000011
 21
-37.999999999999893
 31
0.0
  0
LINE
  5
A9
  8
1
 62
     7
 10
23.0
 20
-46.499999999999893
 30
0.0
 11
23.0
 21
-48.499999999999893
 31
0.0
  0
LINE
  5
AA
  8
1
 62
     7
 10
56.5
 20
-49.999999999999893
 30
0.0
 11
24.5
 21
-49.999999999999893
 31
0.0
  0
LINE
  5
AB
  8
1
 62
     7
 10
5.1499999999998911
 20
-19.0
 30
0.0
 11
3.25
 21
-19.0
 31
0.0
  0
LINE
  5
AC
  8
1
 62
     7
 10
2.5
 20
69.0
 30
0.0
 11
0.5
 21
69.0
 31
0.0
  0
LINE
  5
AD
  8
1
 62
     7
 10
0.5
 20
69.0
 30
0.0
 11
0.5
 21
34.0
 31
0.0
  0
LINE
  5
AE
  8
1
 62
     7
 10
0.5
 20
65.75
 30
0.0
 11
2.5
 21
65.75
 31
0.0
  0
LINE
  5
AF
  8
1
 62
     7
 10
0.5
 20
60.25
 30
0.0
 11
2.5
 21
60.25
 31
0.0
  0
LINE
  5
B0
  8
1
  6
DASHDOT
 62
     3
 10
-1.4211853724260941
 20
63.0
 30
0.0
 11
5.0625038776126976
 21
63.0
 31
0.0
  0
LINE
  5
B1
  8
1
 62
     7
 10
53.800000000000011
 20
-37.999999999999893
 30
0.0
 11
57.0
 21
-37.999999999999893
 31
0.0
  0
LINE
  5
B2
  8
1
 62
     7
 10
53.800000000000011
 20
-45.999999999999893
 30
0.0
 11
53.800000000000011
 21
-37.999999999999893
 31
0.0
  0
LINE
  5
B3
  8
1
 62
     7
 10
172.6945400904431
 20
18.0
 30
0.0
 11
179.6945400904431
 21
18.0
 31
0.0
  0
LINE
  5
B4
  8
1
 62
     7
 10
179.6945400904431
 20
18.0
 30
0.0
 11
179.6945400904431
 21
14.58595214581482
 31
0.0
  0
LINE
  5
B5
  8
1
 62
     7
 10
172.6945400904431
 20
18.0
 30
0.0
 11
172.6945400904431
 21
14.58595214581482
 31
0.0
  0
LINE
  5
B6
  8
1
 62
     7
 10
170.1945400904431
 20
69.0
 30
0.0
 11
182.1945400904431
 21
69.0
 31
0.0
  0
LINE
  5
B7
  8
1
 62
     7
 10
168.1945400904431
 20
49.355850717012338
 30
0.0
 11
168.1945400904431
 21
67.0
 31
0.0
  0
LINE
  5
B8
  8
1
 62
     7
 10
184.1945400904431
 20
50.456406460550902
 30
0.0
 11
184.1945400904431
 21
49.355492535017042
 31
0.0
  0
LINE
  5
B9
  8
1
 62
     7
 10
76.5
 20
-25.999999999999879
 30
0.0
 11
76.5
 21
25.981895077975931
 31
0.0
  0
LINE
  5
BA
  8
1
 62
     7
 10
76.5
 20
42.0
 30
0.0
 11
76.5
 21
-41.999999999999893
 31
0.0
  0
LINE
  5
BB
  8
1
 62
     7
 10
57.0
 20
38.0
 30
0.0
 11
57.0
 21
33.0
 31
0.0
  0
LINE
  5
BC
  8
1
 62
     7
 10
23.0
 20
48.5
 30
0.0
 11
24.5
 21
50.0
 31
0.0
  0
LINE
  5
BD
  8
1
 62
     7
 10
24.5
 20
-49.999999999999893
 30
0.0
 11
23.0
 21
-48.499999999999893
 31
0.0
  0
LINE
  5
BE
  8
1
 62
     7
 10
72.84999999999998
 20
-49.999999999999893
 30
0.0
 11
72.84999999999998
 21
-43.049999999999841
 31
0.0
  0
LINE
  5
BF
  8
1
 62
     7
 10
54.0
 20
46.0
 30
0.0
 11
56.5
 21
46.0
 31
0.0
  0
LINE
  5
C0
  8
1
 62
     7
 10
56.5
 20
-45.999999999999893
 30
0.0
 11
53.800000000000011
 21
-45.999999999999893
 31
0.0
  0
LINE
  5
C1
  8
1
 62
     7
 10
24.5
 20
50.0
 30
0.0
 11
56.5
 21
50.0
 31
0.0
  0
LINE
  5
C2
  8
1
 62
     7
 10
57.099999999999987
 20
50.0
 30
0.0
 11
57.099999999999987
 21
46.0
 31
0.0
  0
LINE
  5
C3
  8
1
 62
     7
 10
56.5
 20
50.0
 30
0.0
 11
56.5
 21
46.0
 31
0.0
  0
LINE
  5
C4
  8
1
 62
     3
 10
55.154684496405487
 20
46.0
 30
0.0
 11
55.148006874969987
 21
50.0
 31
0.0
  0
LINE
  5
C5
  8
1
 62
     3
 10
58.599999999999987
 20
50.0
 30
0.0
 11
58.599999999999987
 21
46.0
 31
0.0
  0
LINE
  5
C6
  8
1
 62
     7
 10
58.699999999999989
 20
32.5
 30
0.0
 11
58.699999999999989
 21
46.0
 31
0.0
  0
LINE
  5
C7
  8
1
 62
     7
 10
21.0
 20
29.0
 30
0.0
 11
21.0
 21
24.800000000000001
 31
0.0
  0
LINE
  5
C8
  8
1
 62
     7
 10
21.0
 20
24.800000000000001
 30
0.0
 11
47.949999999999989
 21
24.800000000000001
 31
0.0
  0
LINE
  5
C9
  8
1
 62
     3
 10
76.5
 20
0.0
 30
0.0
 11
81.135068408990293
 21
0.0
 31
0.0
  0
LINE
  5
CA
  8
1
 62
     7
 10
0.0
 20
-45.699999999999932
 30
0.0
 11
47.949999999999989
 21
-45.699999999999932
 31
0.0
  0
LINE
  5
CB
  8
1
 62
     7
 10
6.6500000000000048
 20
-22.459712632819901
 30
0.0
 11
6.6500000000000048
 21
-31.513584848559791
 31
0.0
  0
LINE
  5
CC
  8
1
 62
     7
 10
18.5
 20
-31.596647896410548
 30
0.0
 11
18.5
 21
-22.432024950202958
 31
0.0
  0
LINE
  5
CD
  8
1
 62
     7
 10
3.25
 20
22.234477033757731
 30
0.0
 11
5.1499999999998911
 21
22.234477033757731
 31
0.0
  0
LINE
  5
CE
  8
1
 62
     7
 10
2.5
 20
30.637306695894601
 30
0.0
 11
10.474999999999991
 21
30.637306695894601
 31
0.0
  0
LINE
  5
CF
  8
1
 62
     7
 10
10.474999999999991
 20
23.362693304105441
 30
0.0
 11
5.1500000000000048
 21
23.362693304105441
 31
0.0
  0
LINE
  5
D0
  8
1
 62
     7
 10
2.5
 20
35.5
 30
0.0
 11
5.1500000000000048
 21
35.5
 31
0.0
  0
LINE
  5
D1
  8
1
 62
     7
 10
3.25
 20
19.0
 30
0.0
 11
5.1499999999998911
 21
19.0
 31
0.0
  0
LINE
  5
D2
  8
1
 62
     7
 10
6.6500000000000048
 20
31.513584848559901
 30
0.0
 11
6.6500000000000048
 21
22.459712632820011
 31
0.0
  0
LINE
  5
D3
  8
1
 62
     7
 10
18.5
 20
22.432024950203122
 30
0.0
 11
18.5
 21
31.59664789641073
 31
0.0
  0
LINE
  5
D4
  8
1
 62
     7
 10
14.67500000000001
 20
30.637306695894711
 30
0.0
 11
20.0
 21
30.637306695894601
 31
0.0
  0
LINE
  5
D5
  8
1
 62
     7
 10
14.67500000000001
 20
23.362693304105441
 30
0.0
 11
20.0
 21
23.362693304105441
 31
0.0
  0
LINE
  5
D6
  8
1
 62
     7
 10
0.0
 20
34.0
 30
0.0
 11
2.5
 21
34.0
 31
0.0
  0
LINE
  5
D7
  8
1
 62
     3
 10
-130.09710481295971
 20
0.0
 30
0.0
 11
-125.7949465395784
 21
0.0
 31
0.0
  0
LINE
  5
D8
  8
1
 62
     7
 10
-49.29494653957839
 20
42.0
 30
0.0
 11
-52.29494653957839
 21
42.0
 31
0.0
  0
LINE
  5
D9
  8
1
 62
     7
 10
-52.29494653957839
 20
45.450000000000038
 30
0.0
 11
-52.29494653957839
 21
-45.449999999999932
 31
0.0
  0
LINE
  5
DA
  8
1
 62
     7
 10
-52.29494653957839
 20
45.450000000000038
 30
0.0
 11
-52.94494653957841
 21
45.450000000000038
 31
0.0
  0
LINE
  5
DB
  8
1
 62
     7
 10
-52.29494653957839
 20
-41.999999999999893
 30
0.0
 11
-49.29494653957839
 21
-41.999999999999893
 31
0.0
  0
LINE
  5
DC
  8
1
 62
     7
 10
-68.494946539578507
 20
-49.999999999999893
 30
0.0
 11
-53.04494653957839
 21
-49.999999999999893
 31
0.0
  0
LINE
  5
DD
  8
1
 62
     7
 10
-102.7949465395785
 20
48.5
 30
0.0
 11
-102.7949465395785
 21
-48.499999999999893
 31
0.0
  0
LINE
  5
DE
  8
1
 62
     7
 10
-69.094946539578501
 20
-49.999999999999893
 30
0.0
 11
-101.2949465395784
 21
-49.999999999999893
 31
0.0
  0
LINE
  5
DF
  8
1
 62
     7
 10
-123.29494653957831
 20
69.0
 30
0.0
 11
-123.29494653957831
 21
45.700000000000038
 31
0.0
  0
LINE
  5
E0
  8
1
 62
     7
 10
-123.29494653957831
 20
69.0
 30
0.0
 11
-125.2949465395784
 21
69.0
 31
0.0
  0
LINE
  5
E1
  8
1
 62
     7
 10
-125.2949465395784
 20
69.0
 30
0.0
 11
-125.2949465395784
 21
45.700000000000038
 31
0.0
  0
LINE
  5
E2
  8
1
 62
     7
 10
-122.1449465395783
 20
62.588970545074787
 30
0.0
 11
-120.4449465395784
 21
62.588970545074787
 31
0.0
  0
LINE
  5
E3
  8
1
 62
     7
 10
-120.4449465395784
 20
62.588970545074787
 30
0.0
 11
-120.4449465395784
 21
45.700000000000038
 31
0.0
  0
LINE
  5
E4
  8
1
 62
     7
 10
-49.29494653957839
 20
25.0
 30
0.0
 11
-49.29494653957839
 21
-25.999999999999879
 31
0.0
  0
LINE
  5
E5
  8
1
 62
     7
 10
-125.7949465395784
 20
16.0
 30
0.0
 11
-125.7949465395784
 21
15.0
 31
0.0
  0
LINE
  5
E6
  8
1
 62
     7
 10
-125.7949465395784
 20
19.0
 30
0.0
 11
-125.7949465395784
 21
18.0
 31
0.0
  0
LINE
  5
E7
  8
1
 62
     7
 10
-125.7949465395784
 20
45.700000000000038
 30
0.0
 11
-125.7949465395784
 21
-16.007480967966039
 31
0.0
  0
LINE
  5
E8
  8
1
 62
     7
 10
-102.7949465395785
 20
48.5
 30
0.0
 11
-101.2949465395784
 21
50.0
 31
0.0
  0
LINE
  5
E9
  8
1
 62
     7
 10
-101.2949465395784
 20
-49.999999999999893
 30
0.0
 11
-102.7949465395785
 21
-48.499999999999893
 31
0.0
  0
LINE
  5
EA
  8
1
 62
     7
 10
-101.2949465395784
 20
50.0
 30
0.0
 11
-69.094946539578501
 21
50.0
 31
0.0
  0
LINE
  5
EB
  8
1
 62
     7
 10
-122.1449465395783
 20
62.588970545074787
 30
0.0
 11
-122.1449465395783
 21
45.700000000000038
 31
0.0
  0
LINE
  5
EC
  8
1
 62
     7
 10
-68.494946539578507
 20
50.0
 30
0.0
 11
-68.494946539578507
 21
-49.999999999999893
 31
0.0
  0
LINE
  5
ED
  8
1
 62
     7
 10
-69.094946539578501
 20
50.0
 30
0.0
 11
-69.094946539578501
 21
-49.999999999999893
 31
0.0
  0
LINE
  5
EE
  8
1
 62
     3
 10
-70.640262043172896
 20
-49.999999999999893
 30
0.0
 11
-70.646939664608396
 21
50.0
 31
0.0
  0
LINE
  5
EF
  8
1
 62
     3
 10
-66.942953414548512
 20
50.0
 30
0.0
 11
-66.942953414548512
 21
-49.999999999999773
 31
0.0
  0
LINE
  5
F0
  8
1
 62
     3
 10
-49.29494653957839
 20
0.0
 30
0.0
 11
-44.659878130588098
 21
0.0
 31
0.0
  0
LINE
  5
F1
  8
1
 62
     7
 10
-125.7949465395784
 20
-15.0
 30
0.0
 11
-125.7949465395784
 21
-45.699999999999932
 31
0.0
  0
LINE
  5
F2
  8
1
 62
     7
 10
-125.7949465395784
 20
-45.699999999999932
 30
0.0
 11
-102.7949465395785
 21
-45.699999999999932
 31
0.0
  0
LINE
  5
F3
  8
1
 62
     7
 10
-52.29494653957839
 20
-45.449999999999932
 30
0.0
 11
-52.94494653957841
 21
-45.449999999999932
 31
0.0
  0
LINE
  5
F4
  8
1
 62
     7
 10
-101.2949465395784
 20
50.0
 30
0.0
 11
-101.2949465395784
 21
-49.999999999999893
 31
0.0
  0
LINE
  5
F5
  8
1
 62
     7
 10
-49.29494653957839
 20
42.0
 30
0.0
 11
-49.29494653957839
 21
-41.999999999999893
 31
0.0
  0
LINE
  5
F6
  8
1
 62
     7
 10
-125.7949465395784
 20
45.700000000000038
 30
0.0
 11
-102.7949465395785
 21
45.700000000000038
 31
0.0
  0
LINE
  5
F7
  8
1
 62
     7
 10
-231.4581610713449
 20
18.0
 30
0.0
 11
-224.4581610713449
 21
18.0
 31
0.0
  0
LINE
  5
F8
  8
1
 62
     7
 10
-224.4581610713449
 20
18.0
 30
0.0
 11
-224.4581610713449
 21
14.58595214581482
 31
0.0
  0
LINE
  5
F9
  8
1
 62
     7
 10
-231.4581610713449
 20
18.0
 30
0.0
 11
-231.4581610713449
 21
14.58595214581482
 31
0.0
  0
LINE
  5
FA
  8
1
 62
     7
 10
-233.9581610713449
 20
69.0
 30
0.0
 11
-221.95816107134479
 21
69.0
 31
0.0
  0
LINE
  5
FB
  8
1
 62
     7
 10
-235.9581610713449
 20
67.0
 30
0.0
 11
-235.9581610713449
 21
50.154700538379302
 31
0.0
  0
LINE
  5
FC
  8
1
 62
     7
 10
-219.95816107134479
 20
67.0
 30
0.0
 11
-219.95816107134479
 21
50.154700538379302
 31
0.0
  0
LINE
  5
FD
  8
1
 62
     7
 10
-242.95816107134479
 20
42.903408955466553
 30
0.0
 11
-242.95816107134479
 21
30.512292604784701
 31
0.0
  0
LINE
  5
FE
  8
1
 62
     7
 10
-212.9581610713449
 20
42.903408955466553
 30
0.0
 11
-212.9581610713449
 21
30.512292604784701
 31
0.0
  0
LINE
  5
FF
  8
1
 62
     7
 10
-239.9581610713449
 20
35.0
 30
0.0
 11
-215.95816107134479
 21
35.0
 31
0.0
  0
LINE
  5
100
  8
1
 62
     7
 10
-241.9581610713449
 20
37.0
 30
0.0
 11
-241.9581610713449
 21
44.381197846483019
 31
0.0
  0
LINE
  5
101
  8
1
 62
     7
 10
-240.95816107134479
 20
46.113248654051922
 30
0.0
 11
-236.9581610713449
 21
48.422649730810399
 31
0.0
  0
LINE
  5
102
  8
1
 62
     7
 10
-213.95816107134479
 20
37.0
 30
0.0
 11
-213.95816107134479
 21
44.381197846483019
 31
0.0
  0
LINE
  5
103
  8
1
 62
     7
 10
-214.9581610713449
 20
46.113248654051922
 30
0.0
 11
-218.9581610713449
 21
48.422649730810399
 31
0.0
  0
LINE
  5
104
  8
1
 62
     7
 10
-235.62816107134481
 20
42.200000000000053
 30
0.0
 11
-236.28816107134489
 21
42.200000000000053
 31
0.0
  0
LINE
  5
105
  8
1
 62
     7
 10
-238.15816107134489
 20
40.330000000000027
 30
0.0
 11
-238.15816107134489
 21
39.670000000000023
 31
0.0
  0
LINE
  5
106
  8
1
 62
     7
 10
-236.28816107134489
 20
37.800000000000011
 30
0.0
 11
-235.62816107134481
 21
37.800000000000011
 31
0.0
  0
LINE
  5
107
  8
1
 62
     7
 10
-233.75816107134489
 20
39.670000000000023
 30
0.0
 11
-233.75816107134489
 21
40.330000000000027
 31
0.0
  0
LINE
  5
108
  8
1
 62
     7
 10
-219.62816107134489
 20
42.200000000000053
 30
0.0
 11
-220.28816107134489
 21
42.200000000000053
 31
0.0
  0
LINE
  5
109
  8
1
 62
     7
 10
-222.15816107134489
 20
40.330000000000027
 30
0.0
 11
-222.15816107134489
 21
39.670000000000023
 31
0.0
  0
LINE
  5
10A
  8
1
 62
     7
 10
-220.28816107134489
 20
37.800000000000011
 30
0.0
 11
-219.62816107134489
 21
37.800000000000011
 31
0.0
  0
LINE
  5
10B
  8
1
 62
     7
 10
-217.75816107134489
 20
39.670000000000023
 30
0.0
 11
-217.75816107134489
 21
40.330000000000027
 31
0.0
  0
LINE
  5
10C
  8
1
  6
DASHDOT
 62
     3
 10
176.19454009044321
 20
40.0
 30
0.0
 11
176.19454009044321
 21
28.0
 31
0.0
  0
LINE
  5
10D
  8
1
  6
DASHDOT
 62
     3
 10
148.1945400904431
 20
0.0
 30
0.0
 11
136.19454009044321
 21
0.0
 31
0.0
  0
LINE
  5
10E
  8
1
  6
DASHDOT
 62
     3
 10
176.19454009044321
 20
-28.0
 30
0.0
 11
176.19454009044321
 21
-39.999999999999893
 31
0.0
  0
LINE
  5
10F
  8
1
  6
DASHDOT
 62
     3
 10
216.19454009044321
 20
0.0
 30
0.0
 11
204.1945400904431
 21
0.0
 31
0.0
  0
LINE
  5
110
  8
1
 62
     7
 10
58.699999999999989
 20
-20.0
 30
0.0
 11
65.699999999999989
 21
-20.0
 31
0.0
  0
LINE
  5
111
  8
1
  6
DASHDOT
 62
     3
 10
64.5
 20
34.0
 30
0.0
 11
77.110666248667798
 21
34.0
 31
0.0
  0
LINE
  5
112
  8
1
 62
     3
 10
76.5
 20
31.0
 30
0.0
 11
65.699999999999989
 21
31.0
 31
0.0
  0
LINE
  5
113
  8
1
 62
     3
 10
65.699999999999989
 20
37.0
 30
0.0
 11
76.5
 21
37.0
 31
0.0
  0
LINE
  5
114
  8
1
 62
     7
 10
76.5
 20
31.60000000000014
 30
0.0
 11
65.699999999999989
 21
31.60000000000014
 31
0.0
  0
LINE
  5
115
  8
1
 62
     7
 10
65.699999999999989
 20
36.400000000000027
 30
0.0
 11
76.5
 21
36.400000000000027
 31
0.0
  0
LINE
  5
116
  8
1
 62
     7
 10
57.199999999999982
 20
32.5
 30
0.0
 11
64.800000000000011
 21
32.5
 31
0.0
  0
LINE
  5
117
  8
1
 62
     7
 10
64.800000000000011
 20
32.5
 30
0.0
 11
64.800000000000011
 21
25.5
 31
0.0
  0
LINE
  5
118
  8
1
 62
     7
 10
58.699999999999989
 20
25.5
 30
0.0
 11
58.699999999999989
 21
-45.999999999999893
 31
0.0
  0
LINE
  5
119
  8
1
 62
     7
 10
57.0
 20
33.0
 30
0.0
 11
55.199999999999989
 21
33.0
 31
0.0
  0
LINE
  5
11A
  8
1
 62
     7
 10
55.199999999999989
 20
33.0
 30
0.0
 11
55.199999999999989
 21
25.0
 31
0.0
  0
LINE
  5
11B
  8
1
 62
     7
 10
55.199999999999989
 20
25.0
 30
0.0
 11
57.0
 21
25.0
 31
0.0
  0
LINE
  5
11C
  8
1
 62
     7
 10
57.199999999999982
 20
32.5
 30
0.0
 11
57.199999999999982
 21
25.5
 31
0.0
  0
LINE
  5
11D
  8
1
 62
     7
 10
57.099999999999987
 20
-46.000000000000107
 30
0.0
 11
58.699999999999989
 21
-45.999999999999893
 31
0.0
  0
LINE
  5
11E
  8
1
 62
     7
 10
57.099999999999987
 20
-46.000000000000107
 30
0.0
 11
57.099999999999987
 21
-50.000000000000099
 31
0.0
  0
LINE
  5
11F
  8
1
 62
     3
 10
58.699999999999989
 20
-45.999999999999893
 30
0.0
 11
58.699999999999989
 21
-50.000000000000099
 31
0.0
  0
LINE
  5
120
  8
1
 62
     7
 10
58.699999999999989
 20
46.0
 30
0.0
 11
57.099999999999987
 21
46.0
 31
0.0
  0
LINE
  5
121
  8
1
 62
     7
 10
64.800000000000011
 20
25.5
 30
0.0
 11
57.199999999999982
 21
25.5
 31
0.0
  0
LINE
  5
122
  8
1
  6
DASHDOT
 62
     3
 10
61.0
 20
33.060620020893623
 30
0.0
 11
61.0
 21
24.892366704640612
 31
0.0
  0
LINE
  5
123
  8
1
 62
     7
 10
0.0
 20
45.700000000000038
 30
0.0
 11
0.5
 21
45.700000000000038
 31
0.0
  0
LINE
  5
124
  8
1
 62
     7
 10
-125.7949465395784
 20
45.700000000000038
 30
0.0
 11
-125.7949465395784
 21
35.0
 31
0.0
  0
LINE
  5
125
  8
1
 62
     7
 10
-52.94494653957841
 20
50.0
 30
0.0
 11
-52.94494653957841
 21
-49.999999999999893
 31
0.0
  0
LINE
  5
126
  8
1
 62
     7
 10
-53.04494653957839
 20
50.0
 30
0.0
 11
-68.494946539578507
 21
50.0
 31
0.0
  0
ARC
  5
127
  8
1
 62
     7
 10
170.1945400904431
 20
67.0
 30
0.0
 40
2.0
 50
90.0
 51
180.0
  0
ARC
  5
128
  8
1
 62
     7
 10
182.1945400904431
 20
67.0
 30
0.0
 40
2.0
 50
0.0
 51
90.0
  0
ARC
  5
129
  8
1
 62
     7
 10
-233.9581610713449
 20
67.0
 30
0.0
 40
2.0
 50
90.0
 51
180.0
  0
ARC
  5
12A
  8
1
 62
     7
 10
-221.95816107134479
 20
67.0
 30
0.0
 40
2.0
 50
0.0
 51
90.0
  0
ARC
  5
12B
  8
1
 62
     7
 10
-239.9581610713449
 20
44.381197846483019
 30
0.0
 40
2.0000000000000231
 50
119.9999999999996
 51
180.0
  0
ARC
  5
12C
  8
1
 62
     7
 10
-215.95816107134479
 20
44.381197846483019
 30
0.0
 40
2.0
 50
0.0
 51
60.000000000000391
  0
ARC
  5
12D
  8
1
 62
     7
 10
-239.9581610713449
 20
37.0
 30
0.0
 40
2.0
 50
180.0
 51
270.0
  0
ARC
  5
12E
  8
1
 62
     7
 10
-215.95816107134479
 20
37.0
 30
0.0
 40
2.0
 50
270.0
 51
0.0
  0
ARC
  5
12F
  8
1
 62
     7
 10
-237.9581610713449
 20
50.154700538379302
 30
0.0
 40
2.0000000000000102
 50
299.99999999999977
 51
0.0
  0
ARC
  5
130
  8
1
 62
     7
 10
-217.95816107134479
 20
50.154700538379302
 30
0.0
 40
2.0
 50
180.0
 51
240.0000000000002
  0
ARC
  5
131
  8
1
 62
     7
 10
176.19454009044321
 20
0.0
 30
0.0
 40
15.0
 50
0.0
 51
76.506601178448321
  0
ARC
  5
132
  8
1
 62
     7
 10
176.19454009044321
 20
0.0
 30
0.0
 40
15.0
 50
270.0
 51
0.0
  0
ARC
  5
133
  8
1
 62
     7
 10
176.19454009044321
 20
0.0
 30
0.0
 40
15.0
 50
103.49339882155169
 51
270.0
  0
ARC
  5
134
  8
1
 62
     7
 10
-227.9581610713449
 20
0.0
 30
0.0
 40
15.0
 50
0.0
 51
76.506601178448321
  0
ARC
  5
135
  8
1
 62
     7
 10
-227.9581610713449
 20
0.0
 30
0.0
 40
15.0
 50
270.0
 51
0.0
  0
ARC
  5
136
  8
1
 62
     7
 10
-227.9581610713449
 20
0.0
 30
0.0
 40
15.0
 50
103.49339882155169
 51
270.0
  0
ARC
  5
137
  8
1
 62
     7
 10
-227.9581610713449
 20
0.0
 30
0.0
 40
45.449999999999967
 50
107.9405975433875
 51
0.0
  0
ARC
  5
138
  8
1
 62
     7
 10
-227.9581610713449
 20
0.0
 30
0.0
 40
45.45000000000001
 50
0.0
 51
72.05940245661256
  0
ARC
  5
139
  8
1
 62
     7
 10
-227.9581610713449
 20
0.0
 30
0.0
 40
50.000000000000071
 50
99.415426877574205
 51
0.0
  0
ARC
  5
13A
  8
1
 62
     7
 10
-227.9581610713449
 20
0.0
 30
0.0
 40
50.0
 50
0.0
 51
80.584573122425795
  0
ARC
  5
13B
  8
1
 62
     7
 10
-233.75816107134489
 20
42.200000000000053
 30
0.0
 40
1.869999999999918
 50
180.0
 51
270.0
  0
ARC
  5
13C
  8
1
 62
     7
 10
-238.15816107134489
 20
42.200000000000053
 30
0.0
 40
1.870000000000011
 50
270.0
 51
0.0
  0
ARC
  5
13D
  8
1
 62
     7
 10
-238.15816107134489
 20
37.800000000000011
 30
0.0
 40
1.8700000000000041
 50
0.0
 51
90.0
  0
ARC
  5
13E
  8
1
 62
     7
 10
-233.75816107134489
 20
37.800000000000011
 30
0.0
 40
1.870000000000011
 50
90.0
 51
180.0
  0
ARC
  5
13F
  8
1
 62
     7
 10
-217.75816107134489
 20
42.200000000000053
 30
0.0
 40
1.8700000000000041
 50
180.0
 51
270.0
  0
ARC
  5
140
  8
1
 62
     7
 10
-222.15816107134489
 20
42.200000000000053
 30
0.0
 40
1.870000000000011
 50
270.0
 51
0.0
  0
ARC
  5
141
  8
1
 62
     7
 10
-222.15816107134489
 20
37.800000000000011
 30
0.0
 40
1.8700000000000041
 50
0.0
 51
90.0
  0
ARC
  5
142
  8
1
 62
     7
 10
-217.75816107134489
 20
37.800000000000011
 30
0.0
 40
1.870000000000011
 50
90.0
 51
180.0
  0
ARC
  5
143
  8
1
  6
DASHDOT
 62
     3
 10
176.19454009044321
 20
0.0
 30
0.0
 40
34.00000000000005
 50
172.9680802814579
 51
180.0
  0
ARC
  5
144
  8
1
 62
     3
 10
176.19454009044321
 20
0.0
 30
0.0
 40
34.0
 50
180.0
 51
186.98987794998479
  0
ARC
  5
145
  8
1
  6
DASHDOT
 62
     3
 10
176.19454009044321
 20
0.0
 30
0.0
 40
33.99999999999995
 50
79.603598315059855
 51
98.284979392718725
  0
ARC
  5
146
  8
1
  6
DASHDOT
 62
     3
 10
176.19454009044321
 20
0.0
 30
0.0
 40
33.999999999999979
 50
350.64013172481651
 51
8.8970330878004464
  0
ARC
  5
147
  8
1
  6
DASHDOT
 62
     3
 10
176.19454009044321
 20
0.0
 30
0.0
 40
34.00000000000005
 50
260.494198262569
 51
279.69489044648839
  0
CIRCLE
  5
148
  8
1
 62
     7
 10
176.19454009044321
 20
0.0
 30
0.0
 40
20.0
  0
CIRCLE
  5
149
  8
1
 62
     7
 10
12.57499999999999
 20
-26.99999999999989
 30
0.0
 40
4.2000000000000179
  0
CIRCLE
  5
14A
  8
1
 62
     7
 10
176.19454009044321
 20
0.0
 30
0.0
 40
50.0
  0
CIRCLE
  5
14B
  8
1
 62
     7
 10
176.19454009044321
 20
0.0
 30
0.0
 40
45.449999999999989
  0
CIRCLE
  5
14C
  8
1
 62
     7
 10
176.19454009044321
 20
0.0
 30
0.0
 40
42.0
  0
CIRCLE
  5
14D
  8
1
 62
     7
 10
176.19454009044321
 20
0.0
 30
0.0
 40
25.0
  0
CIRCLE
  5
14E
  8
1
 62
     7
 10
176.19454009044321
 20
63.0
 30
0.0
 40
2.75
  0
CIRCLE
  5
14F
  8
1
 62
     7
 10
200.23617065078579
 20
24.04163056034275
 30
0.0
 40
4.5000000000001128
  0
CIRCLE
  5
150
  8
1
 62
     7
 10
200.23617065078579
 20
24.04163056034275
 30
0.0
 40
4.9999999999997149
  0
CIRCLE
  5
151
  8
1
 62
     7
 10
152.1529095301006
 20
-24.041630560342579
 30
0.0
 40
4.5000000000000853
  0
CIRCLE
  5
152
  8
1
 62
     7
 10
152.1529095301006
 20
-24.041630560342579
 30
0.0
 40
4.9999999999996021
  0
CIRCLE
  5
153
  8
1
 62
     7
 10
152.1529095301006
 20
24.04163056034275
 30
0.0
 40
4.4999999999998863
  0
CIRCLE
  5
154
  8
1
 62
     7
 10
152.1529095301006
 20
24.04163056034275
 30
0.0
 40
4.9999999999996021
  0
CIRCLE
  5
155
  8
1
 62
     7
 10
200.23617065078579
 20
-24.041630560342579
 30
0.0
 40
4.5
  0
CIRCLE
  5
156
  8
1
 62
     7
 10
200.23617065078579
 20
-24.041630560342579
 30
0.0
 40
4.9999999999996021
  0
CIRCLE
  5
157
  8
1
 62
     7
 10
12.57499999999999
 20
27.0
 30
0.0
 40
4.2000000000000179
  0
CIRCLE
  5
158
  8
1
 62
     7
 10
-227.9581610713449
 20
63.0
 30
0.0
 40
2.75
  0
CIRCLE
  5
159
  8
1
 62
     7
 10
-227.9581610713449
 20
0.0
 30
0.0
 40
20.0
  0
CIRCLE
  5
15A
  8
1
 62
     7
 10
-227.9581610713449
 20
0.0
 30
0.0
 40
34.0
  0
CIRCLE
  5
15B
  8
1
 62
     7
 10
-235.9581610713449
 20
40.0
 30
0.0
 40
4.0
  0
CIRCLE
  5
15C
  8
1
 62
     7
 10
-219.95816107134479
 20
40.0
 30
0.0
 40
4.0
  0
CIRCLE
  5
15D
  8
1
 62
     7
 10
176.19454009044321
 20
34.0
 30
0.0
 40
2.3999999999999768
  0
CIRCLE
  5
15E
  8
1
 62
     3
 10
176.19454009044321
 20
34.0
 30
0.0
 40
3.0
  0
CIRCLE
  5
15F
  8
1
 62
     7
 10
142.1945400904431
 20
0.0000000000000042
 30
0.0
 40
2.3999999999999768
  0
CIRCLE
  5
160
  8
1
 62
     3
 10
142.1945400904431
 20
0.0000000000000042
 30
0.0
 40
3.0
  0
CIRCLE
  5
161
  8
1
 62
     7
 10
176.19454009044321
 20
-34.0
 30
0.0
 40
2.3999999999999768
  0
CIRCLE
  5
162
  8
1
 62
     3
 10
176.19454009044321
 20
-34.0
 30
0.0
 40
3.0
  0
CIRCLE
  5
163
  8
1
 62
     7
 10
210.19454009044321
 20
0.0
 30
0.0
 40
2.3999999999999768
  0
CIRCLE
  5
164
  8
1
 62
     3
 10
210.19454009044321
 20
0.0
 30
0.0
 40
3.0
  0
TEXT
  5
166
  8
1
 62
     7
 10
-241.7348880925374
 20
114.0872866869895
 30
0.0
 40
7.0
  1
MZS 10
 41
0.9
  7
SIMPLEX
  0
ENDSEC
  0
EOF
