  0
SECTION
  2
HEADER
  9
$ACADVER
  1
AC1009
  9
$INSBASE
 10
0.0
 20
0.0
 30
0.0
  9
$EXTMIN
 10
-296.8379676359807
 20
-55.000000000000099
 30
0.0
  9
$EXTMAX
 10
239.03241242655849
 20
144.81888715974819
 30
0.0
  9
$LIMMIN
 10
-296.83796763598059
 20
-55.000000000000099
  9
$LIMMAX
 10
239.03241242655849
 20
144.81888715974819
  9
$ORTHOMODE
 70
     0
  9
$REGENMODE
 70
     1
  9
$FILLMODE
 70
     1
  9
$QTEXTMODE
 70
     0
  9
$MIRRTEXT
 70
     1
  9
$DRAGMODE
 70
     2
  9
$LTSCALE
 40
1.0
  9
$OSMODE
 70
    37
  9
$ATTMODE
 70
     1
  9
$TEXTSIZE
 40
3.5
  9
$TRACEWID
 40
0.5
  9
$TEXTSTYLE
  7
STANDARD
  9
$CLAYER
  8
0
  9
$CELTYPE
  6
BYLAYER
  9
$CECOLOR
 62
   256
  9
$DIMSCALE
 40
1.0
  9
$DIMASZ
 40
0.18
  9
$DIMEXO
 40
0.0625
  9
$DIMDLI
 40
0.38
  9
$DIMRND
 40
0.0
  9
$DIMDLE
 40
0.0
  9
$DIMEXE
 40
0.18
  9
$DIMTP
 40
0.0
  9
$DIMTM
 40
0.0
  9
$DIMTXT
 40
0.18
  9
$DIMCEN
 40
0.09
  9
$DIMTSZ
 40
0.0
  9
$DIMTOL
 70
     0
  9
$DIMLIM
 70
     0
  9
$DIMTIH
 70
     1
  9
$DIMTOH
 70
     1
  9
$DIMSE1
 70
     0
  9
$DIMSE2
 70
     0
  9
$DIMTAD
 70
     0
  9
$DIMZIN
 70
     0
  9
$DIMBLK
  1

  9
$DIMASO
 70
     1
  9
$DIMSHO
 70
     1
  9
$DIMPOST
  1

  9
$DIMAPOST
  1

  9
$DIMALT
 70
     0
  9
$DIMALTD
 70
     2
  9
$DIMALTF
 40
25.399999999999999
  9
$DIMLFAC
 40
1.0
  9
$DIMTOFL
 70
     0
  9
$DIMTVP
 40
0.0
  9
$DIMTIX
 70
     0
  9
$DIMSOXD
 70
     0
  9
$DIMSAH
 70
     0
  9
$DIMBLK1
  1

  9
$DIMBLK2
  1

  9
$DIMSTYLE
  2
STANDARD
  9
$DIMCLRD
 70
     0
  9
$DIMCLRE
 70
     0
  9
$DIMCLRT
 70
     0
  9
$DIMTFAC
 40
1.0
  9
$DIMGAP
 40
0.09
  9
$LUNITS
 70
     2
  9
$LUPREC
 70
     4
  9
$SKETCHINC
 40
0.1
  9
$FILLETRAD
 40
2.0
  9
$AUNITS
 70
     0
  9
$AUPREC
 70
     0
  9
$MENU
  1
ACAD
  9
$ELEVATION
 40
0.0
  9
$PELEVATION
 40
0.0
  9
$THICKNESS
 40
0.0
  9
$LIMCHECK
 70
     0
  9
$BLIPMODE
 70
     0
  9
$CHAMFERA
 40
0.0
  9
$CHAMFERB
 40
0.0
  9
$SKPOLY
 70
     0
  9
$TDCREATE
 40
2452095.0949848369
  9
$TDUPDATE
 40
2452095.0956554399
  9
$TDINDWG
 40
0.0006871528
  9
$TDUSRTIMER
 40
0.0006871528
  9
$USRTIMER
 70
     1
  9
$ANGBASE
 50
0.0
  9
$ANGDIR
 70
     0
  9
$PDMODE
 70
     0
  9
$PDSIZE
 40
0.0
  9
$PLINEWID
 40
0.0
  9
$COORDS
 70
     1
  9
$SPLFRAME
 70
     0
  9
$SPLINETYPE
 70
     6
  9
$SPLINESEGS
 70
     8
  9
$ATTDIA
 70
     0
  9
$ATTREQ
 70
     1
  9
$HANDLING
 70
 10241
  9
$HANDSEED
  5
16C
  9
$SURFTAB1
 70
     6
  9
$SURFTAB2
 70
     6
  9
$SURFTYPE
 70
     6
  9
$SURFU
 70
     6
  9
$SURFV
 70
     6
  9
$UCSNAME
  2

  9
$UCSORG
 10
0.0
 20
0.0
 30
0.0
  9
$UCSXDIR
 10
1.0
 20
0.0
 30
0.0
  9
$UCSYDIR
 10
0.0
 20
1.0
 30
0.0
  9
$PUCSNAME
  2

  9
$PUCSORG
 10
0.0
 20
0.0
 30
0.0
  9
$PUCSXDIR
 10
1.0
 20
0.0
 30
0.0
  9
$PUCSYDIR
 10
0.0
 20
1.0
 30
0.0
  9
$USERI1
 70
     0
  9
$USERI2
 70
     0
  9
$USERI3
 70
     0
  9
$USERI4
 70
     0
  9
$USERI5
 70
     0
  9
$USERR1
 40
0.0
  9
$USERR2
 40
0.0
  9
$USERR3
 40
0.0
  9
$USERR4
 40
0.0
  9
$USERR5
 40
0.0
  9
$WORLDVIEW
 70
     1
  9
$SHADEDGE
 70
     3
  9
$SHADEDIF
 70
    70
  9
$TILEMODE
 70
     1
  9
$MAXACTVP
 70
    64
  9
$PLIMCHECK
 70
     0
  9
$PEXTMIN
 10
1.0000000000000000E+020
 20
1.0000000000000000E+020
 30
1.0000000000000000E+020
  9
$PEXTMAX
 10
-1.0000000000000000E+020
 20
-1.0000000000000000E+020
 30
-1.0000000000000000E+020
  9
$PLIMMIN
 10
0.0
 20
0.0
  9
$PLIMMAX
 10
12.0
 20
9.0
  9
$UNITMODE
 70
     0
  9
$VISRETAIN
 70
     1
  9
$PLINEGEN
 70
     0
  9
$PSLTSCALE
 70
     1
  0
ENDSEC
  0
SECTION
  2
TABLES
  0
TABLE
  2
VPORT
 70
     2
  0
VPORT
  2
*ACTIVE
 70
     0
 10
0.0
 20
0.0
 11
1.0
 21
1.0
 12
-221.88565082978911
 22
130.723524107088
 13
0.0
 23
0.0
 14
1.0
 24
1.0
 15
0.0
 25
0.0
 16
0.0
 26
0.0
 36
1.0
 17
0.0
 27
0.0
 37
0.0
 40
9.0000003611266948
 41
2.4144144144144142
 42
50.0
 43
0.0
 44
0.0
 50
0.0
 51
0.0
 71
     0
 72
   100
 73
     1
 74
     1
 75
     0
 76
     0
 77
     0
 78
     0
  0
ENDTAB
  0
TABLE
  2
LTYPE
 70
     9
  0
LTYPE
  2
CONTINUOUS
 70
     0
  3
Solid line
 72
    65
 73
     0
 40
0.0
  0
LTYPE
  2
BORDER
 70
     0
  3
__ __ . __ __ .
 72
    65
 73
     6
 40
24.67824118709062
 49
7.0509260534544627
 49
-3.5254630267272309
 49
7.0509260534544627
 49
-3.5254630267272309
 49
0.0
 49
-3.5254630267272309
  0
LTYPE
  2
CENTER
 70
     0
  3
____ _ ____ _
 72
    65
 73
     4
 40
28.203704213817851
 49
17.627315133636159
 49
-3.5254630267272309
 49
3.5254630267272309
 49
-3.5254630267272309
  0
LTYPE
  2
DASHDOT
 70
     0
  3
__ . __ . __ .
 72
    65
 73
     4
 40
14.10185210690892
 49
7.0509260534544627
 49
-3.5254630267272309
 49
0.0
 49
-3.5254630267272309
  0
LTYPE
  2
DASHED
 70
     0
  3
__ __ __ __ __
 72
    65
 73
     2
 40
10.57638908018169
 49
7.0509260534544627
 49
-3.5254630267272309
  0
LTYPE
  2
DIVIDE
 70
     0
  3
__ . . __ . . 
 72
    65
 73
     6
 40
17.627315133636159
 49
7.0509260534544627
 49
-3.5254630267272309
 49
0.0
 49
-3.5254630267272309
 49
0.0
 49
-3.5254630267272309
  0
LTYPE
  2
DOT
 70
     0
  3
..............
 72
    65
 73
     4
 40
7.0509260534544627
 49
0.0
 49
-3.5254630267272309
 49
0.0
 49
-3.5254630267272309
  0
LTYPE
  2
HIDDEN
 70
     0
  3
_ _ _ _ _ _ _
 72
    65
 73
     2
 40
5.2881945400908457
 49
3.5254630267272309
 49
-1.762731513363615
  0
LTYPE
  2
PHANTOM
 70
     0
  3
_____ _ _ _____ _ _ 
 72
    65
 73
     6
 40
35.254630267272319
 49
17.627315133636159
 49
-3.5254630267272309
 49
3.5254630267272309
 49
-3.5254630267272309
 49
3.5254630267272309
 49
-3.5254630267272309
  0
ENDTAB
  0
TABLE
  2
LAYER
 70
     2
  0
LAYER
  2
0
 70
     0
 62
     7
  6
CONTINUOUS
  0
LAYER
  2
1
 70
     0
 62
     7
  6
CONTINUOUS
  0
ENDTAB
  0
TABLE
  2
STYLE
 70
     4
  0
STYLE
  2
STANDARD
 70
     0
 40
0.0
 41
1.0
 50
0.0
 71
     0
 42
3.5
  3
txt
  4

  0
STYLE
  2
SIMPLEX
 70
     0
 40
0.0
 41
1.0
 50
0.0
 71
     0
 42
3.5
  3
simplex
  4

  0
STYLE
  2
COMPLEX
 70
     0
 40
0.0
 41
1.0
 50
0.0
 71
     0
 42
3.5
  3
complex
  4

  0
STYLE
  2
ITALIC
 70
     0
 40
0.0
 41
1.0
 50
0.0
 71
     0
 42
3.5
  3
italic
  4

  0
ENDTAB
  0
TABLE
  2
VIEW
 70
     0
  0
ENDTAB
  0
TABLE
  2
UCS
 70
     0
  0
ENDTAB
  0
TABLE
  2
APPID
 70
     1
  0
APPID
  2
ACAD
 70
     0
  0
ENDTAB
  0
TABLE
  2
DIMSTYLE
 70
     1
  0
DIMSTYLE
  2
STANDARD
 70
     0
  3

  4

  5

  6

  7

 40
1.0
 41
0.18
 42
0.0625
 43
0.38
 44
0.18
 45
0.0
 46
0.0
 47
0.0
 48
0.0
140
0.18
141
0.09
142
0.0
143
25.399999999999999
144
1.0
145
0.0
146
1.0
147
0.09
 71
     0
 72
     0
 73
     1
 74
     1
 75
     0
 76
     0
 77
     0
 78
     0
170
     0
171
     2
172
     0
173
     0
174
     0
175
     0
176
     0
177
     0
178
     0
  0
ENDTAB
  0
ENDSEC
  0
SECTION
  2
BLOCKS
  0
BLOCK
  8
0
  2
$MODEL_SPACE
 70
     0
 10
0.0
 20
0.0
 30
0.0
  3
$MODEL_SPACE
  1

  0
ENDBLK
  5
20
  8
0
  0
BLOCK
 67
     1
  8
0
  2
$PAPER_SPACE
 70
     0
 10
0.0
 20
0.0
 30
0.0
  3
$PAPER_SPACE
  1

  0
ENDBLK
  5
1C
 67
     1
  8
0
  0
ENDSEC
  0
SECTION
  2
ENTITIES
  0
LINE
  5
33
  8
1
 62
     7
 10
21.0
 20
-40.000000000000099
 30
0.0
 11
5.0
 21
-40.000000000000099
 31
0.0
  0
LINE
  5
34
  8
1
 62
     7
 10
21.0
 20
-25.00000000000011
 30
0.0
 11
5.0
 21
-25.00000000000011
 31
0.0
  0
LINE
  5
35
  8
1
 62
     7
 10
3.0
 20
-28.50000000000011
 30
0.0
 11
3.0
 21
-23.500000000000121
 31
0.0
  0
LINE
  5
36
  8
1
 62
     7
 10
2.5
 20
-41.750000000000099
 30
0.0
 11
2.5
 21
-34.750000000000099
 31
0.0
  0
LINE
  5
37
  8
1
 62
     7
 10
5.0
 20
-23.500000000000121
 30
0.0
 11
5.0
 21
-41.750000000000099
 31
0.0
  0
LINE
  5
38
  8
1
 62
     7
 10
21.0
 20
-25.00000000000011
 30
0.0
 11
21.0
 21
-40.000000000000099
 31
0.0
  0
LINE
  5
39
  8
1
 62
     7
 10
3.0
 20
28.5
 30
0.0
 11
3.0
 21
23.5
 31
0.0
  0
LINE
  5
3A
  8
1
 62
     7
 10
2.5
 20
74.0
 30
0.0
 11
2.5
 21
34.75
 31
0.0
  0
LINE
  5
3B
  8
1
 62
     7
 10
5.0
 20
23.5
 30
0.0
 11
5.0
 21
41.75
 31
0.0
  0
LINE
  5
3C
  8
1
 62
     7
 10
21.0
 20
40.0
 30
0.0
 11
21.0
 21
25.0
 31
0.0
  0
LINE
  5
3D
  8
1
 62
     7
 10
21.0
 20
25.0
 30
0.0
 11
5.0
 21
25.0
 31
0.0
  0
LINE
  5
3E
  8
1
 62
     7
 10
21.0
 20
40.0
 30
0.0
 11
5.0
 21
40.0
 31
0.0
  0
LINE
  5
3F
  8
1
  6
DASHDOT
 62
     3
 10
-132.11142968422621
 20
68.0
 30
0.0
 11
-128.09928023326179
 21
68.0
 31
0.0
  0
LINE
  5
40
  8
1
 62
     7
 10
-249.84641801585229
 20
54.971042947831499
 30
0.0
 11
-258.10009639701428
 21
69.26683325333704
 31
0.0
  0
LINE
  5
41
  8
1
 62
     7
 10
-259.48270749116392
 20
72.16158591551266
 30
0.0
 11
-257.88359004606798
 21
69.39183325333704
 31
0.0
  0
LINE
  5
42
  8
1
 62
     7
 10
-259.22289987002858
 20
72.311585915512751
 30
0.0
 11
-257.62378242493281
 21
69.541833253337131
 31
0.0
  0
LINE
  5
43
  8
1
 62
     7
 10
-258.96309224889319
 20
72.461585915512728
 30
0.0
 11
-257.36397480379742
 21
69.691833253337109
 31
0.0
  0
LINE
  5
44
  8
1
 62
     7
 10
-258.44347700662252
 20
72.761585915512683
 30
0.0
 11
-256.8443595615268
 21
69.991833253337063
 31
0.0
  0
LINE
  5
45
  8
1
 62
     7
 10
-258.70328462775791
 20
72.611585915512705
 30
0.0
 11
-257.1041671826622
 21
69.8418332533371
 31
0.0
  0
LINE
  5
46
  8
1
 62
     7
 10
-256.41134685963459
 20
70.241833253337063
 30
0.0
 11
-258.01046430473059
 21
73.011585915512555
 31
0.0
  0
LINE
  5
47
  8
1
 62
     7
 10
-256.15153923849931
 20
70.391833253337055
 30
0.0
 11
-257.75065668359531
 21
73.161585915512546
 31
0.0
  0
LINE
  5
48
  8
1
 62
     7
 10
-255.37211637509341
 20
70.841833253337199
 30
0.0
 11
-256.97123382018941
 21
73.611585915512705
 31
0.0
  0
LINE
  5
49
  8
1
 62
     7
 10
-255.63192399622861
 20
70.691833253337094
 30
0.0
 11
-257.23104144132469
 21
73.461585915512629
 31
0.0
  0
LINE
  5
4A
  8
1
 62
     7
 10
-258.96309224889319
 20
72.461585915512728
 30
0.0
 11
-257.36397480379742
 21
69.691833253337109
 31
0.0
  0
LINE
  5
4B
  8
1
 62
     7
 10
-255.891731617364
 20
70.541833253337131
 30
0.0
 11
-257.49084906245997
 21
73.311585915512637
 31
0.0
  0
LINE
  5
4C
  8
1
 62
     7
 10
-258.10009639701428
 20
69.26683325333704
 30
0.0
 11
-255.15561002414719
 21
70.966833253337199
 31
0.0
  0
LINE
  5
4D
  8
1
 62
     7
 10
-256.62785321058061
 20
70.116833253337063
 30
0.0
 11
-249.83796763598079
 21
58.356406460550929
 31
0.0
  0
LINE
  5
4E
  8
1
 62
     7
 10
-255.15561002414719
 20
70.966833253337199
 30
0.0
 11
-249.83796763598079
 21
61.756406460551041
 31
0.0
  0
LINE
  5
4F
  8
1
 62
     7
 10
192.03241242655849
 20
61.756406460551041
 30
0.0
 11
192.03241242655849
 21
72.0
 31
0.0
  0
LINE
  5
50
  8
1
 62
     7
 10
200.0780348366458
 20
69.39183325333704
 30
0.0
 11
201.67715228174151
 21
72.16158591551266
 31
0.0
  0
LINE
  5
51
  8
1
 62
     7
 10
199.81822721551049
 20
69.541833253337131
 30
0.0
 11
201.41734466060629
 21
72.311585915512751
 31
0.0
  0
LINE
  5
52
  8
1
 62
     7
 10
199.55841959437501
 20
69.691833253337109
 30
0.0
 11
201.15753703947101
 21
72.461585915512728
 31
0.0
  0
LINE
  5
53
  8
1
 62
     7
 10
199.03880435210439
 20
69.991833253337063
 30
0.0
 11
200.63792179720031
 21
72.761585915512683
 31
0.0
  0
LINE
  5
54
  8
1
 62
     7
 10
199.29861197323979
 20
69.8418332533371
 30
0.0
 11
200.89772941833559
 21
72.611585915512705
 31
0.0
  0
LINE
  5
55
  8
1
 62
     7
 10
200.20490909530821
 20
73.011585915512555
 30
0.0
 11
198.6057916502123
 21
70.241833253337063
 31
0.0
  0
LINE
  5
56
  8
1
 62
     7
 10
199.94510147417299
 20
73.161585915512546
 30
0.0
 11
198.3459840290769
 21
70.391833253337055
 31
0.0
  0
LINE
  5
57
  8
1
 62
     7
 10
199.165678610767
 20
73.611585915512705
 30
0.0
 11
197.566561165671
 21
70.841833253337199
 31
0.0
  0
LINE
  5
58
  8
1
 62
     7
 10
199.42548623190231
 20
73.461585915512629
 30
0.0
 11
197.8263687868062
 21
70.691833253337094
 31
0.0
  0
LINE
  5
59
  8
1
 62
     7
 10
199.55841959437501
 20
69.691833253337109
 30
0.0
 11
201.15753703947101
 21
72.461585915512728
 31
0.0
  0
LINE
  5
5A
  8
1
 62
     7
 10
199.68529385303759
 20
73.311585915512637
 30
0.0
 11
198.08617640794151
 21
70.541833253337131
 31
0.0
  0
LINE
  5
5B
  8
1
 62
     7
 10
189.91258922864679
 20
54.684764978704827
 30
0.0
 11
198.8222980011584
 21
70.116833253337063
 31
0.0
  0
LINE
  5
5C
  8
1
 62
     7
 10
200.2945411875919
 20
69.26683325333704
 30
0.0
 11
191.74391010000861
 21
54.456705772864893
 31
0.0
  0
LINE
  5
5D
  8
1
 62
     7
 10
197.3500548147249
 20
70.966833253337199
 30
0.0
 11
200.2945411875919
 21
69.26683325333704
 31
0.0
  0
LINE
  5
5E
  8
1
 62
     7
 10
188.0468987820943
 20
54.853294334080019
 30
0.0
 11
197.3500548147249
 21
70.966833253337199
 31
0.0
  0
LINE
  5
5F
  8
1
  6
DASHDOT
 62
     3
 10
-241.8379676359807
 20
72.212934761588826
 30
0.0
 11
-241.8379676359807
 21
63.787065238411166
 31
0.0
  0
LINE
  5
60
  8
1
  6
DASHDOT
 62
     3
 10
-237.62503287439199
 20
68.0
 30
0.0
 11
-246.0509023975697
 21
68.0
 31
0.0
  0
LINE
  5
61
  8
1
 62
     7
 10
-226.83796763598079
 20
37.080992435478272
 30
0.0
 11
-226.83796763598079
 21
47.382380691560897
 31
0.0
  0
LINE
  5
62
  8
1
 62
     7
 10
-256.83796763598082
 20
47.382380691560897
 30
0.0
 11
-256.83796763598082
 21
37.080992435478272
 31
0.0
  0
LINE
  5
63
  8
1
  6
DASHDOT
 62
     3
 10
-241.8379676359807
 20
3.9617773585271161
 30
0.0
 11
-241.8379676359807
 21
-3.9617773585271161
 31
0.0
  0
LINE
  5
64
  8
1
  6
DASHDOT
 62
     3
 10
-237.87619027745379
 20
0.0
 30
0.0
 11
-245.7997449945079
 21
0.0
 31
0.0
  0
LINE
  5
65
  8
1
 62
     7
 10
-247.83796763598079
 20
74.0
 30
0.0
 11
-235.8379676359807
 21
74.0
 31
0.0
  0
LINE
  5
66
  8
1
 62
     7
 10
-233.8379676359807
 20
72.0
 30
0.0
 11
-233.8379676359807
 21
55.154700538379181
 31
0.0
  0
LINE
  5
67
  8
1
 62
     7
 10
-249.83796763598079
 20
72.0
 30
0.0
 11
-249.83796763598079
 21
55.154700538379302
 31
0.0
  0
LINE
  5
68
  8
1
 62
     7
 10
-232.83796763598079
 20
53.422649730810463
 30
0.0
 11
-228.83796763598079
 21
51.113248654051837
 31
0.0
  0
LINE
  5
69
  8
1
 62
     7
 10
-250.8379676359807
 20
53.422649730810463
 30
0.0
 11
-254.8379676359807
 21
51.113248654051837
 31
0.0
  0
LINE
  5
6A
  8
1
 62
     7
 10
-227.8379676359807
 20
49.38119784648304
 30
0.0
 11
-227.8379676359807
 21
42.000000000000007
 31
0.0
  0
LINE
  5
6B
  8
1
 62
     7
 10
-229.8379676359807
 20
40.0
 30
0.0
 11
-253.83796763598079
 21
40.0
 31
0.0
  0
LINE
  5
6C
  8
1
 62
     7
 10
-255.83796763598079
 20
42.000000000000007
 30
0.0
 11
-255.83796763598079
 21
49.38119784648304
 31
0.0
  0
LINE
  5
6D
  8
1
 62
     7
 10
-236.03796763598081
 20
45.329999999999927
 30
0.0
 11
-236.03796763598081
 21
44.670000000000059
 31
0.0
  0
LINE
  5
6E
  8
1
 62
     7
 10
-234.1679676359808
 20
42.799999999999947
 30
0.0
 11
-233.5079676359808
 21
42.799999999999947
 31
0.0
  0
LINE
  5
6F
  8
1
 62
     7
 10
-231.6379676359808
 20
44.670000000000059
 30
0.0
 11
-231.6379676359808
 21
45.329999999999927
 31
0.0
  0
LINE
  5
70
  8
1
 62
     7
 10
-233.5079676359808
 20
47.200000000000053
 30
0.0
 11
-234.1679676359808
 21
47.200000000000053
 31
0.0
  0
LINE
  5
71
  8
1
 62
     7
 10
-252.03796763598081
 20
45.329999999999927
 30
0.0
 11
-252.03796763598081
 21
44.670000000000059
 31
0.0
  0
LINE
  5
72
  8
1
 62
     7
 10
-250.16796763598069
 20
42.799999999999947
 30
0.0
 11
-249.5079676359808
 21
42.799999999999947
 31
0.0
  0
LINE
  5
73
  8
1
 62
     7
 10
-247.6379676359808
 20
44.670000000000059
 30
0.0
 11
-247.6379676359808
 21
45.329999999999927
 31
0.0
  0
LINE
  5
74
  8
1
 62
     7
 10
-249.5079676359808
 20
47.200000000000053
 30
0.0
 11
-250.16796763598069
 21
47.200000000000053
 31
0.0
  0
LINE
  5
75
  8
1
 62
     7
 10
-236.8379676359807
 20
21.0
 30
0.0
 11
-236.8379676359807
 21
16.770509831248429
 31
0.0
  0
LINE
  5
76
  8
1
 62
     7
 10
-246.8379676359807
 20
21.0
 30
0.0
 11
-236.8379676359807
 21
21.0
 31
0.0
  0
LINE
  5
77
  8
1
 62
     7
 10
-246.8379676359807
 20
16.770509831248429
 30
0.0
 11
-246.8379676359807
 21
21.0
 31
0.0
  0
LINE
  5
78
  8
1
 62
     7
 10
-129.11516463480029
 20
49.700000000000053
 30
0.0
 11
-129.11516463480029
 21
74.0
 31
0.0
  0
LINE
  5
79
  8
1
 62
     7
 10
-107.61516463480019
 20
-49.700000000000152
 30
0.0
 11
-131.61516463480021
 21
-49.700000000000152
 31
0.0
  0
LINE
  5
7A
  8
1
 62
     7
 10
-105.61516463480019
 20
55.0
 30
0.0
 11
-105.61516463480019
 21
-55.000000000000099
 31
0.0
  0
LINE
  5
7B
  8
1
 62
     7
 10
-69.915164634800277
 20
55.0
 30
0.0
 11
-69.915164634800277
 21
-55.000000000000099
 31
0.0
  0
LINE
  5
7C
  8
1
 62
     7
 10
-51.115164634800287
 20
49.600000000000009
 30
0.0
 11
-51.665164634800291
 21
49.600000000000009
 31
0.0
  0
LINE
  5
7D
  8
1
 62
     7
 10
-51.115164634800287
 20
-49.600000000000151
 30
0.0
 11
-51.665164634800291
 21
-49.600000000000151
 31
0.0
  0
LINE
  5
7E
  8
1
 62
     3
 10
-48.115164634800287
 20
0.0
 30
0.0
 11
-45.175222022735881
 21
0.0
 31
0.0
  0
LINE
  5
7F
  8
1
 62
     7
 10
-126.5651646348002
 20
70.667398913243446
 30
0.0
 11
-126.5651646348002
 21
68.570138972966447
 31
0.0
  0
LINE
  5
80
  8
1
 62
     7
 10
-126.86516463480019
 20
70.667398913243446
 30
0.0
 11
-126.86516463480019
 21
68.570138972966447
 31
0.0
  0
LINE
  5
81
  8
1
 62
     7
 10
-127.36516463480019
 20
70.667398913243446
 30
0.0
 11
-127.36516463480019
 21
68.570138972966447
 31
0.0
  0
LINE
  5
82
  8
1
 62
     7
 10
-127.66516463480031
 20
70.667398913243446
 30
0.0
 11
-127.66516463480031
 21
68.570138972966447
 31
0.0
  0
LINE
  5
83
  8
1
 62
     7
 10
-127.9651646348002
 20
68.570138972966447
 30
0.0
 11
-126.2651646348003
 21
68.570138972966447
 31
0.0
  0
LINE
  5
84
  8
1
 62
     7
 10
-126.2651646348003
 20
68.570138972966447
 30
0.0
 11
-126.2651646348003
 21
49.700000000000053
 31
0.0
  0
LINE
  5
85
  8
1
 62
     7
 10
-127.9651646348002
 20
49.700000000000053
 30
0.0
 11
-127.9651646348002
 21
68.570138972966447
 31
0.0
  0
LINE
  5
86
  8
1
 62
     7
 10
-129.61516463480021
 20
49.700000000000053
 30
0.0
 11
-107.61516463480019
 21
49.700000000000053
 31
0.0
  0
LINE
  5
87
  8
1
 62
     7
 10
-131.11516463480029
 20
74.0
 30
0.0
 11
-129.11516463480029
 21
74.0
 31
0.0
  0
LINE
  5
88
  8
1
 62
     7
 10
-131.11516463480029
 20
49.700000000000053
 30
0.0
 11
-131.11516463480029
 21
74.0
 31
0.0
  0
LINE
  5
89
  8
1
 62
     7
 10
-131.61516463480021
 20
49.700000000000053
 30
0.0
 11
-131.61516463480021
 21
-49.700000000000152
 31
0.0
  0
LINE
  5
8A
  8
1
 62
     7
 10
-105.61516463480019
 20
-55.000000000000099
 30
0.0
 11
-69.915164634800277
 21
-55.000000000000099
 31
0.0
  0
LINE
  5
8B
  8
1
 62
     3
 10
-71.46516463480026
 20
-55.000000000000099
 30
0.0
 11
-71.46516463480026
 21
55.0
 31
0.0
  0
LINE
  5
8C
  8
1
 62
     7
 10
-105.61516463480019
 20
-55.000000000000099
 30
0.0
 11
-107.61516463480019
 21
-53.000000000000107
 31
0.0
  0
LINE
  5
8D
  8
1
 62
     7
 10
-48.115164634800287
 20
-45.000000000000099
 30
0.0
 11
-51.115164634800287
 21
-45.000000000000099
 31
0.0
  0
LINE
  5
8E
  8
1
 62
     7
 10
-51.665164634800291
 20
-55.000000000000099
 30
0.0
 11
-69.215164634800246
 21
-55.000000000000099
 31
0.0
  0
LINE
  5
8F
  8
1
 62
     7
 10
-69.215164634800246
 20
55.0
 30
0.0
 11
-69.215164634800246
 21
-55.000000000000099
 31
0.0
  0
LINE
  5
90
  8
1
 62
     3
 10
-67.665164634800263
 20
55.0
 30
0.0
 11
-67.665164634800263
 21
-55.000000000000099
 31
0.0
  0
LINE
  5
91
  8
1
 62
     7
 10
-69.215164634800246
 20
55.0
 30
0.0
 11
-51.665164634800291
 21
55.0
 31
0.0
  0
LINE
  5
92
  8
1
 62
     7
 10
-51.665164634800291
 20
55.0
 30
0.0
 11
-51.665164634800291
 21
-55.000000000000099
 31
0.0
  0
LINE
  5
93
  8
1
 62
     7
 10
-48.115164634800287
 20
45.0
 30
0.0
 11
-48.115164634800287
 21
-45.000000000000099
 31
0.0
  0
LINE
  5
94
  8
1
 62
     7
 10
-51.115164634800287
 20
45.0
 30
0.0
 11
-48.115164634800287
 21
45.0
 31
0.0
  0
LINE
  5
95
  8
1
 62
     7
 10
-51.115164634800287
 20
49.600000000000009
 30
0.0
 11
-51.115164634800287
 21
-49.600000000000151
 31
0.0
  0
LINE
  5
96
  8
1
 62
     7
 10
-107.61516463480019
 20
53.0
 30
0.0
 11
-105.61516463480019
 21
55.0
 31
0.0
  0
LINE
  5
97
  8
1
 62
     7
 10
-107.61516463480019
 20
-53.000000000000107
 30
0.0
 11
-107.61516463480019
 21
53.0
 31
0.0
  0
LINE
  5
98
  8
1
 62
     7
 10
-69.915164634800277
 20
55.0
 30
0.0
 11
-105.61516463480019
 21
55.0
 31
0.0
  0
LINE
  5
99
  8
1
 62
     3
 10
-134.20875456285791
 20
0.0
 30
0.0
 11
-131.61516463480021
 21
0.0
 31
0.0
  0
LINE
  5
9A
  8
1
 62
     3
 10
83.499999999999986
 20
0.0
 30
0.0
 11
86.439942612064399
 21
0.0
 31
0.0
  0
LINE
  5
9B
  8
1
  6
DASHDOT
 62
     3
 10
184.03241242655849
 20
72.067130722948832
 30
0.0
 11
184.03241242655849
 21
63.932869277051161
 31
0.0
  0
LINE
  5
9C
  8
1
  6
DASHDOT
 62
     3
 10
188.09954314950741
 20
68.0
 30
0.0
 11
179.96528170360949
 21
68.0
 31
0.0
  0
LINE
  5
9D
  8
1
  6
DASHDOT
 62
     3
 10
184.03241242655849
 20
3.0954956690688959
 30
0.0
 11
184.03241242655849
 21
-3.0954956690688959
 31
0.0
  0
LINE
  5
9E
  8
1
  6
DASHDOT
 62
     3
 10
187.12790809562739
 20
0.0
 30
0.0
 11
180.9369167574896
 21
0.0
 31
0.0
  0
LINE
  5
9F
  8
1
  6
DASHDOT
 62
     3
 10
184.03241242655849
 20
-42.631452989069757
 30
0.0
 11
184.03241242655849
 21
-35.476884071142749
 31
0.0
  0
LINE
  5
A0
  8
1
  6
DASHDOT
 62
     3
 10
184.03241242655849
 20
35.011906821094271
 30
0.0
 11
184.03241242655849
 21
43.173897742327298
 31
0.0
  0
LINE
  5
A1
  8
1
 62
     7
 10
62.200000000000017
 20
33.5
 30
0.0
 11
69.900000000000006
 21
33.5
 31
0.0
  0
LINE
  5
A2
  8
1
 62
     7
 10
69.900000000000006
 20
33.5
 30
0.0
 11
69.900000000000006
 21
27.5
 31
0.0
  0
LINE
  5
A3
  8
1
 62
     7
 10
62.200000000000017
 20
33.5
 30
0.0
 11
62.200000000000017
 21
27.5
 31
0.0
  0
LINE
  5
A4
  8
1
 62
     7
 10
62.0
 20
41.0
 30
0.0
 11
62.0
 21
34.0
 31
0.0
  0
LINE
  5
A5
  8
1
 62
     7
 10
60.600000000000023
 20
27.0
 30
0.0
 11
62.0
 21
27.0
 31
0.0
  0
LINE
  5
A6
  8
1
 62
     7
 10
60.600000000000023
 20
34.0
 30
0.0
 11
60.600000000000023
 21
27.0
 31
0.0
  0
LINE
  5
A7
  8
1
 62
     7
 10
62.0
 20
34.0
 30
0.0
 11
60.600000000000023
 21
34.0
 31
0.0
  0
LINE
  5
A8
  8
1
 62
     7
 10
5.0500000000000087
 20
70.667398913243446
 30
0.0
 11
5.0500000000000087
 21
68.570138972966447
 31
0.0
  0
LINE
  5
A9
  8
1
 62
     7
 10
4.75
 20
70.667398913243446
 30
0.0
 11
4.75
 21
68.570138972966447
 31
0.0
  0
LINE
  5
AA
  8
1
 62
     7
 10
4.25
 20
70.667398913243446
 30
0.0
 11
4.25
 21
68.570138972966447
 31
0.0
  0
LINE
  5
AB
  8
1
 62
     7
 10
3.9500000000000091
 20
70.667398913243446
 30
0.0
 11
3.9500000000000091
 21
68.570138972966447
 31
0.0
  0
LINE
  5
AC
  8
1
 62
     7
 10
3.649999999999999
 20
68.570138972966447
 30
0.0
 11
5.3500000000000183
 21
68.570138972966447
 31
0.0
  0
LINE
  5
AD
  8
1
 62
     7
 10
5.3500000000000183
 20
68.570138972966447
 30
0.0
 11
5.3500000000000183
 21
49.700000000000053
 31
0.0
  0
LINE
  5
AE
  8
1
 62
     7
 10
3.649999999999999
 20
49.700000000000053
 30
0.0
 11
3.649999999999999
 21
68.570138972966447
 31
0.0
  0
LINE
  5
AF
  8
1
 62
     7
 10
0.5
 20
65.25
 30
0.0
 11
2.5
 21
65.25
 31
0.0
  0
LINE
  5
B0
  8
1
  6
DASHDOT
 62
     3
 10
-0.496265049426004
 20
68.0
 30
0.0
 11
3.5158844015385
 21
68.0
 31
0.0
  0
LINE
  5
B1
  8
1
 62
     7
 10
0.5
 20
70.75
 30
0.0
 11
2.5
 21
70.75
 31
0.0
  0
LINE
  5
B2
  8
1
 62
     7
 10
0.5
 20
74.0
 30
0.0
 11
2.5
 21
74.0
 31
0.0
  0
LINE
  5
B3
  8
1
 62
     7
 10
192.03241242655849
 20
54.4150714416512
 30
0.0
 11
192.03241242655849
 21
54.956406460550973
 31
0.0
  0
LINE
  5
B4
  8
1
 62
     7
 10
190.03241242655849
 20
74.0
 30
0.0
 11
178.03241242655841
 21
74.0
 31
0.0
  0
LINE
  5
B5
  8
1
 62
     7
 10
176.03241242655841
 20
54.4150714416512
 30
0.0
 11
176.03241242655841
 21
72.0
 31
0.0
  0
LINE
  5
B6
  8
1
 62
     7
 10
0.0
 20
-17.5
 30
0.0
 11
62.0
 21
-17.5
 31
0.0
  0
LINE
  5
B7
  8
1
 62
     7
 10
0.0
 20
17.5
 30
0.0
 11
62.0
 21
17.5
 31
0.0
  0
LINE
  5
B8
  8
1
 62
     7
 10
0.0
 20
21.0
 30
0.0
 11
62.0
 21
21.0
 31
0.0
  0
LINE
  5
B9
  8
1
  6
DASHDOT
 62
     3
 10
153.5705841034102
 20
-17.587144782377891
 30
0.0
 11
146.98585322790689
 21
-21.388840925890921
 31
0.0
  0
LINE
  5
BA
  8
1
  6
DASHDOT
 62
     3
 10
221.07897162520999
 20
-21.388840925890921
 30
0.0
 11
214.49424074970679
 21
-17.587144782377891
 31
0.0
  0
LINE
  5
BB
  8
1
  6
DASHDOT
 62
     3
 10
146.98585322790689
 20
21.388840925890911
 30
0.0
 11
153.5705841034102
 21
17.587144782377891
 31
0.0
  0
LINE
  5
BC
  8
1
  6
DASHDOT
 62
     3
 10
214.49424074970679
 20
17.587144782377891
 30
0.0
 11
221.07897162520999
 21
21.388840925890911
 31
0.0
  0
LINE
  5
BD
  8
1
 62
     7
 10
189.03241242655849
 20
21.0
 30
0.0
 11
189.03241242655849
 21
16.770509831248429
 31
0.0
  0
LINE
  5
BE
  8
1
 62
     7
 10
179.03241242655841
 20
21.0
 30
0.0
 11
189.03241242655849
 21
21.0
 31
0.0
  0
LINE
  5
BF
  8
1
 62
     7
 10
179.03241242655841
 20
16.770509831248429
 30
0.0
 11
179.03241242655841
 21
21.0
 31
0.0
  0
LINE
  5
C0
  8
1
 62
     7
 10
0.0
 20
49.700000000000053
 30
0.0
 11
0.0
 21
-49.700000000000152
 31
0.0
  0
LINE
  5
C1
  8
1
 62
     7
 10
52.0
 20
-49.700000000000152
 30
0.0
 11
0.0
 21
-49.700000000000152
 31
0.0
  0
LINE
  5
C2
  8
1
 62
     7
 10
22.0
 20
-28.800000000000072
 30
0.0
 11
52.0
 21
-28.800000000000072
 31
0.0
  0
LINE
  5
C3
  8
1
 62
     7
 10
22.0
 20
-35.000000000000099
 30
0.0
 11
22.0
 21
-28.800000000000072
 31
0.0
  0
LINE
  5
C4
  8
1
 62
     7
 10
21.0
 20
-35.000000000000099
 30
0.0
 11
22.0
 21
-35.000000000000099
 31
0.0
  0
LINE
  5
C5
  8
1
 62
     7
 10
52.0
 20
-28.800000000000072
 30
0.0
 11
52.0
 21
-49.700000000000152
 31
0.0
  0
LINE
  5
C6
  8
1
 62
     7
 10
21.0
 20
-36.397114317030052
 30
0.0
 11
15.25
 21
-36.397114317030052
 31
0.0
  0
LINE
  5
C7
  8
1
 62
     7
 10
5.0
 20
-36.397114317030052
 30
0.0
 11
10.749999999999989
 21
-36.397114317030052
 31
0.0
  0
LINE
  5
C8
  8
1
 62
     7
 10
5.0
 20
-28.602885682970172
 30
0.0
 11
10.749999999999989
 21
-28.602885682970172
 31
0.0
  0
LINE
  5
C9
  8
1
 62
     7
 10
21.0
 20
-28.602885682970172
 30
0.0
 11
15.25
 21
-28.602885682970172
 31
0.0
  0
LINE
  5
CA
  8
1
 62
     7
 10
19.399999999999991
 20
-37.000000000000099
 30
0.0
 11
19.399999999999991
 21
-28.00000000000011
 31
0.0
  0
LINE
  5
CB
  8
1
 62
     7
 10
6.6000000000000192
 20
-37.000000000000099
 30
0.0
 11
6.6000000000000192
 21
-28.00000000000011
 31
0.0
  0
LINE
  5
CC
  8
1
 62
     7
 10
2.5
 20
-41.750000000000099
 30
0.0
 11
5.0
 21
-41.750000000000099
 31
0.0
  0
LINE
  5
CD
  8
1
 62
     7
 10
5.0
 20
-34.750000000000099
 30
0.0
 11
2.5
 21
-34.750000000000099
 31
0.0
  0
LINE
  5
CE
  8
1
 62
     7
 10
0.0
 20
-40.000000000000099
 30
0.0
 11
2.5
 21
-40.000000000000099
 31
0.0
  0
LINE
  5
CF
  8
1
 62
     7
 10
3.0
 20
-28.50000000000011
 30
0.0
 11
5.0
 21
-28.50000000000011
 31
0.0
  0
LINE
  5
D0
  8
1
 62
     7
 10
5.0
 20
-23.500000000000121
 30
0.0
 11
3.0
 21
-23.500000000000121
 31
0.0
  0
LINE
  5
D1
  8
1
 62
     7
 10
0.0
 20
-25.00000000000011
 30
0.0
 11
3.0
 21
-25.00000000000011
 31
0.0
  0
LINE
  5
D2
  8
1
 62
     7
 10
26.0
 20
-55.000000000000099
 30
0.0
 11
61.5
 21
-54.999999999999893
 31
0.0
  0
LINE
  5
D3
  8
1
 62
     7
 10
58.5
 20
-50.000000000000099
 30
0.0
 11
61.5
 21
-49.999999999999893
 31
0.0
  0
LINE
  5
D4
  8
1
 62
     7
 10
58.5
 20
-41.000000000000107
 30
0.0
 11
58.5
 21
-50.000000000000099
 31
0.0
  0
LINE
  5
D5
  8
1
 62
     7
 10
62.0
 20
-41.000000000000107
 30
0.0
 11
58.5
 21
-41.000000000000107
 31
0.0
  0
LINE
  5
D6
  8
1
 62
     7
 10
62.0
 20
27.0
 30
0.0
 11
62.0
 21
-41.000000000000107
 31
0.0
  0
LINE
  5
D7
  8
1
 62
     7
 10
24.0
 20
-53.000000000000107
 30
0.0
 11
24.0
 21
-50.500000000000107
 31
0.0
  0
LINE
  5
D8
  8
1
 62
     7
 10
53.5
 20
-50.500000000000107
 30
0.0
 11
24.0
 21
-50.500000000000107
 31
0.0
  0
LINE
  5
D9
  8
1
 62
     7
 10
53.5
 20
-28.00000000000011
 30
0.0
 11
53.5
 21
-50.500000000000107
 31
0.0
  0
LINE
  5
DA
  8
1
 62
     7
 10
21.0
 20
-28.00000000000011
 30
0.0
 11
53.5
 21
-28.00000000000011
 31
0.0
  0
LINE
  5
DB
  8
1
 62
     7
 10
26.0
 20
-55.000000000000099
 30
0.0
 11
24.0
 21
-53.000000000000107
 31
0.0
  0
LINE
  5
DC
  8
1
 62
     7
 10
80.5
 20
-49.600000000000151
 30
0.0
 11
71.800000000000026
 21
-49.600000000000151
 31
0.0
  0
LINE
  5
DD
  8
1
 62
     7
 10
80.5
 20
-45.000000000000099
 30
0.0
 11
80.5
 21
-49.600000000000151
 31
0.0
  0
LINE
  5
DE
  8
1
 62
     7
 10
83.499999999999986
 20
-45.000000000000099
 30
0.0
 11
80.5
 21
-45.000000000000099
 31
0.0
  0
LINE
  5
DF
  8
1
 62
     7
 10
83.499999999999986
 20
-32.500000000000099
 30
0.0
 11
71.800000000000026
 21
-32.500000000000099
 31
0.0
  0
LINE
  5
E0
  8
1
 62
     7
 10
80.5
 20
-46.000000000000107
 30
0.0
 11
71.800000000000026
 21
-46.000000000000107
 31
0.0
  0
LINE
  5
E1
  8
1
 62
     7
 10
71.800000000000026
 20
-51.000000000000107
 30
0.0
 11
71.800000000000026
 21
51.000000000000007
 31
0.0
  0
LINE
  5
E2
  8
1
 62
     7
 10
75.0
 20
-51.000000000000107
 30
0.0
 11
71.800000000000026
 21
-51.000000000000107
 31
0.0
  0
LINE
  5
E3
  8
1
 62
     7
 10
75.0
 20
-46.000000000000107
 30
0.0
 11
75.0
 21
-51.000000000000107
 31
0.0
  0
LINE
  5
E4
  8
1
 62
     7
 10
79.950000000000017
 20
-55.000000000000099
 30
0.0
 11
79.950000000000017
 21
-46.000000000000107
 31
0.0
  0
LINE
  5
E5
  8
1
 62
     7
 10
79.950000000000017
 20
-55.000000000000099
 30
0.0
 11
62.200000000000017
 21
-54.999999999999893
 31
0.0
  0
LINE
  5
E6
  8
1
 62
     7
 10
63.800000000000011
 20
27.5
 30
0.0
 11
63.800000000000011
 21
-50.000000000000099
 31
0.0
  0
LINE
  5
E7
  8
1
 62
     7
 10
71.800000000000026
 20
-23.000000000000121
 30
0.0
 11
63.800000000000011
 21
-23.000000000000121
 31
0.0
  0
LINE
  5
E8
  8
1
 62
     7
 10
63.800000000000011
 20
23.0
 30
0.0
 11
71.800000000000026
 21
23.0
 31
0.0
  0
LINE
  5
E9
  8
1
 62
     7
 10
63.800000000000011
 20
50.0
 30
0.0
 11
63.800000000000011
 21
33.5
 31
0.0
  0
LINE
  5
EA
  8
1
 62
     7
 10
62.200000000000017
 20
50.0
 30
0.0
 11
63.800000000000011
 21
50.0
 31
0.0
  0
LINE
  5
EB
  8
1
 62
     7
 10
62.200000000000017
 20
55.0
 30
0.0
 11
62.200000000000017
 21
50.0
 31
0.0
  0
LINE
  5
EC
  8
1
 62
     7
 10
62.200000000000017
 20
55.0
 30
0.0
 11
79.950000000000017
 21
55.0
 31
0.0
  0
LINE
  5
ED
  8
1
 62
     7
 10
79.950000000000017
 20
46.0
 30
0.0
 11
79.950000000000017
 21
55.0
 31
0.0
  0
LINE
  5
EE
  8
1
 62
     7
 10
75.0
 20
51.000000000000007
 30
0.0
 11
75.0
 21
46.0
 31
0.0
  0
LINE
  5
EF
  8
1
 62
     7
 10
71.800000000000026
 20
51.000000000000007
 30
0.0
 11
75.0
 21
51.000000000000007
 31
0.0
  0
LINE
  5
F0
  8
1
 62
     7
 10
71.800000000000026
 20
41.0
 30
0.0
 11
83.499999999999986
 21
41.0
 31
0.0
  0
LINE
  5
F1
  8
1
 62
     7
 10
71.800000000000026
 20
37.0
 30
0.0
 11
83.499999999999986
 21
37.0
 31
0.0
  0
LINE
  5
F2
  8
1
  6
DASHDOT
 62
     3
 10
69.100000000000023
 20
39.0
 30
0.0
 11
85.900000000000006
 21
39.0
 31
0.0
  0
LINE
  5
F3
  8
1
 62
     3
 10
71.800000000000026
 20
41.500000000000007
 30
0.0
 11
83.499999999999986
 21
41.500000000000007
 31
0.0
  0
LINE
  5
F4
  8
1
 62
     3
 10
71.800000000000026
 20
36.5
 30
0.0
 11
83.499999999999986
 21
36.5
 31
0.0
  0
LINE
  5
F5
  8
1
 62
     7
 10
71.800000000000026
 20
46.0
 30
0.0
 11
80.5
 21
46.0
 31
0.0
  0
LINE
  5
F6
  8
1
 62
     7
 10
71.800000000000026
 20
32.5
 30
0.0
 11
83.499999999999986
 21
32.5
 31
0.0
  0
LINE
  5
F7
  8
1
 62
     7
 10
83.499999999999986
 20
45.0
 30
0.0
 11
83.499999999999986
 21
-45.000000000000099
 31
0.0
  0
LINE
  5
F8
  8
1
 62
     7
 10
80.5
 20
45.0
 30
0.0
 11
83.499999999999986
 21
45.0
 31
0.0
  0
LINE
  5
F9
  8
1
 62
     7
 10
80.5
 20
49.600000000000009
 30
0.0
 11
80.5
 21
45.0
 31
0.0
  0
LINE
  5
FA
  8
1
 62
     7
 10
71.800000000000026
 20
49.600000000000009
 30
0.0
 11
80.5
 21
49.600000000000009
 31
0.0
  0
LINE
  5
FB
  8
1
 62
     7
 10
24.0
 20
53.0
 30
0.0
 11
26.0
 21
55.0
 31
0.0
  0
LINE
  5
FC
  8
1
 62
     7
 10
53.5
 20
28.0
 30
0.0
 11
21.0
 21
28.0
 31
0.0
  0
LINE
  5
FD
  8
1
 62
     7
 10
53.5
 20
50.5
 30
0.0
 11
53.5
 21
28.0
 31
0.0
  0
LINE
  5
FE
  8
1
 62
     7
 10
24.0
 20
50.5
 30
0.0
 11
53.5
 21
50.5
 31
0.0
  0
LINE
  5
FF
  8
1
 62
     7
 10
24.0
 20
50.5
 30
0.0
 11
24.0
 21
53.0
 31
0.0
  0
LINE
  5
100
  8
1
 62
     3
 10
60.050000000000011
 20
55.0
 30
0.0
 11
60.050000000000011
 21
50.0
 31
0.0
  0
LINE
  5
101
  8
1
 62
     7
 10
58.5
 20
41.0
 30
0.0
 11
62.0
 21
41.0
 31
0.0
  0
LINE
  5
102
  8
1
 62
     7
 10
58.5
 20
50.0
 30
0.0
 11
58.5
 21
41.0
 31
0.0
  0
LINE
  5
103
  8
1
 62
     7
 10
61.5
 20
50.0
 30
0.0
 11
58.5
 21
50.0
 31
0.0
  0
LINE
  5
104
  8
1
 62
     7
 10
61.5
 20
55.0
 30
0.0
 11
61.5
 21
50.0
 31
0.0
  0
LINE
  5
105
  8
1
 62
     7
 10
61.5
 20
55.0
 30
0.0
 11
26.0
 21
55.0
 31
0.0
  0
LINE
  5
106
  8
1
 62
     3
 10
-2.593589928057586
 20
0.0
 30
0.0
 11
0.0
 21
0.0
 31
0.0
  0
LINE
  5
107
  8
1
 62
     7
 10
3.0
 20
25.0
 30
0.0
 11
0.0
 21
25.0
 31
0.0
  0
LINE
  5
108
  8
1
 62
     7
 10
3.0
 20
23.5
 30
0.0
 11
5.0
 21
23.5
 31
0.0
  0
LINE
  5
109
  8
1
 62
     7
 10
5.0
 20
28.5
 30
0.0
 11
3.0
 21
28.5
 31
0.0
  0
LINE
  5
10A
  8
1
 62
     7
 10
2.5
 20
40.0
 30
0.0
 11
0.0
 21
40.0
 31
0.0
  0
LINE
  5
10B
  8
1
 62
     7
 10
2.5
 20
34.75
 30
0.0
 11
5.0
 21
34.75
 31
0.0
  0
LINE
  5
10C
  8
1
 62
     7
 10
5.0
 20
41.75
 30
0.0
 11
2.5
 21
41.75
 31
0.0
  0
LINE
  5
10D
  8
1
 62
     7
 10
6.6000000000000192
 20
28.0
 30
0.0
 11
6.6000000000000192
 21
37.0
 31
0.0
  0
LINE
  5
10E
  8
1
 62
     7
 10
19.399999999999991
 20
28.0
 30
0.0
 11
19.399999999999991
 21
37.0
 31
0.0
  0
LINE
  5
10F
  8
1
 62
     7
 10
15.25
 20
28.602885682970051
 30
0.0
 11
21.0
 21
28.602885682970051
 31
0.0
  0
LINE
  5
110
  8
1
 62
     7
 10
10.749999999999989
 20
28.602885682970051
 30
0.0
 11
5.0
 21
28.602885682970051
 31
0.0
  0
LINE
  5
111
  8
1
 62
     7
 10
10.749999999999989
 20
36.397114317029953
 30
0.0
 11
5.0
 21
36.397114317029953
 31
0.0
  0
LINE
  5
112
  8
1
 62
     7
 10
15.25
 20
36.397114317029953
 30
0.0
 11
21.0
 21
36.397114317029953
 31
0.0
  0
LINE
  5
113
  8
1
 62
     7
 10
22.0
 20
35.0
 30
0.0
 11
21.0
 21
35.0
 31
0.0
  0
LINE
  5
114
  8
1
 62
     7
 10
22.0
 20
28.799999999999951
 30
0.0
 11
22.0
 21
35.0
 31
0.0
  0
LINE
  5
115
  8
1
 62
     7
 10
52.0
 20
28.799999999999951
 30
0.0
 11
22.0
 21
28.799999999999951
 31
0.0
  0
LINE
  5
116
  8
1
 62
     7
 10
52.0
 20
28.799999999999951
 30
0.0
 11
52.0
 21
49.700000000000053
 31
0.0
  0
LINE
  5
117
  8
1
 62
     7
 10
69.900000000000006
 20
27.5
 30
0.0
 11
62.200000000000017
 21
27.5
 31
0.0
  0
LINE
  5
118
  8
1
  6
DASHDOT
 62
     3
 10
66.050000000000011
 20
34.516592856302168
 30
0.0
 11
66.050000000000011
 21
26.272068175331121
 31
0.0
  0
LINE
  5
119
  8
1
 62
     7
 10
0.0
 20
49.700000000000053
 30
0.0
 11
0.5
 21
49.700000000000053
 31
0.0
  0
LINE
  5
11A
  8
1
 62
     7
 10
0.5
 20
74.0
 30
0.0
 11
0.5
 21
40.0
 31
0.0
  0
LINE
  5
11B
  8
1
 62
     7
 10
2.5
 20
49.700000000000053
 30
0.0
 11
52.0
 21
49.700000000000053
 31
0.0
  0
LINE
  5
11C
  8
1
 62
     7
 10
-129.11516463480029
 20
49.700000000000053
 30
0.0
 11
-131.61516463480021
 21
49.700000000000053
 31
0.0
  0
LINE
  5
11D
  8
1
 62
     3
 10
63.800000000000011
 20
55.0
 30
0.0
 11
63.800000000000011
 21
50.0
 31
0.0
  0
LINE
  5
11E
  8
1
 62
     7
 10
63.800000000000011
 20
-50.000000000000099
 30
0.0
 11
62.200000000000017
 21
-49.999999999999893
 31
0.0
  0
LINE
  5
11F
  8
1
 62
     7
 10
62.200000000000017
 20
-49.999999999999893
 30
0.0
 11
62.200000000000017
 21
-54.999999999999893
 31
0.0
  0
LINE
  5
120
  8
1
 62
     3
 10
60.050000000000011
 20
-49.999999999999893
 30
0.0
 11
60.050000000000011
 21
-54.999999999999893
 31
0.0
  0
LINE
  5
121
  8
1
 62
     7
 10
61.5
 20
-49.999999999999893
 30
0.0
 11
61.5
 21
-54.999999999999893
 31
0.0
  0
LINE
  5
122
  8
1
 62
     3
 10
63.800000000000011
 20
-50.000000000000099
 30
0.0
 11
63.800000000000011
 21
-55.000000000000099
 31
0.0
  0
ARC
  5
123
  8
1
 62
     7
 10
-247.83796763598079
 20
72.0
 30
0.0
 40
2.0
 50
90.0
 51
180.0
  0
ARC
  5
124
  8
1
 62
     7
 10
-235.8379676359807
 20
71.999999999999901
 30
0.0
 40
2.0
 50
0.0
 51
90.0
  0
ARC
  5
125
  8
1
 62
     7
 10
-231.8379676359807
 20
55.154700538379302
 30
0.0
 40
2.0
 50
180.0
 51
239.99999999999949
  0
ARC
  5
126
  8
1
 62
     7
 10
-251.83796763598079
 20
55.154700538379302
 30
0.0
 40
1.999999999999966
 50
300.00000000000051
 51
0.0
  0
ARC
  5
127
  8
1
 62
     7
 10
-253.83796763598079
 20
49.38119784648304
 30
0.0
 40
1.999999999999948
 50
120.0000000000009
 51
180.0
  0
ARC
  5
128
  8
1
 62
     7
 10
-253.83796763598079
 20
42.000000000000007
 30
0.0
 40
2.0
 50
180.0
 51
270.0
  0
ARC
  5
129
  8
1
 62
     7
 10
-229.8379676359807
 20
42.000000000000007
 30
0.0
 40
2.0
 50
270.0
 51
0.0
  0
ARC
  5
12A
  8
1
 62
     7
 10
-229.8379676359807
 20
49.38119784648304
 30
0.0
 40
2.0
 50
0.0
 51
59.999999999999147
  0
ARC
  5
12B
  8
1
 62
     7
 10
178.03241242655841
 20
72.0
 30
0.0
 40
2.0
 50
90.0
 51
180.0
  0
ARC
  5
12C
  8
1
 62
     7
 10
190.03241242655849
 20
72.0
 30
0.0
 40
2.0
 50
0.0
 51
90.0
  0
ARC
  5
12D
  8
1
 62
     7
 10
-241.8379676359807
 20
0.0
 30
0.0
 40
54.999999999999972
 50
98.522479690703435
 51
0.0
  0
ARC
  5
12E
  8
1
 62
     7
 10
-241.8379676359807
 20
0.0
 30
0.0
 40
54.999999999999893
 50
0.0
 51
81.47752030929648
  0
ARC
  5
12F
  8
1
 62
     7
 10
-236.03796763598081
 20
47.200000000000053
 30
0.0
 40
1.8700000000001309
 50
270.0
 51
0.0
  0
ARC
  5
130
  8
1
 62
     7
 10
-236.03796763598081
 20
42.799999999999947
 30
0.0
 40
1.8700000000000041
 50
0.0
 51
90.0
  0
ARC
  5
131
  8
1
 62
     7
 10
-231.6379676359808
 20
42.799999999999947
 30
0.0
 40
1.870000000000124
 50
90.0
 51
180.0
  0
ARC
  5
132
  8
1
 62
     7
 10
-231.6379676359808
 20
47.200000000000053
 30
0.0
 40
1.8700000000000041
 50
180.0
 51
270.0
  0
ARC
  5
133
  8
1
 62
     7
 10
-252.03796763598081
 20
47.200000000000053
 30
0.0
 40
1.8700000000001309
 50
270.0
 51
0.0
  0
ARC
  5
134
  8
1
 62
     7
 10
-252.03796763598081
 20
42.799999999999947
 30
0.0
 40
1.8700000000000041
 50
0.0
 51
90.0
  0
ARC
  5
135
  8
1
 62
     7
 10
-247.6379676359808
 20
42.799999999999947
 30
0.0
 40
1.870000000000124
 50
90.0
 51
180.0
  0
ARC
  5
136
  8
1
 62
     7
 10
-247.6379676359808
 20
47.200000000000053
 30
0.0
 40
1.8700000000000041
 50
180.0
 51
270.0
  0
ARC
  5
137
  8
1
 62
     7
 10
-241.8379676359807
 20
0.0
 30
0.0
 40
40.0
 50
90.0
 51
206.42745271241469
  0
ARC
  5
138
  8
1
 62
     7
 10
-241.8379676359807
 20
0.0
 30
0.0
 40
39.999999999999993
 50
206.42745271241469
 51
90.0
  0
ARC
  5
139
  8
1
 62
     7
 10
-241.8379676359807
 20
0.0
 30
0.0
 40
49.700000000000017
 50
106.361103524032
 51
73.638896475967869
  0
ARC
  5
13A
  8
1
 62
     7
 10
-241.8379676359807
 20
0.0
 30
0.0
 40
17.500000000000011
 50
106.6015495990201
 51
73.398450400979755
  0
ARC
  5
13B
  8
1
  6
DASHDOT
 62
     3
 10
184.03241242655849
 20
0.0
 30
0.0
 40
38.99999999999995
 50
264.41897655565862
 51
275.61128360874051
  0
ARC
  5
13C
  8
1
  6
DASHDOT
 62
     3
 10
184.03241242655849
 20
0.0
 30
0.0
 40
38.999999999999993
 50
84.2900590969695
 51
95.928571245415796
  0
ARC
  5
13D
  8
1
  6
DASHDOT
 62
     3
 10
184.03241242655849
 20
0.0
 30
0.0
 40
38.999999999999929
 50
144.89154726517049
 51
155.08320512092831
  0
ARC
  5
13E
  8
1
  6
DASHDOT
 62
     3
 10
184.03241242655849
 20
0.0
 30
0.0
 40
38.999999999999979
 50
24.898815368643099
 51
35.09050562374474
  0
ARC
  5
13F
  8
1
  6
DASHDOT
 62
     3
 10
184.03241242655849
 20
0.0
 30
0.0
 40
38.999999999999979
 50
324.53292992063263
 51
335.77160465163058
  0
ARC
  5
140
  8
1
  6
DASHDOT
 62
     3
 10
184.03241242655849
 20
0.0
 30
0.0
 40
39.000000000000028
 50
204.5223833035397
 51
215.2831531965636
  0
ARC
  5
141
  8
1
 62
     7
 10
184.03241242655849
 20
0.0
 30
0.0
 40
17.500000000000011
 50
106.6015495990201
 51
73.398450400979755
  0
CIRCLE
  5
142
  8
1
 62
     7
 10
-241.8379676359807
 20
0.0
 30
0.0
 40
25.0
  0
CIRCLE
  5
143
  8
1
 62
     7
 10
-241.8379676359807
 20
68.0
 30
0.0
 40
2.75
  0
CIRCLE
  5
144
  8
1
 62
     7
 10
-233.8379676359807
 20
45.0
 30
0.0
 40
4.0
  0
CIRCLE
  5
145
  8
1
 62
     7
 10
-249.83796763598079
 20
45.0
 30
0.0
 40
4.0
  0
CIRCLE
  5
146
  8
1
 62
     3
 10
184.03241242655849
 20
39.0
 30
0.0
 40
2.5
  0
CIRCLE
  5
147
  8
1
 62
     7
 10
184.03241242655849
 20
68.0
 30
0.0
 40
2.75
  0
CIRCLE
  5
148
  8
1
 62
     7
 10
158.9636956487835
 20
-29.87573328164012
 30
0.0
 40
5.0
  0
CIRCLE
  5
149
  8
1
 62
     7
 10
158.9636956487835
 20
-29.87573328164012
 30
0.0
 40
4.5
  0
CIRCLE
  5
14A
  8
1
 62
     7
 10
158.9636956487835
 20
29.87573328164012
 30
0.0
 40
5.0
  0
CIRCLE
  5
14B
  8
1
 62
     7
 10
158.9636956487835
 20
29.87573328164012
 30
0.0
 40
4.5
  0
CIRCLE
  5
14C
  8
1
 62
     7
 10
209.1011292043336
 20
-29.87573328164012
 30
0.0
 40
5.0
  0
CIRCLE
  5
14D
  8
1
 62
     7
 10
209.1011292043336
 20
-29.87573328164012
 30
0.0
 40
4.5
  0
CIRCLE
  5
14E
  8
1
 62
     7
 10
209.1011292043336
 20
29.87573328164012
 30
0.0
 40
4.5
  0
CIRCLE
  5
14F
  8
1
 62
     7
 10
209.1011292043336
 20
29.87573328164012
 30
0.0
 40
5.0
  0
CIRCLE
  5
150
  8
1
 62
     7
 10
217.80740317415169
 20
19.50000000000011
 30
0.0
 40
2.0000000000000839
  0
CIRCLE
  5
151
  8
1
 62
     3
 10
217.80740317415169
 20
19.50000000000011
 30
0.0
 40
2.5
  0
CIRCLE
  5
152
  8
1
 62
     7
 10
217.80740317415169
 20
-19.5
 30
0.0
 40
2.0000000000000839
  0
CIRCLE
  5
153
  8
1
 62
     3
 10
217.80740317415169
 20
-19.5
 30
0.0
 40
2.5
  0
CIRCLE
  5
154
  8
1
 62
     7
 10
184.03241242655869
 20
-39.000000000000107
 30
0.0
 40
2.0
  0
CIRCLE
  5
155
  8
1
 62
     3
 10
184.03241242655869
 20
-39.000000000000107
 30
0.0
 40
2.5
  0
CIRCLE
  5
156
  8
1
 62
     7
 10
150.25742167896539
 20
-19.5
 30
0.0
 40
2.0
  0
CIRCLE
  5
157
  8
1
 62
     3
 10
150.25742167896539
 20
-19.5
 30
0.0
 40
2.5
  0
CIRCLE
  5
158
  8
1
 62
     7
 10
150.2574216789653
 20
19.5
 30
0.0
 40
2.0
  0
CIRCLE
  5
159
  8
1
 62
     3
 10
150.2574216789653
 20
19.5
 30
0.0
 40
2.5
  0
CIRCLE
  5
15A
  8
1
 62
     3
 10
184.03241242655849
 20
39.0
 30
0.0
 40
2.5
  0
CIRCLE
  5
15B
  8
1
 62
     7
 10
184.03241242655849
 20
39.0
 30
0.0
 40
2.0
  0
CIRCLE
  5
15C
  8
1
 62
     7
 10
184.03241242655849
 20
0.0
 30
0.0
 40
49.600000000000108
  0
CIRCLE
  5
15D
  8
1
 62
     7
 10
184.03241242655849
 20
0.0
 30
0.0
 40
55.0
  0
CIRCLE
  5
15E
  8
1
 62
     7
 10
184.03241242655849
 20
0.0
 30
0.0
 40
45.0
  0
CIRCLE
  5
15F
  8
1
 62
     7
 10
184.03241242655849
 20
0.0
 30
0.0
 40
32.5
  0
CIRCLE
  5
160
  8
1
 62
     7
 10
184.03241242655849
 20
0.0
 30
0.0
 40
23.0
  0
CIRCLE
  5
161
  8
1
 62
     7
 10
13.0
 20
-32.500000000000099
 30
0.0
 40
4.5
  0
CIRCLE
  5
162
  8
1
 62
     7
 10
13.0
 20
32.5
 30
0.0
 40
4.5
  0
TEXT
  5
164
  8
1
 62
     7
 10
-253.42155744590639
 20
137.81888715974819
 30
0.0
 40
7.0
  1
MZS 16
 41
0.9
  7
SIMPLEX
  0
ENDSEC
  0
EOF
