  0
SECTION
  2
HEADER
  9
$ACADVER
  1
AC1009
  9
$INSBASE
 10
0
 20
0
  9
$EXTMIN
 10
-626.2857471692818
 20
7.225004833468356
  9
$EXTMAX
 10
-259.3111359757232
 20
139.748218256397
  9
$LIMMIN
 10
-626.2857471692818
 20
7.225004833468356
  9
$LIMMAX
 10
-259.3111359757232
 20
139.748218256397
  9
$VIEWCTR
 10
10
 20
10
  9
$VIEWSIZE
 40
10
  9
$SNAPMODE
 70
0
  9
$SNAPUNIT
 10
1
 20
1
  9
$SNAPBASE
 10
0
 20
0
  9
$SNAPANG
 50
0
  9
$SNAPSTYLE
 70
0
  9
$SNAPISOPAIR
 70
0
  9
$GRIDMODE
 70
0
  9
$GRIDUNIT
 10
0
 20
0
  9
$ORTHOMODE
 70
0
  9
$REGENMODE
 70
1
  9
$FILLMODE
 70
1
  9
$QTEXTMODE
 70
0
  9
$DRAGMODE
 70
2
  9
$LTSCALE
 40
1
  9
$OSMODE
 70
0
  9
$ATTMODE
 70
1
  9
$TEXTSIZE
 40
3.5
  9
$TRACEWID
 40
0.5
  9
$TEXTSTYLE
  7
STANDARD
  9
$CLAYER
  8
0
  9
$CELTYPE
  6
BYLAYER
  9
$CECOLOR
 62
256
  9
$DIMSCALE
 40
1
  9
$DIMASZ
 40
0.18
  9
$DIMEXO
 40
0.0625
  9
$DIMDLI
 40
0.38
  9
$DIMRND
 40
0
  9
$DIMDLE
 40
0
  9
$DIMEXE
 40
0.18
  9
$DIMTP
 40
0
  9
$DIMTM
 40
0
  9
$DIMTXT
 40
0.18
  9
$DIMCEN
 40
0.09
  9
$DIMTSZ
 40
0
  9
$DIMTOL
 70
0
  9
$DIMLIM
 70
0
  9
$DIMTIH
 70
1
  9
$DIMTOH
 70
1
  9
$DIMSE1
 70
0
  9
$DIMSE2
 70
0
  9
$DIMTAD
 70
0
  9
$DIMZIN
 70
0
  9
$DIMBLK
  1

  9
$DIMASO
 70
1
  9
$DIMSHO
 70
1
  9
$DIMPOST
  1

  9
$DIMAPOST
  1

  9
$DIMALT
 70
0
  9
$DIMALTD
 70
2
  9
$DIMALTF
 40
25.4
  9
$DIMLFAC
 40
1
  9
$DIMTOFL
 70
0
  9
$DIMTVP
 40
0
  9
$DIMTIX
 70
0
  9
$DIMSOXD
 70
0
  9
$DIMSAH
 70
0
  9
$DIMBLK1
  1

  9
$DIMBLK2
  1

  9
$DIMSTYLE
  2
*UNNAMED
  9
$DIMCLRD
 70
0
  9
$DIMCLRE
 70
0
  9
$DIMCLRT
 70
0
  9
$DIMTFAC
 40
1
  9
$DIMGAP
 40
0.09
  9
$LUNITS
 70
2
  9
$LUPREC
 70
4
  9
$AXISMODE
 70
0
  9
$AXISUNIT
 10
0
 20
0
  9
$SKETCHINC
 40
0.1
  9
$FILLETRAD
 40
2
  9
$AUNITS
 70
0
  9
$AUPREC
 70
0
  9
$MENU
  1
ACAD
  9
$ELEVATION
 40
0
  9
$THICKNESS
 40
0
  9
$VIEWDIR
 10
0
 20
0
 30
1
  9
$LIMCHECK
 70
0
  9
$BLIPMODE
 70
1
  9
$CHAMFERA
 40
0
  9
$CHAMFERB
 40
0
  9
$FASTZOOM
 70
1
  9
$SKPOLY
 70
0
  9
$ANGBASE
 50
0
  9
$ANGDIR
 70
0
  9
$PDMODE
 70
0
  9
$PDSIZE
 40
0
  9
$PLINEWID
 40
0
  9
$COORDS
 70
2
  0
ENDSEC
  0
SECTION
  2
TABLES
  0
TABLE
  2
DIMSTYLE
 70
0
  0
ENDTAB
  0
TABLE
  2
LTYPE
 70
9
  0
LTYPE
  2
CONTINUOUS
 70
64
  3
Solid line
 72
65
 73
0
 40
0
  0
LTYPE
  2
BORDER
 70
64
  3
__ __ . __ __ .
 72
65
 73
6
 40
16.90014656812441
 49
4.828613305178402
 49
-2.414306652589201
 49
4.828613305178402
 49
-2.414306652589201
 49
0
 49
-2.414306652589201
  0
LTYPE
  2
CENTER
 70
64
  3
____ _ ____ _
 72
65
 73
4
 40
19.31445322071361
 49
12.07153326294601
 49
-2.414306652589201
 49
2.414306652589201
 49
-2.414306652589201
  0
LTYPE
  2
DASHDOT
 70
64
  3
__ . __ . __ .
 72
65
 73
4
 40
9.657226610356805
 49
4.828613305178402
 49
-2.414306652589201
 49
0
 49
-2.414306652589201
  0
LTYPE
  2
DASHED
 70
64
  3
__ __ __ __ __
 72
65
 73
2
 40
7.242919957767604
 49
4.828613305178402
 49
-2.414306652589201
  0
LTYPE
  2
DIVIDE
 70
64
  3
__ . . __ . . 
 72
65
 73
6
 40
12.07153326294601
 49
4.828613305178402
 49
-2.414306652589201
 49
0
 49
-2.414306652589201
 49
0
 49
-2.414306652589201
  0
LTYPE
  2
DOT
 70
64
  3
..............
 72
65
 73
4
 40
4.828613305178402
 49
0
 49
-2.414306652589201
 49
0
 49
-2.414306652589201
  0
LTYPE
  2
HIDDEN
 70
64
  3
_ _ _ _ _ _ _
 72
65
 73
2
 40
3.621459978883802
 49
2.414306652589201
 49
-1.207153326294601
  0
LTYPE
  2
PHANTOM
 70
64
  3
_____ _ _ _____ _ _ 
 72
65
 73
6
 40
24.14306652589201
 49
12.07153326294601
 49
-2.414306652589201
 49
2.414306652589201
 49
-2.414306652589201
 49
2.414306652589201
 49
-2.414306652589201
  0
ENDTAB
  0
TABLE
  2
LAYER
 70
3
  0
LAYER
  2
1
 70
0
 62
7
  6
CONTINUOUS
  0
LAYER
  2
0
 70
0
 62
7
  6
CONTINUOUS
  0
ENDTAB
  0
TABLE
  2
STYLE
 70
4
  0
STYLE
  2
STANDARD
 70
0
 40
0
 41
1
 50
0
 71
0
 42
3.5
  3
txt
  4

  0
STYLE
  2
SIMPLEX
 70
0
 40
0
 41
1
 50
0
 71
0
 42
3.5
  3
simplex
  4

  0
STYLE
  2
COMPLEX
 70
0
 40
0
 41
1
 50
0
 71
0
 42
3.5
  3
complex
  4

  0
STYLE
  2
ITALIC
 70
0
 40
0
 41
1
 50
0
 71
0
 42
3.5
  3
italic
  4

  0
ENDTAB
  0
TABLE
  2
VIEW
 70
0
  0
ENDTAB
  0
ENDSEC
  0
SECTION
  2
BLOCKS
  0
ENDSEC
  0
SECTION
  2
ENTITIES
  0
LINE
  8
1
 62
3
  6
DASHDOT
 10
-508.489609922965
 20
94.7697841726619
 30
0
 11
-504.1275955344758
 21
94.7697841726619
 31
0
  0
LINE
  8
1
 62
7
 10
-580.2857471692819
 20
79.2697841726619
 30
0
 11
-580.2857471692819
 21
98.7697841726619
 31
0
  0
LINE
  8
1
 62
7
 10
-592.2857471692818
 20
79.2697841726619
 30
0
 11
-592.2857471692818
 21
98.7697841726619
 31
0
  0
LINE
  8
1
 62
7
 10
-550.6888723146171
 20
63.70284729879491
 30
0
 11
-549.8183712900536
 21
64.20543129965665
 31
0
  0
LINE
  8
1
 62
7
 10
-554.6888723146171
 20
24.90851781625336
 30
0
 11
-553.8183712900535
 21
24.40593381539179
 31
0
  0
LINE
  8
1
 62
7
 10
-590.2857471692818
 20
8.975454690120296
 30
0
 11
-590.2857471692818
 21
7.970286688397115
 31
0
  0
LINE
  8
1
 62
7
 10
-621.8826220239465
 20
31.83672104652892
 30
0
 11
-622.7531230485099
 21
31.33413704566721
 31
0
  0
LINE
  8
1
 62
7
 10
-617.8826220239464
 20
70.63105052907051
 30
0
 11
-618.75312304851
 21
71.13363452993204
 31
0
  0
LINE
  8
1
 62
7
 10
-554.6888723146171
 20
70.63105052907042
 30
0
 11
-553.8183712900536
 21
71.13363452993201
 31
0
  0
LINE
  8
1
 62
7
 10
-550.6888723146171
 20
31.83672104652887
 30
0
 11
-549.8183712900536
 21
31.33413704566728
 31
0
  0
LINE
  8
1
 62
7
 10
-582.2857471692818
 20
8.975454690120294
 30
0
 11
-582.2857471692818
 21
7.97028668839713
 31
0
  0
LINE
  8
1
 62
7
 10
-617.8826220239465
 20
24.90851781625341
 30
0
 11
-618.75312304851
 21
24.40593381539183
 31
0
  0
LINE
  8
1
 62
7
 10
-621.8826220239464
 20
63.70284729879501
 30
0
 11
-622.7531230485099
 21
64.20543129965658
 31
0
  0
LINE
  8
1
 62
3
  6
DASHDOT
 10
-586.2857471692818
 20
43.92779229484529
 30
0
 11
-586.2857471692818
 21
51.61177605047851
 31
0
  0
LINE
  8
1
 62
3
  6
DASHDOT
 10
-582.4437552914652
 20
47.7697841726619
 30
0
 11
-590.1277390470984
 21
47.7697841726619
 31
0
  0
LINE
  8
1
 62
7
 10
-578.1913612968338
 20
86.94223517266843
 30
0
 11
-573.3127059328909
 21
105.1496248635216
 31
0
  0
LINE
  8
1
 62
3
  6
DASHDOT
 10
-586.2857471692818
 20
91.03852871978125
 30
0
 11
-586.2857471692818
 21
98.50103962554255
 31
0
  0
LINE
  8
1
 62
3
  6
DASHDOT
 10
-582.5544917164011
 20
94.7697841726619
 30
0
 11
-590.0170026221624
 21
94.7697841726619
 31
0
  0
LINE
  8
1
 62
7
 10
-570.2173959302297
 20
109.496619950035
 30
0
 11
-571.5114911557424
 21
104.6669908185897
 31
0
  0
LINE
  8
1
 62
7
 10
-570.6093433655534
 20
109.6016419488054
 30
0
 11
-571.903438591066
 21
104.7720128173601
 31
0
  0
LINE
  8
1
 62
7
 10
-571.5157218097394
 20
109.844505320962
 30
0
 11
-572.809817035252
 21
105.0148761895167
 31
0
  0
LINE
  8
1
 62
7
 10
-571.1482710891233
 20
109.7460471971147
 30
0
 11
-572.4423663146359
 21
104.9164180656694
 31
0
  0
LINE
  8
1
 62
7
 10
-570.898136748883
 20
109.679023902648
 30
0
 11
-572.1922319743956
 21
104.8493947712027
 31
0
  0
LINE
  8
1
 62
7
 10
-573.2387021945382
 20
96.46201890704151
 30
0
 11
-571.0717580159003
 21
104.5491646788838
 31
0
  0
LINE
  8
1
 62
7
 10
-567.9764480132392
 20
108.8961597653972
 30
0
 11
-569.2705432387518
 21
104.0665306339518
 31
0
  0
LINE
  8
1
 62
7
 10
-568.3683954485628
 20
109.0011817641676
 30
0
 11
-569.6624906740753
 21
104.1715526327222
 31
0
  0
LINE
  8
1
 62
7
 10
-569.2747738927487
 20
109.2440451363242
 30
0
 11
-570.5688691182613
 21
104.4144160048788
 31
0
  0
LINE
  8
1
 62
7
 10
-568.9073231721327
 20
109.1455870124769
 30
0
 11
-570.2014183976454
 21
104.3159578810316
 31
0
  0
LINE
  8
1
 62
7
 10
-568.6571888318923
 20
109.0785637180102
 30
0
 11
-569.9512840574049
 21
104.2489345865648
 31
0
  0
LINE
  8
1
 62
7
 10
-573.3127059328909
 20
105.1496248635216
 30
0
 11
-568.8308100989096
 21
103.9487044942459
 31
0
  0
LINE
  8
1
 62
7
 10
-575.932985365181
 20
86.40681722422464
 30
0
 11
-571.0717580159003
 21
104.5491646788838
 31
0
  0
LINE
  8
1
 62
7
 10
-573.7094654628525
 20
85.74131480339274
 30
0
 11
-568.8308100989096
 21
103.9487044942459
 31
0
  0
LINE
  8
1
 62
7
 10
-590.2857471692818
 20
100.7697841726619
 30
0
 11
-582.2857471692818
 21
100.7697841726619
 31
0
  0
LINE
  8
1
 62
7
 10
-589.2857471692818
 20
59.4697841726619
 30
0
 11
-583.2857471692818
 21
59.4697841726619
 31
0
  0
LINE
  8
1
 62
7
 10
-589.2857471692818
 20
57.30917618683136
 30
0
 11
-589.2857471692818
 21
59.4697841726619
 31
0
  0
LINE
  8
1
 62
7
 10
-583.2857471692818
 20
57.30917618683136
 30
0
 11
-583.2857471692818
 21
59.4697841726619
 31
0
  0
LINE
  8
1
 62
3
  6
DASHDOT
 10
-268.2348259718718
 20
29.82786822651798
 30
0
 11
-264.1983270771472
 21
27.49739450306509
 31
0
  0
LINE
  8
1
 62
3
  6
DASHDOT
 10
-299.3111359757232
 20
11.88595228037412
 30
0
 11
-299.3111359757232
 21
7.225004833468356
 31
0
  0
LINE
  8
1
 62
3
  6
DASHDOT
 10
-330.3874459795746
 20
29.82786822651801
 30
0
 11
-334.4239448742993
 21
27.49739450306514
 31
0
  0
LINE
  8
1
 62
3
  6
DASHDOT
 10
-330.3874459795746
 20
65.71170011880577
 30
0
 11
-334.4239448742993
 21
68.04217384225866
 31
0
  0
LINE
  8
1
 62
3
  6
DASHDOT
 10
-299.3111359757232
 20
83.65361606494963
 30
0
 11
-299.3111359757232
 21
88.3145635118554
 31
0
  0
LINE
  8
1
 62
3
  6
DASHDOT
 10
-268.2348259718718
 20
65.71170011880577
 30
0
 11
-264.1983270771472
 21
68.04217384225863
 31
0
  0
LINE
  8
1
 62
3
  6
DASHDOT
 10
-299.3111359757232
 20
51.61177605047851
 30
0
 11
-299.3111359757232
 21
43.92779229484529
 31
0
  0
LINE
  8
1
 62
3
  6
DASHDOT
 10
-295.4691440979066
 20
47.7697841726619
 30
0
 11
-303.1531278535398
 21
47.7697841726619
 31
0
  0
LINE
  8
1
 62
7
 10
-312.2841772121141
 20
105.1496248635216
 30
0
 11
-307.4055218481713
 21
86.94223517266843
 31
0
  0
LINE
  8
1
 62
3
  6
DASHDOT
 10
-299.3111359757232
 20
98.50103962554255
 30
0
 11
-299.3111359757232
 21
91.03852871978125
 31
0
  0
LINE
  8
1
 62
3
  6
DASHDOT
 10
-295.5798805228426
 20
94.7697841726619
 30
0
 11
-303.0423914286039
 21
94.7697841726619
 31
0
  0
LINE
  8
1
 62
7
 10
-423.3054767443008
 20
10.2697841726619
 30
0
 11
-421.8054767443008
 21
8.7697841726619
 31
0
  0
LINE
  8
1
 62
3
 10
-507.3054767443008
 20
47.7697841726619
 30
0
 11
-510.3054767443008
 21
47.7697841726619
 31
0
  0
LINE
  8
1
 62
3
 10
-462.3054767443008
 20
47.7697841726619
 30
0
 11
-459.3054767443008
 21
47.7697841726619
 31
0
  0
LINE
  8
1
 62
7
 10
-505.8054767443008
 20
8.769784172661895
 30
0
 11
-505.8054767443008
 21
86.76978417266189
 31
0
  0
LINE
  8
1
 62
7
 10
-507.2054767443008
 20
100.7697841726619
 30
0
 11
-507.2054767443008
 21
85.39205548107194
 31
0
  0
LINE
  8
1
 62
3
 10
-475.8054767443008
 20
87.76978417266189
 30
0
 11
-467.3054767443008
 21
7.769784172661896
 31
0
  0
LINE
  8
1
 62
3
 10
-475.8054767443008
 20
7.769784172661896
 30
0
 11
-467.3054767443008
 21
87.76978417266189
 31
0
  0
LINE
  8
1
 62
7
 10
-463.8054767443008
 20
83.26978417266189
 30
0
 11
-463.8054767443008
 21
12.2697841726619
 31
0
  0
LINE
  8
1
 62
7
 10
-505.8054767443008
 20
86.76978417266189
 30
0
 11
-507.3054767443008
 21
85.26978417266189
 31
0
  0
LINE
  8
1
 62
7
 10
-507.3054767443008
 20
85.26978417266189
 30
0
 11
-507.3054767443008
 21
10.2697841726619
 31
0
  0
LINE
  8
1
 62
7
 10
-479.8054767443008
 20
86.76978417266189
 30
0
 11
-479.8054767443008
 21
8.769784172661895
 31
0
  0
LINE
  8
1
 62
7
 10
-477.8054767443008
 20
84.76978417266189
 30
0
 11
-477.8054767443008
 21
10.7697841726619
 31
0
  0
LINE
  8
1
 62
7
 10
-477.8054767443008
 20
83.56978417266188
 30
0
 11
-475.8054767443008
 21
83.56978417266188
 31
0
  0
LINE
  8
1
 62
7
 10
-462.8054767443008
 20
66.21978417266189
 30
0
 11
-462.3054767443008
 21
66.21978417266189
 31
0
  0
LINE
  8
1
 62
7
 10
-475.8054767443008
 20
87.76978417266189
 30
0
 11
-467.3054767443008
 21
87.76978417266189
 31
0
  0
LINE
  8
1
 62
7
 10
-475.8054767443008
 20
87.76978417266189
 30
0
 11
-475.8054767443008
 21
7.769784172661896
 31
0
  0
LINE
  8
1
 62
7
 10
-467.3054767443008
 20
83.26978417266189
 30
0
 11
-463.8054767443008
 21
83.26978417266189
 31
0
  0
LINE
  8
1
 62
7
 10
-462.8054767443008
 20
75.1254377446873
 30
0
 11
-463.8054767443008
 21
83.26978417266189
 31
0
  0
LINE
  8
1
 62
7
 10
-477.8054767443008
 20
84.76978417266189
 30
0
 11
-479.8054767443008
 21
86.76978417266189
 31
0
  0
LINE
  8
1
 62
7
 10
-479.8054767443008
 20
86.76978417266189
 30
0
 11
-505.8054767443008
 21
86.76978417266189
 31
0
  0
LINE
  8
1
 62
7
 10
-462.3054767443008
 20
66.21978417266189
 30
0
 11
-462.3054767443008
 21
29.31978417266189
 31
0
  0
LINE
  8
1
 62
3
 10
-378.3054767443008
 20
47.7697841726619
 30
0
 11
-375.3054767443008
 21
47.7697841726619
 31
0
  0
LINE
  8
1
 62
3
 10
-426.3054767443008
 20
47.7697841726619
 30
0
 11
-423.3054767443008
 21
47.7697841726619
 31
0
  0
LINE
  8
1
 62
7
 10
-379.8054767443008
 20
30.7697841726619
 30
0
 11
-381.3054767443008
 21
30.7697841726619
 31
0
  0
LINE
  8
1
 62
7
 10
-381.3054767443008
 20
29.3197841726619
 30
0
 11
-391.8054767443008
 21
29.3197841726619
 31
0
  0
LINE
  8
1
 62
7
 10
-378.3054767443008
 20
32.0197841726619
 30
0
 11
-391.8054767443008
 21
32.0197841726619
 31
0
  0
LINE
  8
1
 62
7
 10
-393.8054767443008
 20
11.7697841726619
 30
0
 11
-393.8054767443008
 21
10.7697841726619
 31
0
  0
LINE
  8
1
 62
7
 10
-393.8054767443008
 20
11.7697841726619
 30
0
 11
-393.8054767443008
 21
10.7697841726619
 31
0
  0
LINE
  8
1
 62
7
 10
-393.8054767443008
 20
11.7697841726619
 30
0
 11
-393.8054767443008
 21
10.7697841726619
 31
0
  0
LINE
  8
1
 62
7
 10
-391.8054767443008
 20
12.4697841726619
 30
0
 11
-397.8054767443008
 21
12.4697841726619
 31
0
  0
LINE
  8
1
 62
7
 10
-391.8054767443008
 20
7.7697841726619
 30
0
 11
-391.8054767443008
 21
32.2697841726619
 31
0
  0
LINE
  8
1
 62
7
 10
-395.8054767443008
 20
8.7697841726619
 30
0
 11
-393.8054767443008
 21
10.7697841726619
 31
0
  0
LINE
  8
1
 62
7
 10
-393.8054767443008
 20
11.7697841726619
 30
0
 11
-393.8054767443008
 21
10.7697841726619
 31
0
  0
LINE
  8
1
 62
7
 10
-423.3054767443008
 20
30.5237410071943
 30
0
 11
-423.3054767443008
 21
10.2697841726619
 31
0
  0
LINE
  8
1
 62
3
 10
-391.8054767443008
 20
7.7697841726619
 30
0
 11
-383.3054767443008
 21
32.0197841726619
 31
0
  0
LINE
  8
1
 62
3
 10
-383.3054767443008
 20
7.7697841726619
 30
0
 11
-391.8054767443008
 21
32.0197841726619
 31
0
  0
LINE
  8
1
 62
7
 10
-383.3054767443008
 20
7.7697841726619
 30
0
 11
-391.8054767443008
 21
7.7697841726619
 31
0
  0
LINE
  8
1
 62
7
 10
-383.3054767443008
 20
7.7697841726619
 30
0
 11
-383.3054767443008
 21
32.0197841726619
 31
0
  0
LINE
  8
1
 62
7
 10
-381.3054767443008
 20
29.0197841726619
 30
0
 11
-383.3054767443008
 21
29.0197841726619
 31
0
  0
LINE
  8
1
 62
7
 10
-381.3054767443008
 20
31.5697841726619
 30
0
 11
-383.3054767443008
 21
31.5697841726619
 31
0
  0
LINE
  8
1
 62
7
 10
-381.3054767443008
 20
31.5697841726619
 30
0
 11
-381.3054767443008
 21
26.7697841726619
 31
0
  0
LINE
  8
1
 62
7
 10
-379.8054767443008
 20
12.2697841726619
 30
0
 11
-383.3054767443008
 21
12.2697841726619
 31
0
  0
LINE
  8
1
 62
7
 10
-381.3054767443008
 20
26.7697841726619
 30
0
 11
-378.8054767443008
 21
26.7697841726619
 31
0
  0
LINE
  8
1
 62
7
 10
-378.8054767443008
 20
20.4141306006365
 30
0
 11
-378.8054767443008
 21
28.4345323741007
 31
0
  0
LINE
  8
1
 62
7
 10
-379.8054767443008
 20
12.2697841726619
 30
0
 11
-378.8054767443008
 21
20.4141306006365
 31
0
  0
LINE
  8
1
 62
7
 10
-379.8054767443008
 20
28.4697841726619
 30
0
 11
-381.3054767443008
 21
28.4697841726619
 31
0
  0
LINE
  8
1
 62
7
 10
-379.8054767443008
 20
28.4697841726619
 30
0
 11
-379.8054767443008
 21
30.7697841726619
 31
0
  0
LINE
  8
1
 62
7
  6
DASHED
 10
-402.8054767443008
 20
37.2697841726619
 30
0
 11
-402.8054767443008
 21
32.7697841726619
 31
0
  0
LINE
  8
1
 62
7
  6
DASHED
 10
-400.8054767443008
 20
37.2697841726619
 30
0
 11
-400.8054767443008
 21
26.4697841726619
 31
0
  0
LINE
  8
1
 62
3
  6
DASHDOT
 10
-401.8054767443008
 20
37.93
 30
0
 11
-401.8054767443008
 21
31.32478417266191
 31
0
  0
LINE
  8
1
 62
7
  6
DASHED
 10
-389.3054767443008
 20
37.2697841726619
 30
0
 11
-389.3054767443008
 21
32.0197841726619
 31
0
  0
LINE
  8
1
 62
7
  6
DASHED
 10
-387.3054767443008
 20
37.2697841726619
 30
0
 11
-387.3054767443008
 21
32.0197841726619
 31
0
  0
LINE
  8
1
 62
3
  6
DASHDOT
 10
-388.3054767443008
 20
38.0534532374101
 30
0
 11
-388.3054767443008
 21
30.5197841726619
 31
0
  0
LINE
  8
1
 62
7
 10
-398.8054767443008
 20
20.2697841726619
 30
0
 11
-398.8054767443008
 21
11.7697841726619
 31
0
  0
LINE
  8
1
 62
7
 10
-398.8054767443008
 20
20.2697841726619
 30
0
 11
-396.8054767443008
 21
22.2697841726619
 31
0
  0
LINE
  8
1
 62
7
 10
-395.8054767443008
 20
8.7697841726619
 30
0
 11
-393.8054767443008
 21
10.7697841726619
 31
0
  0
LINE
  8
1
 62
7
 10
-422.0554767443008
 20
24.2697841726619
 30
0
 11
-423.3054767443008
 21
24.2697841726619
 31
0
  0
LINE
  8
1
 62
7
 10
-422.0554767443008
 20
27.41978417266191
 30
0
 11
-422.0554767443008
 21
23.0197841726619
 31
0
  0
LINE
  8
1
 62
7
 10
-420.3054767443008
 20
27.41978417266191
 30
0
 11
-422.0554767443008
 21
27.41978417266191
 31
0
  0
LINE
  8
1
 62
7
 10
-420.3054767443008
 20
23.0197841726619
 30
0
 11
-422.0554767443008
 21
23.0197841726619
 31
0
  0
LINE
  8
1
 62
7
 10
-395.8054767443008
 20
8.7697841726619
 30
0
 11
-421.8054767443008
 21
8.7697841726619
 31
0
  0
LINE
  8
1
 62
7
 10
-393.8054767443008
 20
11.7697841726619
 30
0
 11
-393.8054767443008
 21
10.7697841726619
 31
0
  0
LINE
  8
1
 62
7
 10
-398.8054767443008
 20
11.7697841726619
 30
0
 11
-393.8054767443008
 21
11.7697841726619
 31
0
  0
LINE
  8
1
 62
7
 10
-396.8054767443008
 20
25.7697841726619
 30
0
 11
-396.8054767443008
 21
22.2697841726619
 31
0
  0
LINE
  8
1
 62
7
 10
-402.3054767443008
 20
25.7697841726619
 30
0
 11
-396.8054767443008
 21
25.7697841726619
 31
0
  0
LINE
  8
1
 62
7
 10
-396.3054767443008
 20
15.7697841726619
 30
0
 11
-396.3054767443008
 21
26.4697841726619
 31
0
  0
LINE
  8
1
 62
7
 10
-397.8054767443008
 20
15.7697841726619
 30
0
 11
-396.3054767443008
 21
15.7697841726619
 31
0
  0
LINE
  8
1
 62
7
 10
-401.8054767443008
 20
26.4697841726619
 30
0
 11
-396.3054767443008
 21
26.4697841726619
 31
0
  0
LINE
  8
1
 62
7
 10
-401.8054767443008
 20
30.2697841726619
 30
0
 11
-401.8054767443008
 21
26.4697841726619
 31
0
  0
LINE
  8
1
 62
7
 10
-402.3054767443008
 20
30.2697841726619
 30
0
 11
-401.8054767443008
 21
30.2697841726619
 31
0
  0
LINE
  8
1
 62
7
 10
-397.8054767443008
 20
12.4697841726619
 30
0
 11
-397.8054767443008
 21
15.7697841726619
 31
0
  0
LINE
  8
1
 62
7
 10
-420.3054767443008
 20
24.2697841726619
 30
0
 11
-402.3054767443008
 21
24.2697841726619
 31
0
  0
LINE
  8
1
 62
7
 10
-411.3054767443008
 20
32.7697841726619
 30
0
 11
-411.3054767443008
 21
24.2697841726619
 31
0
  0
LINE
  8
1
 62
7
 10
-420.3054767443008
 20
32.7697841726619
 30
0
 11
-402.3054767443008
 21
32.7697841726619
 31
0
  0
LINE
  8
1
 62
7
 10
-417.0804767443008
 20
30.72814895231222
 30
0
 11
-420.3054767443008
 21
30.72814895231221
 31
0
  0
LINE
  8
1
 62
7
 10
-414.5304767443008
 20
30.72814895231222
 30
0
 11
-408.0804767443008
 21
30.72814895231222
 31
0
  0
LINE
  8
1
 62
7
 10
-414.5304767443008
 20
26.31141939301158
 30
0
 11
-408.0804767443008
 21
26.31141939301158
 31
0
  0
LINE
  8
1
 62
7
 10
-417.0804767443008
 20
26.31141939301158
 30
0
 11
-420.3054767443008
 21
26.31141939301159
 31
0
  0
LINE
  8
1
 62
7
 10
-405.5304767443008
 20
30.72814895231222
 30
0
 11
-402.3054767443008
 21
30.72814895231221
 31
0
  0
LINE
  8
1
 62
7
 10
-405.5304767443008
 20
26.31141939301158
 30
0
 11
-402.3054767443008
 21
26.31141939301159
 31
0
  0
LINE
  8
1
 62
7
 10
-402.3054767443008
 20
32.7697841726619
 30
0
 11
-402.3054767443008
 21
24.2697841726619
 31
0
  0
LINE
  8
1
 62
7
 10
-421.8054767443008
 20
30.11978417266189
 30
0
 11
-421.8054767443008
 21
33.4697841726619
 31
0
  0
LINE
  8
1
 62
7
 10
-420.3054767443008
 20
30.11978417266189
 30
0
 11
-421.8054767443008
 21
30.11978417266189
 31
0
  0
LINE
  8
1
 62
7
 10
-404.3054767443008
 20
37.7697841726619
 30
0
 11
-423.3054767443008
 21
37.7697841726619
 31
0
  0
LINE
  8
1
 62
7
 10
-399.3054767443008
 20
37.2697841726619
 30
0
 11
-404.3054767443008
 21
37.2697841726619
 31
0
  0
LINE
  8
1
 62
7
 10
-390.8054767443008
 20
37.7697841726619
 30
0
 11
-399.3054767443008
 21
37.7697841726619
 31
0
  0
LINE
  8
1
 62
7
 10
-385.8054767443008
 20
37.2697841726619
 30
0
 11
-390.8054767443008
 21
37.2697841726619
 31
0
  0
LINE
  8
1
 62
7
 10
-378.3054767443008
 20
37.7697841726619
 30
0
 11
-385.8054767443008
 21
37.7697841726619
 31
0
  0
LINE
  8
1
 62
7
 10
-421.8054767443008
 20
32.7697841726619
 30
0
 11
-423.3054767443008
 21
32.7697841726619
 31
0
  0
LINE
  8
1
 62
7
 10
-420.3054767443008
 20
33.4697841726619
 30
0
 11
-421.8054767443008
 21
33.4697841726619
 31
0
  0
LINE
  8
1
 62
7
 10
-402.3054767443008
 20
32.2697841726619
 30
0
 11
-391.8054767443008
 21
32.2697841726619
 31
0
  0
LINE
  8
1
 62
7
 10
-378.3054767443008
 20
29.3197841726619
 30
0
 11
-379.8054767443008
 21
29.3197841726619
 31
0
  0
LINE
  8
1
 62
7
 10
-378.3054767443008
 20
29.3197841726619
 30
0
 11
-378.3054767443008
 21
66.2197841726619
 31
0
  0
LINE
  8
1
 62
7
 10
-381.3054767443008
 20
64.7697841726619
 30
0
 11
-379.8054767443008
 21
64.7697841726619
 31
0
  0
LINE
  8
1
 62
7
 10
-391.8054767443008
 20
66.2197841726619
 30
0
 11
-381.3054767443008
 21
66.2197841726619
 31
0
  0
LINE
  8
1
 62
7
 10
-391.8054767443008
 20
63.5197841726619
 30
0
 11
-378.3054767443008
 21
63.5197841726619
 31
0
  0
LINE
  8
1
 62
7
 10
-498.1007219897162
 20
111.552124349194
 30
0
 11
-498.1007219897162
 21
106.552124349194
 31
0
  0
LINE
  8
1
 62
7
 10
-498.5064958334797
 20
111.552124349194
 30
0
 11
-498.5064958334797
 21
106.552124349194
 31
0
  0
LINE
  8
1
 62
7
 10
-499.4448478471825
 20
111.552124349194
 30
0
 11
-499.4448478471825
 21
106.552124349194
 31
0
  0
LINE
  8
1
 62
7
 10
-499.0644348686543
 20
111.552124349194
 30
0
 11
-499.0644348686543
 21
106.552124349194
 31
0
  0
LINE
  8
1
 62
7
 10
-498.8054767443008
 20
111.552124349194
 30
0
 11
-498.8054767443008
 21
106.552124349194
 31
0
  0
LINE
  8
1
 62
7
 10
-499.9654767443008
 20
106.552124349194
 30
0
 11
-497.6454767443008
 21
106.552124349194
 31
0
  0
LINE
  8
1
 62
7
 10
-497.6454767443008
 20
86.7697841726619
 30
0
 11
-497.6454767443008
 21
106.552124349194
 31
0
  0
LINE
  8
1
 62
7
 10
-499.9654767443008
 20
106.552124349194
 30
0
 11
-499.9654767443008
 21
86.7697841726619
 31
0
  0
LINE
  8
1
 62
7
 10
-507.3054767443008
 20
10.2697841726619
 30
0
 11
-505.8054767443008
 21
8.769784172661895
 31
0
  0
LINE
  8
1
 62
7
 10
-475.8054767443008
 20
11.9697841726619
 30
0
 11
-477.8054767443008
 21
11.9697841726619
 31
0
  0
LINE
  8
1
 62
7
 10
-462.3054767443008
 20
29.31978417266189
 30
0
 11
-462.8054767443008
 21
29.31978417266189
 31
0
  0
LINE
  8
1
 62
7
 10
-505.8054767443008
 20
8.769784172661895
 30
0
 11
-479.8054767443008
 21
8.769784172661895
 31
0
  0
LINE
  8
1
 62
7
 10
-467.3054767443008
 20
7.769784172661896
 30
0
 11
-475.8054767443008
 21
7.769784172661896
 31
0
  0
LINE
  8
1
 62
7
 10
-467.3054767443008
 20
7.769784172661896
 30
0
 11
-467.3054767443008
 21
87.76978417266189
 31
0
  0
LINE
  8
1
 62
7
 10
-463.8054767443008
 20
12.2697841726619
 30
0
 11
-467.3054767443008
 21
12.2697841726619
 31
0
  0
LINE
  8
1
 62
7
 10
-462.8054767443008
 20
20.41413060063649
 30
0
 11
-462.8054767443008
 21
75.1254377446873
 31
0
  0
LINE
  8
1
 62
7
 10
-463.8054767443008
 20
12.2697841726619
 30
0
 11
-462.8054767443008
 21
20.41413060063649
 31
0
  0
LINE
  8
1
 62
7
 10
-479.8054767443008
 20
8.769784172661895
 30
0
 11
-477.8054767443008
 21
10.7697841726619
 31
0
  0
LINE
  8
1
 62
7
 10
-507.2054767443008
 20
100.7697841726619
 30
0
 11
-505.2054767443008
 21
100.7697841726619
 31
0
  0
LINE
  8
1
 62
7
 10
-505.2054767443008
 20
100.7697841726619
 30
0
 11
-505.2054767443008
 21
86.7697841726619
 31
0
  0
LINE
  8
1
 62
7
 10
-314.0853919892626
 20
104.6669908185897
 30
0
 11
-315.3794872147753
 21
109.496619950035
 31
0
  0
LINE
  8
1
 62
7
 10
-313.693444553939
 20
104.7720128173601
 30
0
 11
-314.9875397794516
 21
109.6016419488054
 31
0
  0
LINE
  8
1
 62
7
 10
-312.7870661097531
 20
105.0148761895167
 30
0
 11
-314.0811613352657
 21
109.844505320962
 31
0
  0
LINE
  8
1
 62
7
 10
-313.1545168303691
 20
104.9164180656694
 30
0
 11
-314.4486120558817
 21
109.7460471971147
 31
0
  0
LINE
  8
1
 62
7
 10
-313.4046511706095
 20
104.8493947712027
 30
0
 11
-314.6987463961221
 21
109.679023902648
 31
0
  0
LINE
  8
1
 62
7
 10
-314.5251251291048
 20
104.5491646788838
 30
0
 11
-312.3581809504669
 21
96.46201890704151
 31
0
  0
LINE
  8
1
 62
7
 10
-316.3263399062533
 20
104.0665306339518
 30
0
 11
-317.6204351317659
 21
108.8961597653972
 31
0
  0
LINE
  8
1
 62
7
 10
-315.9343924709297
 20
104.1715526327222
 30
0
 11
-317.2284876964422
 21
109.0011817641676
 31
0
  0
LINE
  8
1
 62
7
 10
-315.0280140267437
 20
104.4144160048788
 30
0
 11
-316.3221092522563
 21
109.2440451363242
 31
0
  0
LINE
  8
1
 62
7
 10
-315.3954647473597
 20
104.3159578810316
 30
0
 11
-316.6895599728723
 21
109.1455870124769
 31
0
  0
LINE
  8
1
 62
7
 10
-315.6455990876001
 20
104.2489345865648
 30
0
 11
-316.9396943131127
 21
109.0785637180102
 31
0
  0
LINE
  8
1
 62
7
 10
-316.7660730460954
 20
103.9487044942459
 30
0
 11
-312.2841772121141
 21
105.1496248635216
 31
0
  0
LINE
  8
1
 62
7
 10
-314.5251251291048
 20
104.5491646788838
 30
0
 11
-309.663897779824
 21
86.40681722422464
 31
0
  0
LINE
  8
1
 62
7
 10
-316.7660730460954
 20
103.9487044942459
 30
0
 11
-311.8874176821526
 21
85.74131480339274
 31
0
  0
LINE
  8
1
 62
7
 10
-414.1007219897162
 20
111.552124349194
 30
0
 11
-414.1007219897162
 21
106.552124349194
 31
0
  0
LINE
  8
1
 62
7
 10
-414.5064958334797
 20
111.552124349194
 30
0
 11
-414.5064958334797
 21
106.552124349194
 31
0
  0
LINE
  8
1
 62
7
 10
-415.4448478471825
 20
111.552124349194
 30
0
 11
-415.4448478471825
 21
106.552124349194
 31
0
  0
LINE
  8
1
 62
7
 10
-415.0644348686543
 20
111.552124349194
 30
0
 11
-415.0644348686543
 21
106.552124349194
 31
0
  0
LINE
  8
1
 62
7
 10
-414.8054767443008
 20
111.552124349194
 30
0
 11
-414.8054767443008
 21
106.552124349194
 31
0
  0
LINE
  8
1
 62
7
 10
-415.9654767443008
 20
106.552124349194
 30
0
 11
-413.6454767443008
 21
106.552124349194
 31
0
  0
LINE
  8
1
 62
7
 10
-415.9654767443008
 20
86.7697841726619
 30
0
 11
-415.9654767443008
 21
106.552124349194
 31
0
  0
LINE
  8
1
 62
7
 10
-413.6454767443008
 20
86.7697841726619
 30
0
 11
-413.6454767443008
 21
106.552124349194
 31
0
  0
LINE
  8
1
 62
7
  6
DASHED
 10
-292.9826191171746
 20
40.0270537517402
 30
0
 11
-288.9037814564238
 21
35.94821609098939
 31
0
  0
LINE
  8
1
 62
7
  6
DASHED
 10
-307.0538663966449
 20
41.4412673141133
 30
0
 11
-311.1327040573958
 21
37.36242965336249
 31
0
  0
LINE
  8
1
 62
7
  6
DASHED
 10
-305.6396528342718
 20
55.5125145935836
 30
0
 11
-309.7184904950226
 21
59.59135225433441
 31
0
  0
LINE
  8
1
 62
3
  6
DASHDOT
 10
-293.2938962067086
 20
41.7525444036473
 30
0
 11
-287.3679802394639
 21
35.82662843640259
 31
0
  0
LINE
  8
1
 62
3
  6
DASHDOT
 10
-305.3283757447378
 20
41.75254440364731
 30
0
 11
-311.2542917119825
 21
35.8266284364026
 31
0
  0
LINE
  8
1
 62
3
  6
DASHDOT
 10
-305.3283757447378
 20
53.7870239416765
 30
0
 11
-311.2542917119825
 21
59.71293990892121
 31
0
  0
LINE
  8
1
 62
7
  6
DASHED
 10
-291.5684055548015
 20
41.4412673141133
 30
0
 11
-287.4895678940507
 21
37.36242965336248
 31
0
  0
LINE
  8
1
 62
7
  6
DASHED
 10
-305.6396528342718
 20
40.0270537517402
 30
0
 11
-309.7184904950226
 21
35.9482160909894
 31
0
  0
LINE
  8
1
 62
7
  6
DASHED
 10
-307.0538663966449
 20
54.0983010312105
 30
0
 11
-311.1327040573957
 21
58.17713869196132
 31
0
  0
LINE
  8
1
 62
7
  6
DASHED
 10
-291.5684055548015
 20
54.0983010312105
 30
0
 11
-287.4895678940507
 21
58.17713869196131
 31
0
  0
LINE
  8
1
 62
7
  6
DASHED
 10
-292.9826191171746
 20
55.5125145935836
 30
0
 11
-288.9037814564238
 21
59.5913522543344
 31
0
  0
LINE
  8
1
 62
3
  6
DASHDOT
 10
-293.2938962067086
 20
53.78702394167649
 30
0
 11
-287.3679802394639
 21
59.7129399089212
 31
0
  0
LINE
  8
1
 62
7
 10
-303.3111359757232
 20
100.7697841726619
 30
0
 11
-295.3111359757232
 21
100.7697841726619
 31
0
  0
LINE
  8
1
 62
7
 10
-293.3111359757232
 20
98.7697841726619
 30
0
 11
-293.3111359757232
 21
87.31722403923229
 31
0
  0
LINE
  8
1
 62
7
 10
-305.3111359757232
 20
98.7697841726619
 30
0
 11
-305.3111359757232
 21
87.31722403923229
 31
0
  0
LINE
  8
1
 62
7
 10
-302.3111359757232
 20
59.4697841726619
 30
0
 11
-296.3111359757232
 21
59.4697841726619
 31
0
  0
LINE
  8
1
 62
7
 10
-296.3111359757232
 20
59.4697841726619
 30
0
 11
-296.3111359757232
 21
57.30917618683136
 31
0
  0
LINE
  8
1
 62
7
 10
-302.3111359757232
 20
59.4697841726619
 30
0
 11
-302.3111359757232
 21
57.30917618683136
 31
0
  0
LINE
  8
1
 62
7
 10
-269.7012087375912
 20
69.48388578779964
 30
0
 11
-265.7012087375912
 21
62.55568255752412
 31
0
  0
LINE
  8
1
 62
7
 10
-262.843760096495
 20
64.20543129965652
 30
0
 11
-265.7012087375912
 21
62.55568255752412
 31
0
  0
LINE
  8
1
 62
7
 10
-266.843760096495
 20
71.13363452993204
 30
0
 11
-269.7012087375912
 21
69.48388578779964
 31
0
  0
LINE
  8
1
 62
7
 10
-265.7012087375912
 20
32.98388578779964
 30
0
 11
-269.7012087375912
 21
26.05568255752413
 31
0
  0
LINE
  8
1
 62
7
 10
-266.843760096495
 20
24.40593381539173
 30
0
 11
-269.7012087375912
 21
26.05568255752413
 31
0
  0
LINE
  8
1
 62
7
 10
-262.843760096495
 20
31.33413704566723
 30
0
 11
-265.7012087375912
 21
32.98388578779964
 31
0
  0
LINE
  8
1
 62
7
 10
-295.3111359757232
 20
11.26978417266189
 30
0
 11
-303.3111359757232
 21
11.26978417266189
 31
0
  0
LINE
  8
1
 62
7
 10
-303.3111359757232
 20
7.970286688397089
 30
0
 11
-303.3111359757232
 21
11.26978417266189
 31
0
  0
LINE
  8
1
 62
7
 10
-295.3111359757232
 20
7.970286688397086
 30
0
 11
-295.3111359757232
 21
11.26978417266189
 31
0
  0
LINE
  8
1
 62
7
 10
-328.9210632138552
 20
26.05568255752415
 30
0
 11
-332.9210632138552
 21
32.98388578779966
 31
0
  0
LINE
  8
1
 62
7
 10
-335.7785118549514
 20
31.33413704566726
 30
0
 11
-332.9210632138552
 21
32.98388578779966
 31
0
  0
LINE
  8
1
 62
7
 10
-331.7785118549514
 20
24.40593381539175
 30
0
 11
-328.9210632138552
 21
26.05568255752415
 31
0
  0
LINE
  8
1
 62
7
 10
-332.9210632138552
 20
62.55568255752414
 30
0
 11
-328.9210632138552
 21
69.48388578779965
 31
0
  0
LINE
  8
1
 62
7
 10
-331.7785118549514
 20
71.13363452993205
 30
0
 11
-328.9210632138552
 21
69.48388578779965
 31
0
  0
LINE
  8
1
 62
7
 10
-335.7785118549514
 20
64.20543129965655
 30
0
 11
-332.9210632138552
 21
62.55568255752414
 31
0
  0
LINE
  8
1
 62
7
 10
-303.3111359757232
 20
84.2697841726619
 30
0
 11
-295.3111359757232
 21
84.2697841726619
 31
0
  0
LINE
  8
1
 62
7
 10
-295.3111359757232
 20
87.56928165692671
 30
0
 11
-295.3111359757232
 21
84.2697841726619
 31
0
  0
LINE
  8
1
 62
7
 10
-303.3111359757232
 20
87.56928165692671
 30
0
 11
-303.3111359757232
 21
84.2697841726619
 31
0
  0
LINE
  8
1
 62
7
 10
-393.8054767443008
 20
84.7697841726619
 30
0
 11
-393.8054767443008
 21
83.7697841726619
 31
0
  0
LINE
  8
1
 62
7
 10
-393.8054767443008
 20
84.7697841726619
 30
0
 11
-393.8054767443008
 21
83.7697841726619
 31
0
  0
LINE
  8
1
 62
7
 10
-393.8054767443008
 20
84.7697841726619
 30
0
 11
-393.8054767443008
 21
83.7697841726619
 31
0
  0
LINE
  8
1
 62
7
 10
-397.8054767443008
 20
83.0697841726619
 30
0
 11
-391.8054767443008
 21
83.0697841726619
 31
0
  0
LINE
  8
1
 62
7
 10
-391.8054767443008
 20
87.7697841726619
 30
0
 11
-391.8054767443008
 21
63.2697841726619
 31
0
  0
LINE
  8
1
 62
7
 10
-393.8054767443008
 20
84.7697841726619
 30
0
 11
-395.8054767443008
 21
86.7697841726619
 31
0
  0
LINE
  8
1
 62
7
 10
-393.8054767443008
 20
84.7697841726619
 30
0
 11
-393.8054767443008
 21
83.7697841726619
 31
0
  0
LINE
  8
1
 62
7
 10
-423.3054767443008
 20
59.4697841726619
 30
0
 11
-378.3054767443008
 21
59.4697841726619
 31
0
  0
LINE
  8
1
 62
3
  6
DASHDOT
 10
-424.489609922965
 20
94.7697841726619
 30
0
 11
-420.1275955344758
 21
94.7697841726619
 31
0
  0
LINE
  8
1
 62
7
 10
-423.2054767443008
 20
92.0197841726619
 30
0
 11
-421.2054767443008
 21
92.0197841726619
 31
0
  0
LINE
  8
1
 62
7
 10
-423.2054767443008
 20
97.5197841726619
 30
0
 11
-421.2054767443008
 21
97.5197841726619
 31
0
  0
LINE
  8
1
 62
7
 10
-423.2054767443008
 20
100.7697841726619
 30
0
 11
-423.2054767443008
 21
72.7697841726619
 31
0
  0
LINE
  8
1
 62
7
 10
-423.2054767443008
 20
100.7697841726619
 30
0
 11
-421.2054767443008
 21
100.7697841726619
 31
0
  0
LINE
  8
1
 62
7
 10
-421.2054767443008
 20
100.7697841726619
 30
0
 11
-421.2054767443008
 21
72.7697841726619
 31
0
  0
LINE
  8
1
 62
7
 10
-423.3054767443008
 20
72.7697841726619
 30
0
 11
-421.2054767443008
 21
72.7697841726619
 31
0
  0
LINE
  8
1
 62
7
 10
-423.3054767443008
 20
65.0158273381295
 30
0
 11
-423.3054767443008
 21
72.7697841726619
 31
0
  0
LINE
  8
1
 62
3
 10
-383.3054767443008
 20
63.5197841726619
 30
0
 11
-391.8054767443008
 21
87.7697841726619
 31
0
  0
LINE
  8
1
 62
3
 10
-391.8054767443008
 20
63.5197841726619
 30
0
 11
-383.3054767443008
 21
87.7697841726619
 31
0
  0
LINE
  8
1
 62
7
 10
-391.8054767443008
 20
87.7697841726619
 30
0
 11
-383.3054767443008
 21
87.7697841726619
 31
0
  0
LINE
  8
1
 62
7
 10
-383.3054767443008
 20
87.7697841726619
 30
0
 11
-383.3054767443008
 21
63.5197841726619
 31
0
  0
LINE
  8
1
 62
7
 10
-383.3054767443008
 20
66.5197841726619
 30
0
 11
-381.3054767443008
 21
66.5197841726619
 31
0
  0
LINE
  8
1
 62
7
 10
-383.3054767443008
 20
63.9697841726619
 30
0
 11
-381.3054767443008
 21
63.9697841726619
 31
0
  0
LINE
  8
1
 62
7
 10
-381.3054767443008
 20
63.9697841726619
 30
0
 11
-381.3054767443008
 21
68.7697841726619
 31
0
  0
LINE
  8
1
 62
7
 10
-383.3054767443008
 20
83.2697841726619
 30
0
 11
-379.8054767443008
 21
83.2697841726619
 31
0
  0
LINE
  8
1
 62
7
 10
-378.8054767443008
 20
68.7697841726619
 30
0
 11
-381.3054767443008
 21
68.7697841726619
 31
0
  0
LINE
  8
1
 62
7
 10
-378.8054767443008
 20
67.1050359712231
 30
0
 11
-378.8054767443008
 21
75.1254377446873
 31
0
  0
LINE
  8
1
 62
7
 10
-378.8054767443008
 20
75.1254377446873
 30
0
 11
-379.8054767443008
 21
83.2697841726619
 31
0
  0
LINE
  8
1
 62
7
 10
-381.3054767443008
 20
67.0697841726619
 30
0
 11
-379.8054767443008
 21
67.0697841726619
 31
0
  0
LINE
  8
1
 62
7
 10
-379.8054767443008
 20
67.0697841726619
 30
0
 11
-379.8054767443008
 21
64.7697841726619
 31
0
  0
LINE
  8
1
 62
7
 10
-398.8054767443008
 20
83.7697841726619
 30
0
 11
-398.8054767443008
 21
75.2697841726619
 31
0
  0
LINE
  8
1
 62
7
 10
-396.8054767443008
 20
73.2697841726619
 30
0
 11
-398.8054767443008
 21
75.2697841726619
 31
0
  0
LINE
  8
1
 62
7
 10
-393.8054767443008
 20
84.7697841726619
 30
0
 11
-395.8054767443008
 21
86.7697841726619
 31
0
  0
LINE
  8
1
 62
7
 10
-423.3054767443008
 20
71.2697841726619
 30
0
 11
-422.0554767443008
 21
71.2697841726619
 31
0
  0
LINE
  8
1
 62
7
 10
-422.0554767443008
 20
72.5197841726619
 30
0
 11
-422.0554767443008
 21
68.1197841726619
 31
0
  0
LINE
  8
1
 62
7
 10
-422.0554767443008
 20
68.1197841726619
 30
0
 11
-420.3054767443008
 21
68.1197841726619
 31
0
  0
LINE
  8
1
 62
7
 10
-422.0554767443008
 20
72.5197841726619
 30
0
 11
-420.3054767443008
 21
72.5197841726619
 31
0
  0
LINE
  8
1
 62
7
 10
-421.2054767443008
 20
86.7697841726619
 30
0
 11
-395.8054767443008
 21
86.7697841726619
 31
0
  0
LINE
  8
1
 62
7
 10
-393.8054767443008
 20
84.7697841726619
 30
0
 11
-393.8054767443008
 21
83.7697841726619
 31
0
  0
LINE
  8
1
 62
7
 10
-393.8054767443008
 20
83.7697841726619
 30
0
 11
-398.8054767443008
 21
83.7697841726619
 31
0
  0
LINE
  8
1
 62
7
 10
-396.8054767443008
 20
73.2697841726619
 30
0
 11
-396.8054767443008
 21
69.7697841726619
 31
0
  0
LINE
  8
1
 62
7
 10
-396.8054767443008
 20
69.7697841726619
 30
0
 11
-402.3054767443008
 21
69.7697841726619
 31
0
  0
LINE
  8
1
 62
7
 10
-396.3054767443008
 20
69.0697841726619
 30
0
 11
-396.3054767443008
 21
79.7697841726619
 31
0
  0
LINE
  8
1
 62
7
 10
-396.3054767443008
 20
79.7697841726619
 30
0
 11
-397.8054767443008
 21
79.7697841726619
 31
0
  0
LINE
  8
1
 62
7
 10
-396.3054767443008
 20
69.0697841726619
 30
0
 11
-401.8054767443008
 21
69.0697841726619
 31
0
  0
LINE
  8
1
 62
7
 10
-401.8054767443008
 20
69.0697841726619
 30
0
 11
-401.8054767443008
 21
65.2697841726619
 31
0
  0
LINE
  8
1
 62
7
 10
-401.8054767443008
 20
65.2697841726619
 30
0
 11
-402.3054767443008
 21
65.2697841726619
 31
0
  0
LINE
  8
1
 62
7
 10
-397.8054767443008
 20
79.7697841726619
 30
0
 11
-397.8054767443008
 21
83.0697841726619
 31
0
  0
LINE
  8
1
 62
7
 10
-420.3054767443008
 20
71.2697841726619
 30
0
 11
-402.3054767443008
 21
71.2697841726619
 31
0
  0
LINE
  8
1
 62
7
 10
-420.3054767443008
 20
72.5197841726619
 30
0
 11
-420.3054767443008
 21
62.0697841726619
 31
0
  0
LINE
  8
1
 62
7
 10
-420.3054767443008
 20
62.7697841726619
 30
0
 11
-402.3054767443008
 21
62.7697841726619
 31
0
  0
LINE
  8
1
 62
7
 10
-420.3054767443008
 20
64.81141939301159
 30
0
 11
-417.0804767443008
 21
64.81141939301158
 31
0
  0
LINE
  8
1
 62
7
 10
-414.5304767443008
 20
64.81141939301158
 30
0
 11
-408.0804767443008
 21
64.81141939301158
 31
0
  0
LINE
  8
1
 62
7
 10
-414.5304767443008
 20
69.22814895231223
 30
0
 11
-408.0804767443008
 21
69.22814895231223
 31
0
  0
LINE
  8
1
 62
7
 10
-420.3054767443008
 20
69.22814895231221
 30
0
 11
-417.0804767443008
 21
69.22814895231223
 31
0
  0
LINE
  8
1
 62
7
 10
-411.3054767443008
 20
62.7697841726619
 30
0
 11
-411.3054767443008
 21
71.2697841726619
 31
0
  0
LINE
  8
1
 62
7
 10
-402.3054767443008
 20
71.2697841726619
 30
0
 11
-402.3054767443008
 21
62.7697841726619
 31
0
  0
LINE
  8
1
 62
7
 10
-402.3054767443008
 20
64.81141939301159
 30
0
 11
-405.5304767443008
 21
64.81141939301158
 31
0
  0
LINE
  8
1
 62
7
 10
-402.3054767443008
 20
69.22814895231221
 30
0
 11
-405.5304767443008
 21
69.22814895231223
 31
0
  0
LINE
  8
1
 62
7
 10
-421.8054767443008
 20
65.41978417266191
 30
0
 11
-421.8054767443008
 21
62.0697841726619
 31
0
  0
LINE
  8
1
 62
7
 10
-421.8054767443008
 20
65.41978417266191
 30
0
 11
-420.3054767443008
 21
65.41978417266191
 31
0
  0
LINE
  8
1
 62
7
 10
-385.8054767443008
 20
58.2697841726619
 30
0
 11
-385.8054767443008
 21
37.2697841726619
 31
0
  0
LINE
  8
1
 62
7
 10
-390.8054767443008
 20
58.2697841726619
 30
0
 11
-390.8054767443008
 21
37.2697841726619
 31
0
  0
LINE
  8
1
 62
7
 10
-399.3054767443008
 20
58.2697841726619
 30
0
 11
-399.3054767443008
 21
37.2697841726619
 31
0
  0
LINE
  8
1
 62
7
 10
-404.3054767443008
 20
58.2697841726619
 30
0
 11
-404.3054767443008
 21
37.2697841726619
 31
0
  0
LINE
  8
1
 62
7
 10
-423.3054767443008
 20
57.7697841726619
 30
0
 11
-404.3054767443008
 21
57.7697841726619
 31
0
  0
LINE
  8
1
 62
7
 10
-404.3054767443008
 20
58.2697841726619
 30
0
 11
-399.3054767443008
 21
58.2697841726619
 31
0
  0
LINE
  8
1
 62
7
 10
-399.3054767443008
 20
57.7697841726619
 30
0
 11
-390.8054767443008
 21
57.7697841726619
 31
0
  0
LINE
  8
1
 62
7
 10
-390.8054767443008
 20
58.2697841726619
 30
0
 11
-385.8054767443008
 21
58.2697841726619
 31
0
  0
LINE
  8
1
 62
7
 10
-385.8054767443008
 20
57.7697841726619
 30
0
 11
-378.3054767443008
 21
57.7697841726619
 31
0
  0
LINE
  8
1
 62
7
 10
-423.3054767443008
 20
62.7697841726619
 30
0
 11
-423.3054767443008
 21
32.7697841726619
 31
0
  0
LINE
  8
1
 62
7
 10
-423.3054767443008
 20
62.7697841726619
 30
0
 11
-421.8054767443008
 21
62.7697841726619
 31
0
  0
LINE
  8
1
 62
7
 10
-421.8054767443008
 20
62.0697841726619
 30
0
 11
-420.3054767443008
 21
62.0697841726619
 31
0
  0
LINE
  8
1
 62
7
 10
-391.8054767443008
 20
63.2697841726619
 30
0
 11
-402.3054767443008
 21
63.2697841726619
 31
0
  0
LINE
  8
1
 62
7
 10
-379.8054767443008
 20
66.2197841726619
 30
0
 11
-378.3054767443008
 21
66.2197841726619
 31
0
  0
LINE
  8
1
 62
7
 10
-420.3054767443008
 20
23.0197841726619
 30
0
 11
-420.3054767443008
 21
33.4697841726619
 31
0
  0
ARC
  8
1
 62
7
 10
-582.2857471692818
 20
98.7697841726619
 30
0
 40
1.999999999999886
 50
0
 51
90
  0
ARC
  8
1
 62
7
 10
-590.2857471692818
 20
98.7697841726619
 30
0
 40
2
 50
90
 51
180
  0
ARC
  8
1
 62
7
 10
-303.3111359757232
 20
98.7697841726619
 30
0
 40
2
 50
90
 51
180
  0
ARC
  8
1
 62
7
 10
-295.3111359757232
 20
98.7697841726619
 30
0
 40
2
 50
0
 51
90
  0
ARC
  8
1
 62
7
 10
-586.2857471692818
 20
79.2697841726619
 30
0
 40
6
 50
180
 51
0
  0
ARC
  8
1
 62
7
 10
-586.2857471692818
 20
47.7697841726619
 30
0
 40
38.99999999999998
 50
98.84988309842903
 51
81.15011690157114
  0
ARC
  8
1
 62
7
 10
-586.2857471692818
 20
47.7697841726619
 30
0
 40
39.99999999999995
 50
35.73917047726676
 51
81.37307344132152
  0
ARC
  8
1
 62
7
 10
-586.2857471692818
 20
47.7697841726619
 30
0
 40
37.50000000000001
 50
99.2068962213459
 51
80.79310377865428
  0
ARC
  8
1
 62
7
 10
-586.2857471692818
 20
47.7697841726619
 30
0
 40
39.99999999999996
 50
335.7391704772668
 51
24.26082952273337
  0
ARC
  8
1
 62
7
 10
-586.2857471692818
 20
47.7697841726619
 30
0
 40
39.99999999999997
 50
275.7391704772668
 51
324.2608295227333
  0
ARC
  8
1
 62
7
 10
-586.2857471692818
 20
47.7697841726619
 30
0
 40
40.00000000000002
 50
215.7391704772666
 51
264.2608295227332
  0
ARC
  8
1
 62
7
 10
-586.2857471692818
 20
47.7697841726619
 30
0
 40
39.99999999999999
 50
155.7391704772667
 51
204.2608295227333
  0
ARC
  8
1
 62
7
 10
-586.2857471692818
 20
47.7697841726619
 30
0
 40
10
 50
107.4576031237221
 51
72.54239687627792
  0
ARC
  8
1
 62
7
 10
-586.2857471692818
 20
47.7697841726619
 30
0
 40
40.00000000000001
 50
98.62692655867863
 51
144.2608295227333
  0
ARC
  8
1
 62
7
 10
-299.3111359757232
 20
47.7697841726619
 30
0
 40
10
 50
107.4576031237221
 51
72.54239687627792
  0
ARC
  8
1
 62
7
 10
-299.3111359757232
 20
47.7697841726619
 30
0
 40
38.99999999999999
 50
24.11315786129223
 51
35.88684213870769
  0
ARC
  8
1
 62
7
 10
-299.3111359757232
 20
47.7697841726619
 30
0
 40
39.00000000000003
 50
324.1131578612922
 51
335.8868421387077
  0
ARC
  8
1
 62
7
 10
-299.3111359757232
 20
47.7697841726619
 30
0
 40
39
 50
264.1131578612923
 51
275.8868421387077
  0
ARC
  8
1
 62
7
 10
-299.3111359757232
 20
47.7697841726619
 30
0
 40
39.00000000000005
 50
204.1131578612922
 51
215.8868421387077
  0
ARC
  8
1
 62
7
 10
-299.3111359757232
 20
47.7697841726619
 30
0
 40
39.00000000000006
 50
144.1131578612923
 51
155.8868421387078
  0
ARC
  8
1
 62
7
 10
-299.3111359757232
 20
47.7697841726619
 30
0
 40
38.99999999999999
 50
84.11315786129228
 51
95.88684213870772
  0
ARC
  8
1
 62
7
 10
-299.3111359757232
 20
47.7697841726619
 30
0
 40
40.00000000000004
 50
335.7391704772668
 51
24.26082952273317
  0
ARC
  8
1
 62
7
 10
-299.3111359757232
 20
47.7697841726619
 30
0
 40
40.00000000000001
 50
275.7391704772668
 51
324.2608295227332
  0
ARC
  8
1
 62
7
 10
-299.3111359757232
 20
47.7697841726619
 30
0
 40
40.00000000000002
 50
215.7391704772668
 51
264.2608295227332
  0
ARC
  8
1
 62
7
 10
-299.3111359757232
 20
47.7697841726619
 30
0
 40
40.00000000000003
 50
155.7391704772668
 51
204.2608295227332
  0
ARC
  8
1
 62
7
 10
-299.3111359757232
 20
47.7697841726619
 30
0
 40
40.00000000000001
 50
95.73917047726677
 51
144.2608295227332
  0
ARC
  8
1
 62
7
 10
-299.3111359757232
 20
47.7697841726619
 30
0
 40
40.00000000000001
 50
35.73917047726675
 51
84.26082952273322
  0
CIRCLE
  8
1
 62
7
 10
-586.2857471692818
 20
47.7697841726619
 30
0
 40
23.5
  0
CIRCLE
  8
1
 62
7
 10
-586.2857471692818
 20
47.7697841726619
 30
0
 40
15
  0
CIRCLE
  8
1
 62
7
 10
-586.2857471692818
 20
94.7697841726619
 30
0
 40
2.75
  0
CIRCLE
  8
1
 62
7
 10
-415.8054767443008
 20
28.5197841726619
 30
0
 40
2.550000000000011
  0
CIRCLE
  8
1
 62
7
 10
-406.8054767443008
 20
28.5197841726619
 30
0
 40
2.549999999999898
  0
CIRCLE
  8
1
 62
7
 10
-299.3111359757232
 20
94.7697841726619
 30
0
 40
2.75
  0
CIRCLE
  8
1
 62
7
 10
-299.3111359757232
 20
47.7697841726619
 30
0
 40
15.75
  0
CIRCLE
  8
1
 62
7
 10
-299.3111359757232
 20
47.7697841726619
 30
0
 40
18.44999999999999
  0
CIRCLE
  8
1
 62
7
 10
-299.3111359757232
 20
47.7697841726619
 30
0
 40
35.5
  0
CIRCLE
  8
1
 62
7
 10
-299.3111359757232
 20
47.7697841726619
 30
0
 40
27.3556535720254
  0
CIRCLE
  8
1
 62
7
 10
-299.3111359757232
 20
47.7697841726619
 30
0
 40
21
  0
CIRCLE
  8
1
 62
7
 10
-415.8054767443008
 20
67.0197841726619
 30
0
 40
2.550000000000011
  0
CIRCLE
  8
1
 62
7
 10
-406.8054767443008
 20
67.0197841726619
 30
0
 40
2.549999999999898
  0
TEXT
  8
1
 62
7
 10
-625.5399516364829
 20
129.798218256397
 30
0
 40
4
  1
DC4301
 41
0.9
  7
SIMPLEX
  0
TEXT
  8
1
 62
7
 10
-625.5399516364829
 20
135.748218256397
 30
0
 40
4
  1
MWC 1.2
 41
0.9
  7
SIMPLEX
  0
ENDSEC
  0
EOF
