  0
SECTION
  2
HEADER
  9
$ACADVER
  1
AC1009
  9
$INSBASE
 10
0
 20
0
  9
$EXTMIN
 10
-692.5211821472889
 20
-130.677215109717
  9
$EXTMAX
 10
-195.521182147289
 20
44.0465517795469
  9
$LIMMIN
 10
-692.5211821472889
 20
-130.677215109717
  9
$LIMMAX
 10
-195.521182147289
 20
44.0465517795469
  9
$VIEWCTR
 10
10
 20
10
  9
$VIEWSIZE
 40
10
  9
$SNAPMODE
 70
0
  9
$SNAPUNIT
 10
1
 20
1
  9
$SNAPBASE
 10
0
 20
0
  9
$SNAPANG
 50
0
  9
$SNAPSTYLE
 70
0
  9
$SNAPISOPAIR
 70
0
  9
$GRIDMODE
 70
0
  9
$GRIDUNIT
 10
0
 20
0
  9
$ORTHOMODE
 70
0
  9
$REGENMODE
 70
1
  9
$FILLMODE
 70
1
  9
$QTEXTMODE
 70
0
  9
$DRAGMODE
 70
2
  9
$LTSCALE
 40
1
  9
$OSMODE
 70
0
  9
$ATTMODE
 70
1
  9
$TEXTSIZE
 40
3.5
  9
$TRACEWID
 40
0.5
  9
$TEXTSTYLE
  7
STANDARD
  9
$CLAYER
  8
0
  9
$CELTYPE
  6
BYLAYER
  9
$CECOLOR
 62
256
  9
$DIMSCALE
 40
1
  9
$DIMASZ
 40
0.18
  9
$DIMEXO
 40
0.0625
  9
$DIMDLI
 40
0.38
  9
$DIMRND
 40
0
  9
$DIMDLE
 40
0
  9
$DIMEXE
 40
0.18
  9
$DIMTP
 40
0
  9
$DIMTM
 40
0
  9
$DIMTXT
 40
0.18
  9
$DIMCEN
 40
0.09
  9
$DIMTSZ
 40
0
  9
$DIMTOL
 70
0
  9
$DIMLIM
 70
0
  9
$DIMTIH
 70
1
  9
$DIMTOH
 70
1
  9
$DIMSE1
 70
0
  9
$DIMSE2
 70
0
  9
$DIMTAD
 70
0
  9
$DIMZIN
 70
0
  9
$DIMBLK
  1

  9
$DIMASO
 70
1
  9
$DIMSHO
 70
1
  9
$DIMPOST
  1

  9
$DIMAPOST
  1

  9
$DIMALT
 70
0
  9
$DIMALTD
 70
2
  9
$DIMALTF
 40
25.4
  9
$DIMLFAC
 40
1
  9
$DIMTOFL
 70
0
  9
$DIMTVP
 40
0
  9
$DIMTIX
 70
0
  9
$DIMSOXD
 70
0
  9
$DIMSAH
 70
0
  9
$DIMBLK1
  1

  9
$DIMBLK2
  1

  9
$DIMSTYLE
  2
*UNNAMED
  9
$DIMCLRD
 70
0
  9
$DIMCLRE
 70
0
  9
$DIMCLRT
 70
0
  9
$DIMTFAC
 40
1
  9
$DIMGAP
 40
0.09
  9
$LUNITS
 70
2
  9
$LUPREC
 70
4
  9
$AXISMODE
 70
0
  9
$AXISUNIT
 10
0
 20
0
  9
$SKETCHINC
 40
0.1
  9
$FILLETRAD
 40
2
  9
$AUNITS
 70
0
  9
$AUPREC
 70
0
  9
$MENU
  1
ACAD
  9
$ELEVATION
 40
0
  9
$THICKNESS
 40
0
  9
$VIEWDIR
 10
0
 20
0
 30
1
  9
$LIMCHECK
 70
0
  9
$BLIPMODE
 70
1
  9
$CHAMFERA
 40
0
  9
$CHAMFERB
 40
0
  9
$FASTZOOM
 70
1
  9
$SKPOLY
 70
0
  9
$ANGBASE
 50
0
  9
$ANGDIR
 70
0
  9
$PDMODE
 70
0
  9
$PDSIZE
 40
0
  9
$PLINEWID
 40
0
  9
$COORDS
 70
2
  0
ENDSEC
  0
SECTION
  2
TABLES
  0
TABLE
  2
DIMSTYLE
 70
0
  0
ENDTAB
  0
TABLE
  2
LTYPE
 70
9
  0
LTYPE
  2
CONTINUOUS
 70
64
  3
Solid line
 72
65
 73
0
 40
0
  0
LTYPE
  2
BORDER
 70
64
  3
__ __ . __ __ .
 72
65
 73
6
 40
22.88815789473684
 49
6.539473684210525
 49
-3.269736842105262
 49
6.539473684210525
 49
-3.269736842105262
 49
0
 49
-3.269736842105262
  0
LTYPE
  2
CENTER
 70
64
  3
____ _ ____ _
 72
65
 73
4
 40
26.1578947368421
 49
16.34868421052631
 49
-3.269736842105262
 49
3.269736842105262
 49
-3.269736842105262
  0
LTYPE
  2
DASHDOT
 70
64
  3
__ . __ . __ .
 72
65
 73
4
 40
13.07894736842105
 49
6.539473684210525
 49
-3.269736842105262
 49
0
 49
-3.269736842105262
  0
LTYPE
  2
DASHED
 70
64
  3
__ __ __ __ __
 72
65
 73
2
 40
9.809210526315788
 49
6.539473684210525
 49
-3.269736842105262
  0
LTYPE
  2
DIVIDE
 70
64
  3
__ . . __ . . 
 72
65
 73
6
 40
16.34868421052631
 49
6.539473684210525
 49
-3.269736842105262
 49
0
 49
-3.269736842105262
 49
0
 49
-3.269736842105262
  0
LTYPE
  2
DOT
 70
64
  3
..............
 72
65
 73
4
 40
6.539473684210525
 49
0
 49
-3.269736842105262
 49
0
 49
-3.269736842105262
  0
LTYPE
  2
HIDDEN
 70
64
  3
_ _ _ _ _ _ _
 72
65
 73
2
 40
4.904605263157894
 49
3.269736842105262
 49
-1.634868421052631
  0
LTYPE
  2
PHANTOM
 70
64
  3
_____ _ _ _____ _ _ 
 72
65
 73
6
 40
32.69736842105262
 49
16.34868421052631
 49
-3.269736842105262
 49
3.269736842105262
 49
-3.269736842105262
 49
3.269736842105262
 49
-3.269736842105262
  0
ENDTAB
  0
TABLE
  2
LAYER
 70
3
  0
LAYER
  2
1
 70
0
 62
7
  6
CONTINUOUS
  0
LAYER
  2
0
 70
0
 62
7
  6
CONTINUOUS
  0
ENDTAB
  0
TABLE
  2
STYLE
 70
4
  0
STYLE
  2
STANDARD
 70
0
 40
0
 41
1
 50
0
 71
0
 42
3.5
  3
txt
  4

  0
STYLE
  2
SIMPLEX
 70
0
 40
0
 41
1
 50
0
 71
0
 42
3.5
  3
simplex
  4

  0
STYLE
  2
COMPLEX
 70
0
 40
0
 41
1
 50
0
 71
0
 42
3.5
  3
complex
  4

  0
STYLE
  2
ITALIC
 70
0
 40
0
 41
1
 50
0
 71
0
 42
3.5
  3
italic
  4

  0
ENDTAB
  0
TABLE
  2
VIEW
 70
0
  0
ENDTAB
  0
ENDSEC
  0
SECTION
  2
BLOCKS
  0
ENDSEC
  0
SECTION
  2
ENTITIES
  0
LINE
  8
1
 62
7
 10
-418.521182147289
 20
-46.91225758421461
 30
0
 11
-418.521182147289
 21
-37.4646911927189
 31
0
  0
LINE
  8
1
 62
3
 10
-418.521182147289
 20
-72.4646911927189
 30
0
 11
-421.521182147289
 21
-72.4646911927189
 31
0
  0
LINE
  8
1
 62
3
 10
-361.521182147289
 20
-72.4646911927189
 30
0
 11
-358.521182147289
 21
-72.4646911927189
 31
0
  0
LINE
  8
1
 62
7
 10
-391.521182147289
 20
-51.96469119271891
 30
0
 11
-379.221182147289
 21
-51.96469119271891
 31
0
  0
LINE
  8
1
 62
7
 10
-364.521182147289
 20
-45.46469119271892
 30
0
 11
-367.521182147289
 21
-45.46469119271892
 31
0
  0
LINE
  8
1
 62
7
 10
-361.521182147289
 20
-49.46469119271891
 30
0
 11
-379.221182147289
 21
-49.46469119271891
 31
0
  0
LINE
  8
1
 62
7
 10
-367.521182147289
 20
-48.86469119271892
 30
0
 11
-364.521182147289
 21
-48.86469119271892
 31
0
  0
LINE
  8
1
 62
7
 10
-364.521182147289
 20
-45.86469119271892
 30
0
 11
-379.221182147289
 21
-45.86469119271892
 31
0
  0
LINE
  8
1
 62
7
 10
-386.521182147289
 20
-35.46469119271892
 30
0
 11
-386.721182147289
 21
-35.46469119271892
 31
0
  0
LINE
  8
1
 62
7
 10
-391.521182147289
 20
-52.46469119271891
 30
0
 11
-391.521182147289
 21
-41.46469119271892
 31
0
  0
LINE
  8
1
 62
7
 10
-417.021182147289
 20
-39.96469119271892
 30
0
 11
-415.521182147289
 21
-39.96469119271892
 31
0
  0
LINE
  8
1
 62
7
 10
-417.321182147289
 20
-53.71469119271891
 30
0
 11
-415.521182147289
 21
-53.71469119271891
 31
0
  0
LINE
  8
1
 62
7
 10
-415.521182147289
 20
-48.62778131900681
 30
0
 11
-417.321182147289
 21
-48.62778131900681
 31
0
  0
LINE
  8
1
 62
7
 10
-417.321182147289
 20
-53.71469119271891
 30
0
 11
-417.321182147289
 21
-48.62778131900681
 31
0
  0
LINE
  8
1
 62
7
 10
-403.521182147289
 20
-52.46469119271891
 30
0
 11
-403.521182147289
 21
-41.46469119271892
 31
0
  0
LINE
  8
1
 62
7
 10
-415.521182147289
 20
-53.71469119271891
 30
0
 11
-415.521182147289
 21
-39.96469119271892
 31
0
  0
LINE
  8
1
 62
7
 10
-415.521182147289
 20
-49.82257502520753
 30
0
 11
-411.171182147289
 21
-49.82257502520756
 31
0
  0
LINE
  8
1
 62
7
 10
-399.171182147289
 20
-49.82257502520756
 30
0
 11
-407.871182147289
 21
-49.82257502520756
 31
0
  0
LINE
  8
1
 62
7
 10
-417.021182147289
 20
-44.10680736023029
 30
0
 11
-411.171182147289
 21
-44.10680736023026
 31
0
  0
LINE
  8
1
 62
7
 10
-391.521182147289
 20
-41.46469119271892
 30
0
 11
-415.521182147289
 21
-41.46469119271892
 31
0
  0
LINE
  8
1
 62
7
 10
-391.521182147289
 20
-52.46469119271891
 30
0
 11
-415.521182147289
 21
-52.46469119271891
 31
0
  0
LINE
  8
1
 62
7
 10
-391.521182147289
 20
-49.82257502520753
 30
0
 11
-395.871182147289
 21
-49.82257502520756
 31
0
  0
LINE
  8
1
 62
7
 10
-391.521182147289
 20
-44.10680736023029
 30
0
 11
-395.871182147289
 21
-44.10680736023026
 31
0
  0
LINE
  8
1
 62
7
 10
-407.871182147289
 20
-44.10680736023026
 30
0
 11
-399.171182147289
 21
-44.10680736023026
 31
0
  0
LINE
  8
1
 62
7
 10
-364.521182147289
 20
-47.46469119271892
 30
0
 11
-363.021182147289
 21
-47.46469119271892
 31
0
  0
LINE
  8
1
 62
7
 10
-418.521182147289
 20
-52.46469119271891
 30
0
 11
-417.321182147289
 21
-52.46469119271891
 31
0
  0
LINE
  8
1
 62
7
 10
-363.021182147289
 20
-45.86469119271892
 30
0
 11
-361.521182147289
 21
-45.86469119271892
 31
0
  0
LINE
  8
1
 62
7
 10
-361.521182147289
 20
-57.46469119271891
 30
0
 11
-370.521182147289
 21
-57.46469119271891
 31
0
  0
LINE
  8
1
 62
7
 10
-376.521182147289
 20
-56.96469119271891
 30
0
 11
-370.521182147289
 21
-56.96469119271891
 31
0
  0
LINE
  8
1
 62
7
 10
-388.021182147289
 20
-57.46469119271891
 30
0
 11
-376.521182147289
 21
-57.46469119271891
 31
0
  0
LINE
  8
1
 62
7
 10
-394.021182147289
 20
-56.96469119271891
 30
0
 11
-388.021182147289
 21
-56.96469119271891
 31
0
  0
LINE
  8
1
 62
7
 10
-418.521182147289
 20
-57.46469119271891
 30
0
 11
-394.021182147289
 21
-57.46469119271891
 31
0
  0
LINE
  8
1
 62
7
 10
-394.021182147289
 20
-56.96469119271891
 30
0
 11
-394.021182147289
 21
-87.9646911927189
 31
0
  0
LINE
  8
1
 62
7
 10
-388.021182147289
 20
-56.96469119271891
 30
0
 11
-388.021182147289
 21
-87.9646911927189
 31
0
  0
LINE
  8
1
 62
7
 10
-376.521182147289
 20
-56.96469119271891
 30
0
 11
-376.521182147289
 21
-87.9646911927189
 31
0
  0
LINE
  8
1
 62
7
 10
-370.521182147289
 20
-56.96469119271891
 30
0
 11
-370.521182147289
 21
-87.9646911927189
 31
0
  0
LINE
  8
1
 62
7
 10
-385.721182147289
 20
-22.21469119271892
 30
0
 11
-379.221182147289
 21
-22.21469119271892
 31
0
  0
LINE
  8
1
 62
7
 10
-385.721182147289
 20
-27.46469119271892
 30
0
 11
-385.721182147289
 21
-22.21469119271892
 31
0
  0
LINE
  8
1
 62
7
 10
-384.721182147289
 20
-27.46469119271892
 30
0
 11
-385.721182147289
 21
-27.46469119271892
 31
0
  0
LINE
  8
1
 62
7
 10
-384.721182147289
 20
-44.21469119271892
 30
0
 11
-384.721182147289
 21
-27.46469119271892
 31
0
  0
LINE
  8
1
 62
7
 10
-391.021182147289
 20
-44.21469119271892
 30
0
 11
-384.721182147289
 21
-44.21469119271892
 31
0
  0
LINE
  8
1
 62
7
 10
-391.021182147289
 20
-49.96469119271891
 30
0
 11
-391.021182147289
 21
-44.21469119271892
 31
0
  0
LINE
  8
1
 62
7
 10
-391.521182147289
 20
-49.96469119271891
 30
0
 11
-391.021182147289
 21
-49.96469119271891
 31
0
  0
LINE
  8
1
 62
7
 10
-364.021182147289
 20
-21.96469119271892
 30
0
 11
-367.521182147289
 21
-21.96469119271892
 31
0
  0
LINE
  8
1
 62
7
 10
-362.5152054808607
 20
-34.22988687655734
 30
0
 11
-364.021182147289
 21
-21.96469119271892
 31
0
  0
LINE
  8
1
 62
7
 10
-362.521182147289
 20
-34.22988687655736
 30
0
 11
-362.521182147289
 21
-43.46469119271892
 31
0
  0
LINE
  8
1
 62
7
 10
-364.521182147289
 20
-43.46469119271892
 30
0
 11
-362.521182147289
 21
-43.46469119271892
 31
0
  0
LINE
  8
1
 62
7
 10
-364.521182147289
 20
-48.86469119271892
 30
0
 11
-364.521182147289
 21
-43.46469119271892
 31
0
  0
LINE
  8
1
 62
7
 10
-364.521182147289
 20
-44.07755090494912
 30
0
 11
-363.021182147289
 21
-44.07755090494912
 31
0
  0
LINE
  8
1
 62
7
 10
-363.021182147289
 20
-47.46469119271892
 30
0
 11
-363.021182147289
 21
-44.07755090494912
 31
0
  0
LINE
  8
1
 62
7
 10
-379.221182147289
 20
-16.46469119271892
 30
0
 11
-379.221182147289
 21
-51.96469119271891
 31
0
  0
LINE
  8
1
 62
7
 10
-367.521182147289
 20
-16.46469119271892
 30
0
 11
-367.521182147289
 21
-49.46469119271891
 31
0
  0
LINE
  8
1
 62
7
 10
-379.221182147289
 20
-16.46469119271892
 30
0
 11
-367.521182147289
 21
-16.46469119271892
 31
0
  0
LINE
  8
1
 62
7
 10
-418.521182147289
 20
-41.46469119271892
 30
0
 11
-417.021182147289
 21
-41.46469119271892
 31
0
  0
LINE
  8
1
 62
7
 10
-380.721182147289
 20
-21.46469119271892
 30
0
 11
-380.721182147289
 21
-20.46469119271892
 31
0
  0
LINE
  8
1
 62
7
 10
-386.721182147289
 20
-21.46469119271892
 30
0
 11
-380.721182147289
 21
-21.46469119271892
 31
0
  0
LINE
  8
1
 62
7
 10
-385.521182147289
 20
-43.46469119271892
 30
0
 11
-385.521182147289
 21
-36.46469119271892
 31
0
  0
LINE
  8
1
 62
7
 10
-391.521182147289
 20
-43.46469119271892
 30
0
 11
-385.521182147289
 21
-43.46469119271892
 31
0
  0
LINE
  8
1
 62
7
 10
-417.021182147289
 20
-44.10680736023029
 30
0
 11
-417.021182147289
 21
-39.96469119271892
 31
0
  0
LINE
  8
1
 62
7
 10
-383.721182147289
 20
-17.46469119271892
 30
0
 11
-380.721182147289
 21
-20.46469119271892
 31
0
  0
LINE
  8
1
 62
7
 10
-386.521182147289
 20
-35.46469119271892
 30
0
 11
-385.521182147289
 21
-36.46469119271892
 31
0
  0
LINE
  8
1
 62
7
 10
-361.521182147289
 20
-45.86469119271892
 30
0
 11
-361.521182147289
 21
-99.0646911927189
 31
0
  0
LINE
  8
1
 62
7
 10
-386.721182147289
 20
-35.46469119271892
 30
0
 11
-386.721182147289
 21
-21.46469119271892
 31
0
  0
LINE
  8
1
 62
7
 10
-379.221182147289
 20
-92.9646911927189
 30
0
 11
-391.521182147289
 21
-92.9646911927189
 31
0
  0
LINE
  8
1
 62
7
 10
-367.521182147289
 20
-99.4646911927189
 30
0
 11
-364.521182147289
 21
-99.4646911927189
 31
0
  0
LINE
  8
1
 62
7
 10
-379.221182147289
 20
-95.4646911927189
 30
0
 11
-361.521182147289
 21
-95.4646911927189
 31
0
  0
LINE
  8
1
 62
7
 10
-364.521182147289
 20
-96.0646911927189
 30
0
 11
-367.521182147289
 21
-96.0646911927189
 31
0
  0
LINE
  8
1
 62
7
 10
-379.221182147289
 20
-99.0646911927189
 30
0
 11
-364.521182147289
 21
-99.0646911927189
 31
0
  0
LINE
  8
1
 62
7
 10
-386.721182147289
 20
-109.4646911927189
 30
0
 11
-386.521182147289
 21
-109.4646911927189
 31
0
  0
LINE
  8
1
 62
7
 10
-391.521182147289
 20
-103.4646911927189
 30
0
 11
-391.521182147289
 21
-92.4646911927189
 31
0
  0
LINE
  8
1
 62
7
 10
-415.521182147289
 20
-104.9646911927189
 30
0
 11
-417.021182147289
 21
-104.9646911927189
 31
0
  0
LINE
  8
1
 62
7
 10
-415.521182147289
 20
-91.2146911927189
 30
0
 11
-417.321182147289
 21
-91.2146911927189
 31
0
  0
LINE
  8
1
 62
7
 10
-418.521182147289
 20
-125.4646911927189
 30
0
 11
-416.521182147289
 21
-127.4646911927189
 31
0
  0
LINE
  8
1
 62
7
 10
-418.521182147289
 20
-125.4646911927189
 30
0
 11
-418.521182147289
 21
-98.0171248012232
 31
0
  0
LINE
  8
1
 62
3
  6
DASHDOT
 10
-233.3374401379158
 20
-90.64843320209208
 30
0
 11
-242.4123174947704
 21
-81.57355584523748
 31
0
  0
LINE
  8
1
 62
3
  6
DASHDOT
 10
-251.521182147289
 20
-67.7306717094209
 30
0
 11
-251.521182147289
 21
-77.1987106760169
 31
0
  0
LINE
  8
1
 62
3
  6
DASHDOT
 10
-246.787162663991
 20
-72.4646911927189
 30
0
 11
-256.255201630587
 21
-72.4646911927189
 31
0
  0
LINE
  8
1
 62
7
 10
-270.2958418183499
 20
0.5910998643797059
 30
0
 11
-271.5899370438626
 21
5.420728995825051
 31
0
  0
LINE
  8
1
 62
7
 10
-270.1023730379427
 20
0.642939667850447
 30
0
 11
-271.3964682634553
 21
5.472568799295793
 31
0
  0
LINE
  8
1
 62
7
 10
-269.4408929392884
 20
0.8201827260941312
 30
0
 11
-270.7349881648011
 21
5.649811857539477
 31
0
  0
LINE
  8
1
 62
7
 10
-269.6634342195464
 20
0.760552969766396
 30
0
 11
-270.9575294450591
 21
5.590182101211742
 31
0
  0
LINE
  8
1
 62
7
 10
-269.8790086523163
 20
0.7027899745969082
 30
0
 11
-271.173103877829
 21
5.532419106042254
 31
0
  0
LINE
  8
1
 62
7
 10
-272.6438498165567
 20
-0.03804698256163912
 30
0
 11
-273.9379450420693
 21
4.791582148883707
 31
0
  0
LINE
  8
1
 62
7
 10
-272.3899872707591
 20
0.02997528157333356
 30
0
 11
-273.6840824962717
 21
4.85960441301868
 31
0
  0
LINE
  8
1
 62
7
 10
-271.6306483990569
 20
0.233439519027511
 30
0
 11
-272.9247436245695
 21
5.063068650472857
 31
0
  0
LINE
  8
1
 62
7
 10
-271.9074397025865
 20
0.1592735127747802
 30
0
 11
-273.2015349280992
 21
4.988902644220127
 31
0
  0
LINE
  8
1
 62
7
 10
-272.1834079007468
 20
0.08532805694104596
 30
0
 11
-273.4775031262595
 21
4.914957188386392
 31
0
  0
LINE
  8
1
 62
3
  6
DASHDOT
 10
-251.521182147289
 20
-5.988208043692879
 30
0
 11
-251.521182147289
 21
-12.94117434174493
 31
0
  0
LINE
  8
1
 62
3
  6
DASHDOT
 10
-248.044698998263
 20
-9.464691192718902
 30
0
 11
-254.997665296315
 21
-9.464691192718902
 31
0
  0
LINE
  8
1
 62
3
  6
DASHDOT
 10
-201.1076576167595
 20
-43.35842923421987
 30
0
 11
-209.0328466986306
 21
-47.93403928401686
 31
0
  0
LINE
  8
1
 62
3
  6
DASHDOT
 10
-201.1076576167595
 20
-101.5709531512179
 30
0
 11
-209.0328466986306
 21
-96.99534310142096
 31
0
  0
LINE
  8
1
 62
3
  6
DASHDOT
 10
-251.521182147289
 20
-130.677215109717
 30
0
 11
-251.521182147289
 21
-121.525995010123
 31
0
  0
LINE
  8
1
 62
3
  6
DASHDOT
 10
-301.9347066778186
 20
-101.570953151218
 30
0
 11
-294.0095175959474
 21
-96.99534310142097
 31
0
  0
LINE
  8
1
 62
3
  6
DASHDOT
 10
-301.9347066778186
 20
-43.35842923421987
 30
0
 11
-294.0095175959474
 21
-47.93403928401686
 31
0
  0
LINE
  8
1
 62
7
 10
-643.521182147289
 20
-5.4646911927189
 30
0
 11
-643.521182147289
 21
-28.9646911927189
 31
0
  0
LINE
  8
1
 62
7
 10
-629.521182147289
 20
-5.464691192718902
 30
0
 11
-629.521182147289
 21
-28.9646911927189
 31
0
  0
LINE
  8
1
 62
7
 10
-641.521182147289
 20
-3.464691192718902
 30
0
 11
-631.521182147289
 21
-3.464691192718902
 31
0
  0
LINE
  8
1
 62
7
 10
-640.521182147289
 20
-55.4646911927189
 30
0
 11
-632.521182147289
 21
-55.4646911927189
 31
0
  0
LINE
  8
1
 62
7
 10
-632.521182147289
 20
-55.4646911927189
 30
0
 11
-632.521182147289
 21
-58.00785889791794
 31
0
  0
LINE
  8
1
 62
7
 10
-640.521182147289
 20
-58.00785889791794
 30
0
 11
-640.521182147289
 21
-55.4646911927189
 31
0
  0
LINE
  8
1
 62
7
 10
-418.421182147289
 20
-3.464691192718901
 30
0
 11
-416.121182147289
 21
-3.464691192718901
 31
0
  0
LINE
  8
1
 62
7
 10
-418.421182147289
 20
-3.464691192718901
 30
0
 11
-418.421182147289
 21
-37.4646911927189
 31
0
  0
LINE
  8
1
 62
7
 10
-416.121182147289
 20
-3.464691192718901
 30
0
 11
-416.121182147289
 21
-37.4646911927189
 31
0
  0
LINE
  8
1
 62
7
 10
-418.4211821472891
 20
-6.714691192718902
 30
0
 11
-416.1211821472889
 21
-6.714691192718902
 31
0
  0
LINE
  8
1
 62
7
 10
-418.4211821472891
 20
-12.2146911927189
 30
0
 11
-416.1211821472889
 21
-12.2146911927189
 31
0
  0
LINE
  8
1
 62
3
  6
DASHDOT
 10
-420.1403740399287
 20
-9.464691192718902
 30
0
 11
-414.8279279967632
 21
-9.464691192718902
 31
0
  0
LINE
  8
1
 62
7
 10
-418.521182147289
 20
-37.4646911927189
 30
0
 11
-416.121182147289
 21
-37.4646911927189
 31
0
  0
LINE
  8
1
 62
7
 10
-417.321182147289
 20
-96.301601066431
 30
0
 11
-415.521182147289
 21
-96.301601066431
 31
0
  0
LINE
  8
1
 62
7
 10
-417.321182147289
 20
-96.301601066431
 30
0
 11
-417.321182147289
 21
-91.2146911927189
 31
0
  0
LINE
  8
1
 62
7
 10
-403.521182147289
 20
-103.4646911927189
 30
0
 11
-403.521182147289
 21
-92.4646911927189
 31
0
  0
LINE
  8
1
 62
7
 10
-415.521182147289
 20
-104.9646911927189
 30
0
 11
-415.521182147289
 21
-91.2146911927189
 31
0
  0
LINE
  8
1
 62
7
 10
-411.171182147289
 20
-95.10680736023025
 30
0
 11
-415.521182147289
 21
-95.10680736023028
 31
0
  0
LINE
  8
1
 62
7
 10
-407.871182147289
 20
-95.10680736023025
 30
0
 11
-399.171182147289
 21
-95.10680736023025
 31
0
  0
LINE
  8
1
 62
7
 10
-411.171182147289
 20
-100.8225750252076
 30
0
 11
-417.021182147289
 21
-100.8225750252075
 31
0
  0
LINE
  8
1
 62
7
 10
-415.521182147289
 20
-103.4646911927189
 30
0
 11
-391.521182147289
 21
-103.4646911927189
 31
0
  0
LINE
  8
1
 62
7
 10
-415.521182147289
 20
-92.4646911927189
 30
0
 11
-391.521182147289
 21
-92.4646911927189
 31
0
  0
LINE
  8
1
 62
7
 10
-395.871182147289
 20
-95.10680736023025
 30
0
 11
-391.521182147289
 21
-95.10680736023028
 31
0
  0
LINE
  8
1
 62
7
 10
-395.871182147289
 20
-100.8225750252076
 30
0
 11
-391.521182147289
 21
-100.8225750252075
 31
0
  0
LINE
  8
1
 62
7
 10
-399.171182147289
 20
-100.8225750252076
 30
0
 11
-407.871182147289
 21
-100.8225750252076
 31
0
  0
LINE
  8
1
 62
7
 10
-363.021182147289
 20
-97.4646911927189
 30
0
 11
-364.521182147289
 21
-97.4646911927189
 31
0
  0
LINE
  8
1
 62
3
  6
DASHDOT
 10
-391.021182147289
 20
-86.83064871281061
 30
0
 11
-391.021182147289
 21
-94.1108159304445
 31
0
  0
LINE
  8
1
 62
3
  6
DASHDOT
 10
-373.521182147289
 20
-86.9816974364725
 30
0
 11
-373.521182147289
 21
-96.7998644744963
 31
0
  0
LINE
  8
1
 62
7
  6
DASHED
 10
-392.521182147289
 20
-87.9646911927189
 30
0
 11
-392.521182147289
 21
-92.4646911927189
 31
0
  0
LINE
  8
1
 62
7
  6
DASHED
 10
-389.521182147289
 20
-100.7146911927189
 30
0
 11
-389.521182147289
 21
-87.9646911927189
 31
0
  0
LINE
  8
1
 62
7
  6
DASHED
 10
-375.021182147289
 20
-87.9646911927189
 30
0
 11
-375.021182147289
 21
-95.4646911927189
 31
0
  0
LINE
  8
1
 62
7
  6
DASHED
 10
-372.021182147289
 20
-87.9646911927189
 30
0
 11
-372.021182147289
 21
-95.4646911927189
 31
0
  0
LINE
  8
1
 62
7
 10
-417.321182147289
 20
-92.4646911927189
 30
0
 11
-418.521182147289
 21
-92.4646911927189
 31
0
  0
LINE
  8
1
 62
7
 10
-418.521182147289
 20
-92.4646911927189
 30
0
 11
-418.521182147289
 21
-52.46469119271891
 31
0
  0
LINE
  8
1
 62
7
 10
-361.521182147289
 20
-99.0646911927189
 30
0
 11
-363.021182147289
 21
-99.0646911927189
 31
0
  0
LINE
  8
1
 62
7
 10
-370.521182147289
 20
-87.4646911927189
 30
0
 11
-361.521182147289
 21
-87.4646911927189
 31
0
  0
LINE
  8
1
 62
7
 10
-370.521182147289
 20
-87.9646911927189
 30
0
 11
-376.521182147289
 21
-87.9646911927189
 31
0
  0
LINE
  8
1
 62
7
 10
-376.521182147289
 20
-87.4646911927189
 30
0
 11
-388.021182147289
 21
-87.4646911927189
 31
0
  0
LINE
  8
1
 62
7
 10
-388.021182147289
 20
-87.9646911927189
 30
0
 11
-394.021182147289
 21
-87.9646911927189
 31
0
  0
LINE
  8
1
 62
7
 10
-394.021182147289
 20
-87.4646911927189
 30
0
 11
-418.521182147289
 21
-87.4646911927189
 31
0
  0
LINE
  8
1
 62
7
 10
-379.221182147289
 20
-122.7146911927189
 30
0
 11
-385.721182147289
 21
-122.7146911927189
 31
0
  0
LINE
  8
1
 62
7
 10
-385.721182147289
 20
-122.7146911927189
 30
0
 11
-385.721182147289
 21
-117.4646911927189
 31
0
  0
LINE
  8
1
 62
7
 10
-385.721182147289
 20
-117.4646911927189
 30
0
 11
-384.721182147289
 21
-117.4646911927189
 31
0
  0
LINE
  8
1
 62
7
 10
-384.721182147289
 20
-117.4646911927189
 30
0
 11
-384.721182147289
 21
-100.7146911927189
 31
0
  0
LINE
  8
1
 62
7
 10
-384.721182147289
 20
-100.7146911927189
 30
0
 11
-391.021182147289
 21
-100.7146911927189
 31
0
  0
LINE
  8
1
 62
7
 10
-391.021182147289
 20
-100.7146911927189
 30
0
 11
-391.021182147289
 21
-94.9646911927189
 31
0
  0
LINE
  8
1
 62
7
 10
-391.021182147289
 20
-94.9646911927189
 30
0
 11
-391.521182147289
 21
-94.9646911927189
 31
0
  0
LINE
  8
1
 62
7
 10
-367.521182147289
 20
-95.4646911927189
 30
0
 11
-367.521182147289
 21
-128.4646911927189
 31
0
  0
LINE
  8
1
 62
7
 10
-367.521182147289
 20
-122.9646911927189
 30
0
 11
-364.021182147289
 21
-122.9646911927189
 31
0
  0
LINE
  8
1
 62
7
 10
-364.021182147289
 20
-122.9646911927189
 30
0
 11
-362.5152054808607
 21
-110.6994955088805
 31
0
  0
LINE
  8
1
 62
7
 10
-362.521182147289
 20
-101.4646911927189
 30
0
 11
-362.521182147289
 21
-110.6994955088805
 31
0
  0
LINE
  8
1
 62
7
 10
-362.521182147289
 20
-101.4646911927189
 30
0
 11
-364.521182147289
 21
-101.4646911927189
 31
0
  0
LINE
  8
1
 62
7
 10
-364.521182147289
 20
-101.4646911927189
 30
0
 11
-364.521182147289
 21
-96.0646911927189
 31
0
  0
LINE
  8
1
 62
7
 10
-363.021182147289
 20
-100.8518314804887
 30
0
 11
-364.521182147289
 21
-100.8518314804887
 31
0
  0
LINE
  8
1
 62
7
 10
-363.021182147289
 20
-100.8518314804887
 30
0
 11
-363.021182147289
 21
-97.4646911927189
 31
0
  0
LINE
  8
1
 62
7
 10
-379.221182147289
 20
-92.9646911927189
 30
0
 11
-379.221182147289
 21
-128.4646911927189
 31
0
  0
LINE
  8
1
 62
7
 10
-367.521182147289
 20
-128.4646911927189
 30
0
 11
-379.221182147289
 21
-128.4646911927189
 31
0
  0
LINE
  8
1
 62
7
 10
-417.021182147289
 20
-103.4646911927189
 30
0
 11
-418.521182147289
 21
-103.4646911927189
 31
0
  0
LINE
  8
1
 62
7
 10
-380.721182147289
 20
-124.4646911927189
 30
0
 11
-380.721182147289
 21
-123.4646911927189
 31
0
  0
LINE
  8
1
 62
7
 10
-380.721182147289
 20
-123.4646911927189
 30
0
 11
-386.721182147289
 21
-123.4646911927189
 31
0
  0
LINE
  8
1
 62
7
 10
-385.521182147289
 20
-108.4646911927189
 30
0
 11
-385.521182147289
 21
-101.4646911927189
 31
0
  0
LINE
  8
1
 62
7
 10
-385.521182147289
 20
-101.4646911927189
 30
0
 11
-391.521182147289
 21
-101.4646911927189
 31
0
  0
LINE
  8
1
 62
7
 10
-417.021182147289
 20
-104.9646911927189
 30
0
 11
-417.021182147289
 21
-100.8225750252075
 31
0
  0
LINE
  8
1
 62
7
 10
-380.721182147289
 20
-124.4646911927189
 30
0
 11
-383.721182147289
 21
-127.4646911927189
 31
0
  0
LINE
  8
1
 62
7
 10
-385.521182147289
 20
-108.4646911927189
 30
0
 11
-386.521182147289
 21
-109.4646911927189
 31
0
  0
LINE
  8
1
 62
7
 10
-386.721182147289
 20
-123.4646911927189
 30
0
 11
-386.721182147289
 21
-109.4646911927189
 31
0
  0
LINE
  8
1
 62
7
 10
-383.721182147289
 20
-127.4646911927189
 30
0
 11
-416.521182147289
 21
-127.4646911927189
 31
0
  0
LINE
  8
1
 62
7
 10
-407.571182147289
 20
-17.4646911927189
 30
0
 11
-407.571182147289
 21
0.7755208033646905
 31
0
  0
LINE
  8
1
 62
7
 10
-409.871182147289
 20
0.7755208033646905
 30
0
 11
-409.871182147289
 21
-17.4646911927189
 31
0
  0
LINE
  8
1
 62
7
 10
-409.871182147289
 20
0.7755208033646905
 30
0
 11
-407.571182147289
 21
0.7755208033646905
 31
0
  0
LINE
  8
1
 62
7
 10
-407.9603393529211
 20
5.775520803364689
 30
0
 11
-407.9603393529211
 21
0.7755208033646905
 31
0
  0
LINE
  8
1
 62
7
 10
-408.3282297022224
 20
5.775520803364689
 30
0
 11
-408.3282297022224
 21
0.7755208033646905
 31
0
  0
LINE
  8
1
 62
7
 10
-408.721182147289
 20
5.775520803364689
 30
0
 11
-408.721182147289
 21
0.7755208033646905
 31
0
  0
LINE
  8
1
 62
7
 10
-409.0640104008248
 20
5.775520803364689
 30
0
 11
-409.0640104008248
 21
0.7755208033646905
 31
0
  0
LINE
  8
1
 62
7
 10
-409.4548938969574
 20
5.775520803364689
 30
0
 11
-409.4548938969574
 21
0.7755208033646905
 31
0
  0
LINE
  8
1
 62
7
  6
DASHED
 10
-239.9070865159064
 20
-81.9574664805418
 30
0
 11
-233.8065434718602
 21
-88.05800952458799
 31
0
  0
LINE
  8
1
 62
7
  6
DASHED
 10
-242.0284068594661
 20
-84.07878682410146
 30
0
 11
-235.9278638154199
 21
-90.17932986814765
 31
0
  0
LINE
  8
1
 62
7
  6
DASHED
 10
-263.1352777786715
 20
-81.9574664805418
 30
0
 11
-269.2358208227178
 21
-88.05800952458799
 31
0
  0
LINE
  8
1
 62
3
  6
DASHDOT
 10
-260.6300467998076
 20
-81.57355584523748
 30
0
 11
-269.7049241566622
 21
-90.64843320209212
 31
0
  0
LINE
  8
1
 62
7
  6
DASHED
 10
-261.0139574351119
 20
-84.07878682410146
 30
0
 11
-267.1145004791581
 21
-90.17932986814765
 31
0
  0
LINE
  8
1
 62
7
  6
DASHED
 10
-261.0139574351119
 20
-60.85059556133636
 30
0
 11
-267.1145004791581
 21
-54.75005251729016
 31
0
  0
LINE
  8
1
 62
3
  6
DASHDOT
 10
-260.6300467998076
 20
-63.35582654020033
 30
0
 11
-269.7049241566622
 21
-54.28094918334568
 31
0
  0
LINE
  8
1
 62
7
  6
DASHED
 10
-263.1352777786715
 20
-62.97191590489602
 30
0
 11
-269.2358208227178
 21
-56.87137286084982
 31
0
  0
LINE
  8
1
 62
7
  6
DASHED
 10
-239.9070865159064
 20
-62.97191590489601
 30
0
 11
-233.8065434718602
 21
-56.87137286084982
 31
0
  0
LINE
  8
1
 62
7
  6
DASHED
 10
-242.0284068594661
 20
-60.85059556133636
 30
0
 11
-235.9278638154199
 21
-54.75005251729017
 31
0
  0
LINE
  8
1
 62
3
  6
DASHDOT
 10
-242.4123174947704
 20
-63.35582654020034
 30
0
 11
-233.3374401379158
 21
-54.2809491833457
 31
0
  0
LINE
  8
1
 62
7
 10
-273.264423036286
 20
-0.2043290756324705
 30
0
 11
-268.8211642353563
 21
0.9862385318391223
 31
0
  0
LINE
  8
1
 62
7
 10
-263.7811895348053
 20
-17.82320311947874
 30
0
 11
-268.8211642353563
 21
0.9862385318391223
 31
0
  0
LINE
  8
1
 62
7
 10
-271.0427936358211
 20
0.3909547281033259
 30
0
 11
-266.0150486730302
 21
-18.37284492053105
 31
0
  0
LINE
  8
1
 62
7
 10
-268.224448335735
 20
-19.01377072695033
 30
0
 11
-273.264423036286
 21
-0.2043290756324705
 31
0
  0
LINE
  8
1
 62
7
 10
-258.521182147289
 20
-16.9039136603625
 30
0
 11
-258.521182147289
 21
-5.4646911927189
 31
0
  0
LINE
  8
1
 62
7
 10
-244.521182147289
 20
-16.9039136603625
 30
0
 11
-244.521182147289
 21
-5.464691192718902
 31
0
  0
LINE
  8
1
 62
7
 10
-256.521182147289
 20
-3.464691192718902
 30
0
 11
-246.521182147289
 21
-3.464691192718902
 31
0
  0
LINE
  8
1
 62
7
 10
-255.521182147289
 20
-55.4646911927189
 30
0
 11
-247.521182147289
 21
-55.4646911927189
 31
0
  0
LINE
  8
1
 62
7
 10
-247.521182147289
 20
-55.4646911927189
 30
0
 11
-247.521182147289
 21
-58.00785889791794
 31
0
  0
LINE
  8
1
 62
7
 10
-255.521182147289
 20
-58.00785889791794
 30
0
 11
-255.521182147289
 21
-55.4646911927189
 31
0
  0
LINE
  8
1
 62
7
 10
-256.521182147289
 20
-123.9646911927189
 30
0
 11
-246.521182147289
 21
-123.9646911927189
 31
0
  0
LINE
  8
1
 62
7
 10
-246.521182147289
 20
-123.9646911927189
 30
0
 11
-246.521182147289
 21
-128.2410302622563
 31
0
  0
LINE
  8
1
 62
7
 10
-256.521182147289
 20
-128.2410302622563
 30
0
 11
-256.521182147289
 21
-123.9646911927189
 31
0
  0
LINE
  8
1
 62
7
 10
-209.4208738523904
 20
-102.5448182116411
 30
0
 11
-204.4208738523904
 21
-93.88456417379672
 31
0
  0
LINE
  8
1
 62
7
 10
-204.4208738523904
 20
-93.88456417379672
 30
0
 11
-200.7174555829752
 21
-96.0227337085654
 31
0
  0
LINE
  8
1
 62
7
 10
-205.7174555829752
 20
-104.6829877464098
 30
0
 11
-209.4208738523904
 21
-102.5448182116411
 31
0
  0
LINE
  8
1
 62
7
 10
-204.4208738523904
 20
-51.04481821164111
 30
0
 11
-209.4208738523904
 21
-42.38456417379673
 31
0
  0
LINE
  8
1
 62
7
 10
-209.4208738523904
 20
-42.38456417379673
 30
0
 11
-205.7174555829752
 21
-40.24639463902804
 31
0
  0
LINE
  8
1
 62
7
 10
-200.7174555829752
 20
-48.90664867687242
 30
0
 11
-204.4208738523904
 21
-51.04481821164111
 31
0
  0
LINE
  8
1
 62
7
 10
-246.521182147289
 20
-20.96469119271891
 30
0
 11
-256.521182147289
 21
-20.96469119271891
 31
0
  0
LINE
  8
1
 62
7
 10
-246.521182147289
 20
-16.68835212318155
 30
0
 11
-246.521182147289
 21
-20.96469119271891
 31
0
  0
LINE
  8
1
 62
7
 10
-256.521182147289
 20
-20.96469119271891
 30
0
 11
-256.521182147289
 21
-16.68835212318155
 31
0
  0
LINE
  8
1
 62
7
 10
-298.6214904421876
 20
-51.04481821164109
 30
0
 11
-302.3249087116029
 21
-48.90664867687241
 31
0
  0
LINE
  8
1
 62
7
 10
-293.6214904421876
 20
-42.3845641737967
 30
0
 11
-298.6214904421876
 21
-51.04481821164109
 31
0
  0
LINE
  8
1
 62
7
 10
-293.6214904421876
 20
-42.3845641737967
 30
0
 11
-298.6214904421876
 21
-51.04481821164109
 31
0
  0
LINE
  8
1
 62
7
 10
-297.3249087116029
 20
-40.24639463902802
 30
0
 11
-293.6214904421876
 21
-42.3845641737967
 31
0
  0
LINE
  8
1
 62
7
 10
-293.6214904421876
 20
-102.5448182116411
 30
0
 11
-297.3249087116029
 21
-104.6829877464098
 31
0
  0
LINE
  8
1
 62
7
 10
-298.6214904421876
 20
-93.88456417379669
 30
0
 11
-293.6214904421876
 21
-102.5448182116411
 31
0
  0
LINE
  8
1
 62
7
 10
-298.6214904421876
 20
-93.88456417379669
 30
0
 11
-293.6214904421876
 21
-102.5448182116411
 31
0
  0
LINE
  8
1
 62
7
 10
-302.3249087116029
 20
-96.02273370856537
 30
0
 11
-298.6214904421876
 21
-93.88456417379669
 31
0
  0
LINE
  8
1
 62
3
 10
-201.1076576167595
 20
-101.5709531512179
 30
0
 11
-209.0328466986306
 21
-96.99534310142096
 31
0
  0
LINE
  8
1
 62
3
  6
DASHDOT
 10
-251.521182147289
 20
-14.25216727572082
 30
0
 11
-251.521182147289
 21
-23.40338737531481
 31
0
  0
LINE
  8
1
 62
7
 10
-416.121182147289
 20
-17.46469119271892
 30
0
 11
-383.721182147289
 21
-17.46469119271892
 31
0
  0
LINE
  8
1
 62
7
 10
-408.721182147289
 20
5.775520803364689
 30
0
 11
-408.721182147289
 21
0.7755208033646905
 31
0
  0
LINE
  8
1
 62
7
 10
-418.521182147289
 20
-55.4646911927189
 30
0
 11
-361.521182147289
 21
-55.4646911927189
 31
0
  0
LINE
  8
1
 62
3
 10
-379.221182147289
 20
-16.46469119271892
 30
0
 11
-367.521182147289
 21
-49.46469119271891
 31
0
  0
LINE
  8
1
 62
3
 10
-367.521182147289
 20
-16.46469119271892
 30
0
 11
-379.221182147289
 21
-49.46469119271891
 31
0
  0
LINE
  8
1
 62
3
 10
-379.221182147289
 20
-95.4646911927189
 30
0
 11
-367.521182147289
 21
-128.4646911927189
 31
0
  0
LINE
  8
1
 62
3
 10
-367.521182147289
 20
-95.4646911927189
 30
0
 11
-379.221182147289
 21
-128.4646911927189
 31
0
  0
LINE
  8
1
 62
3
 10
-530.521182147289
 20
-72.4646911927189
 30
0
 11
-533.521182147289
 21
-72.4646911927189
 31
0
  0
LINE
  8
1
 62
3
 10
-473.521182147289
 20
-72.4646911927189
 30
0
 11
-470.521182147289
 21
-72.4646911927189
 31
0
  0
LINE
  8
1
 62
7
 10
-530.521182147289
 20
-125.4646911927189
 30
0
 11
-528.521182147289
 21
-127.4646911927189
 31
0
  0
LINE
  8
1
 62
7
 10
-530.421182147289
 20
-3.464691192718901
 30
0
 11
-528.121182147289
 21
-3.464691192718901
 31
0
  0
LINE
  8
1
 62
7
 10
-530.421182147289
 20
-3.464691192718901
 30
0
 11
-530.421182147289
 21
-19.36469119271889
 31
0
  0
LINE
  8
1
 62
7
 10
-528.121182147289
 20
-3.464691192718901
 30
0
 11
-528.121182147289
 21
-17.4646911927189
 31
0
  0
LINE
  8
1
 62
3
  6
DASHDOT
 10
-532.1403740399287
 20
-9.464691192718902
 30
0
 11
-526.8279279967632
 21
-9.464691192718902
 31
0
  0
LINE
  8
1
 62
7
 10
-473.521182147289
 20
-99.0646911927189
 30
0
 11
-474.521182147289
 21
-99.0646911927189
 31
0
  0
LINE
  8
1
 62
7
 10
-491.221182147289
 20
-123.2146911927189
 30
0
 11
-492.721182147289
 21
-123.2146911927189
 31
0
  0
LINE
  8
1
 62
7
 10
-479.521182147289
 20
-122.9646911927189
 30
0
 11
-476.021182147289
 21
-122.9646911927189
 31
0
  0
LINE
  8
1
 62
7
 10
-476.021182147289
 20
-122.9646911927189
 30
0
 11
-474.5152054808607
 21
-110.6994955088805
 31
0
  0
LINE
  8
1
 62
7
 10
-474.521182147289
 20
-110.6994955088805
 30
0
 11
-474.521182147289
 21
-34.22988687655733
 31
0
  0
LINE
  8
1
 62
7
 10
-479.521182147289
 20
-128.4646911927189
 30
0
 11
-479.521182147289
 21
-16.46469119271893
 31
0
  0
LINE
  8
1
 62
7
 10
-479.521182147289
 20
-128.4646911927189
 30
0
 11
-491.221182147289
 21
-128.4646911927189
 31
0
  0
LINE
  8
1
 62
7
 10
-492.721182147289
 20
-124.4646911927189
 30
0
 11
-495.721182147289
 21
-127.4646911927189
 31
0
  0
LINE
  8
1
 62
7
 10
-495.721182147289
 20
-127.4646911927189
 30
0
 11
-528.521182147289
 21
-127.4646911927189
 31
0
  0
LINE
  8
1
 62
7
 10
-519.5711821472889
 20
-17.4646911927189
 30
0
 11
-519.5711821472889
 21
0.7755208033646905
 31
0
  0
LINE
  8
1
 62
7
 10
-521.871182147289
 20
0.7755208033646905
 30
0
 11
-521.871182147289
 21
-17.4646911927189
 31
0
  0
LINE
  8
1
 62
7
 10
-521.871182147289
 20
0.7755208033646905
 30
0
 11
-519.5711821472889
 21
0.7755208033646905
 31
0
  0
LINE
  8
1
 62
7
 10
-519.9603393529211
 20
5.775520803364689
 30
0
 11
-519.9603393529211
 21
0.7755208033646905
 31
0
  0
LINE
  8
1
 62
7
 10
-520.3282297022224
 20
5.775520803364689
 30
0
 11
-520.3282297022224
 21
0.7755208033646905
 31
0
  0
LINE
  8
1
 62
7
 10
-520.721182147289
 20
5.775520803364689
 30
0
 11
-520.721182147289
 21
0.7755208033646905
 31
0
  0
LINE
  8
1
 62
7
 10
-521.0640104008248
 20
5.775520803364689
 30
0
 11
-521.0640104008248
 21
0.7755208033646905
 31
0
  0
LINE
  8
1
 62
7
 10
-521.4548938969574
 20
5.775520803364689
 30
0
 11
-521.4548938969574
 21
0.7755208033646905
 31
0
  0
LINE
  8
1
 62
7
 10
-520.721182147289
 20
5.775520803364689
 30
0
 11
-520.721182147289
 21
0.7755208033646905
 31
0
  0
LINE
  8
1
 62
7
 10
-530.521182147289
 20
-19.46469119271892
 30
0
 11
-530.521182147289
 21
-125.4646911927189
 31
0
  0
LINE
  8
1
 62
7
 10
-474.521182147289
 20
-45.8646911927189
 30
0
 11
-473.521182147289
 21
-45.86469119271894
 31
0
  0
LINE
  8
1
 62
7
 10
-492.721182147289
 20
-21.71469119271893
 30
0
 11
-491.221182147289
 21
-21.71469119271893
 31
0
  0
LINE
  8
1
 62
7
 10
-476.021182147289
 20
-21.96469119271893
 30
0
 11
-479.521182147289
 21
-21.96469119271893
 31
0
  0
LINE
  8
1
 62
7
 10
-474.5152054808607
 20
-34.22988687655734
 30
0
 11
-476.021182147289
 21
-21.96469119271893
 31
0
  0
LINE
  8
1
 62
7
 10
-491.221182147289
 20
-16.46469119271893
 30
0
 11
-491.221182147289
 21
-128.4646911927189
 31
0
  0
LINE
  8
1
 62
7
 10
-491.221182147289
 20
-16.46469119271893
 30
0
 11
-479.521182147289
 21
-16.46469119271893
 31
0
  0
LINE
  8
1
 62
7
 10
-492.721182147289
 20
-20.46469119271893
 30
0
 11
-492.721182147289
 21
-124.4646911927189
 31
0
  0
LINE
  8
1
 62
7
 10
-495.721182147289
 20
-17.46469119271893
 30
0
 11
-492.721182147289
 21
-20.46469119271893
 31
0
  0
LINE
  8
1
 62
7
 10
-473.521182147289
 20
-45.86469119271894
 30
0
 11
-473.521182147289
 21
-99.0646911927189
 31
0
  0
LINE
  8
1
 62
7
 10
-495.721182147289
 20
-17.46469119271893
 30
0
 11
-495.721182147289
 21
-127.4646911927189
 31
0
  0
LINE
  8
1
 62
7
 10
-476.021182147289
 20
-21.96469119271893
 30
0
 11
-476.021182147289
 21
-122.9646911927189
 31
0
  0
LINE
  8
1
 62
7
 10
-495.721182147289
 20
-17.46469119271893
 30
0
 11
-528.521182147289
 21
-17.46469119271892
 31
0
  0
LINE
  8
1
 62
7
 10
-528.521182147289
 20
-17.46469119271892
 30
0
 11
-530.521182147289
 21
-19.46469119271892
 31
0
  0
LINE
  8
1
 62
7
 10
-528.521182147289
 20
-17.46469119271892
 30
0
 11
-528.521182147289
 21
-127.4646911927189
 31
0
  0
LINE
  8
1
 62
3
 10
-491.221182147289
 20
-16.46469119271893
 30
0
 11
-479.521182147289
 21
-128.4646911927189
 31
0
  0
LINE
  8
1
 62
3
 10
-479.521182147289
 20
-16.46469119271893
 30
0
 11
-491.221182147289
 21
-128.4646911927189
 31
0
  0
LINE
  8
1
 62
7
 10
-682.3249087116028
 20
-40.24639463902798
 30
0
 11
-681.4553470498147
 21
-40.74843629853835
 31
0
  0
LINE
  8
1
 62
7
 10
-686.4553470498147
 20
-49.40869033638274
 30
0
 11
-687.3249087116028
 21
-48.90664867687232
 31
0
  0
LINE
  8
1
 62
7
 10
-687.3249087116028
 20
-96.02273370856527
 30
0
 11
-686.4553470498147
 21
-95.5206920490549
 31
0
  0
LINE
  8
1
 62
7
 10
-681.4553470498147
 20
-104.1809460868993
 30
0
 11
-682.3249087116028
 21
-104.6829877464096
 31
0
  0
LINE
  8
1
 62
7
 10
-641.521182147289
 20
-128.2410302622561
 30
0
 11
-641.521182147289
 21
-127.2369469432354
 31
0
  0
LINE
  8
1
 62
7
 10
-631.521182147289
 20
-127.2369469432354
 30
0
 11
-631.5211821472891
 21
-128.2410302622561
 31
0
  0
LINE
  8
1
 62
7
 10
-590.7174555829753
 20
-104.6829877464097
 30
0
 11
-591.5870172447634
 21
-104.1809460868993
 31
0
  0
LINE
  8
1
 62
7
 10
-586.5870172447634
 20
-95.52069204905492
 30
0
 11
-585.7174555829753
 21
-96.0227337085654
 31
0
  0
LINE
  8
1
 62
7
 10
-585.7174555829753
 20
-48.90664867687246
 30
0
 11
-586.5870172447634
 21
-49.40869033638283
 31
0
  0
LINE
  8
1
 62
7
 10
-591.5870172447633
 20
-40.74843629853842
 30
0
 11
-590.7174555829752
 21
-40.24639463902804
 31
0
  0
LINE
  8
1
 62
3
  6
DASHDOT
 10
-636.521182147289
 20
-67.7306717094209
 30
0
 11
-636.521182147289
 21
-77.1987106760169
 31
0
  0
LINE
  8
1
 62
3
  6
DASHDOT
 10
-631.787162663991
 20
-72.4646911927189
 30
0
 11
-641.255201630587
 21
-72.4646911927189
 31
0
  0
LINE
  8
1
 62
3
  6
DASHDOT
 10
-633.044698998263
 20
-9.464691192718902
 30
0
 11
-639.9976652963151
 21
-9.464691192718902
 31
0
  0
LINE
  8
1
 62
3
  6
DASHDOT
 10
-636.521182147289
 20
-5.988208043692879
 30
0
 11
-636.521182147289
 21
-12.94117434174493
 31
0
  0
LINE
  8
1
 62
7
 10
-616.2526188412857
 20
0.1908095918269715
 30
0
 11
-614.9585236157732
 21
5.020438723272368
 31
0
  0
LINE
  8
1
 62
7
 10
-616.0591500608784
 20
0.1389697883562183
 30
0
 11
-614.7650548353659
 21
4.968598919801559
 31
0
  0
LINE
  8
1
 62
7
 10
-615.3976699622242
 20
-0.03827326988742505
 30
0
 11
-614.1035747367116
 21
4.791355861557915
 31
0
  0
LINE
  8
1
 62
7
 10
-615.6202112424821
 20
0.0213564864402446
 30
0
 11
-614.3261160169697
 21
4.850985617885641
 31
0
  0
LINE
  8
1
 62
7
 10
-615.8357856752521
 20
0.07911948160975366
 30
0
 11
-614.5416904497396
 21
4.90874861305515
 31
0
  0
LINE
  8
1
 62
7
 10
-618.6006268394924
 20
0.8199564387682635
 30
0
 11
-617.3065316139798
 21
5.649585570213604
 31
0
  0
LINE
  8
1
 62
7
 10
-618.3467642936948
 20
0.7519341746332979
 30
0
 11
-617.0526690681822
 21
5.581563306078638
 31
0
  0
LINE
  8
1
 62
7
 10
-617.5874254219926
 20
0.5484699371791459
 30
0
 11
-616.29333019648
 21
5.378099068624486
 31
0
  0
LINE
  8
1
 62
7
 10
-617.8642167255223
 20
0.6226359434318698
 30
0
 11
-616.5701215000097
 21
5.452265074877211
 31
0
  0
LINE
  8
1
 62
7
 10
-618.1401849236825
 20
0.6965813992655217
 30
0
 11
-616.8460896981701
 21
5.526210530710975
 31
0
  0
LINE
  8
1
 62
7
 10
-619.2212000592217
 20
0.9862385318391224
 30
0
 11
-614.777941258292
 21
-0.204329075632467
 31
0
  0
LINE
  8
1
 62
7
 10
-619.817915958843
 20
-19.01377072695033
 30
0
 11
-614.777941258292
 21
-0.204329075632467
 31
0
  0
LINE
  8
1
 62
7
 10
-616.9995706587569
 20
0.3909547281033277
 30
0
 11
-622.0273156215478
 21
-18.37284492053105
 31
0
  0
LINE
  8
1
 62
7
 10
-624.2611747597726
 20
-17.82320311947874
 30
0
 11
-619.2212000592217
 21
0.9862385318391224
 31
0
  0
ARC
  8
1
 62
7
 10
-641.521182147289
 20
-5.464691192718902
 30
0
 40
2
 50
90
 51
180
  0
ARC
  8
1
 62
7
 10
-631.521182147289
 20
-5.464691192718902
 30
0
 40
2
 50
0
 51
90
  0
ARC
  8
1
 62
7
 10
-256.521182147289
 20
-5.464691192718902
 30
0
 40
2
 50
90
 51
180
  0
ARC
  8
1
 62
7
 10
-246.521182147289
 20
-5.464691192718902
 30
0
 40
2
 50
0
 51
90
  0
ARC
  8
1
 62
7
 10
-636.521182147289
 20
-72.4646911927189
 30
0
 40
15
 50
105.4660099534206
 51
74.53399004657945
  0
ARC
  8
1
 62
7
 10
-251.521182147289
 20
-72.4646911927189
 30
0
 40
54.99999999999999
 50
204.7840914295459
 51
215.2159085704541
  0
ARC
  8
1
 62
7
 10
-251.521182147289
 20
-72.4646911927189
 30
0
 40
54.99999999999998
 50
144.7840914295459
 51
155.2159085704541
  0
ARC
  8
1
 62
7
 10
-251.521182147289
 20
-72.4646911927189
 30
0
 40
55.00000000000001
 50
84.78409142954588
 51
95.21590857045409
  0
ARC
  8
1
 62
7
 10
-251.521182147289
 20
-72.4646911927189
 30
0
 40
55.00000000000001
 50
24.78409142954586
 51
35.2159085704541
  0
ARC
  8
1
 62
7
 10
-251.521182147289
 20
-72.4646911927189
 30
0
 40
55.00000000000001
 50
324.7840914295459
 51
335.2159085704541
  0
ARC
  8
1
 62
7
 10
-251.521182147289
 20
-72.4646911927189
 30
0
 40
54.99999999999997
 50
264.784091429546
 51
275.2159085704541
  0
ARC
  8
1
 62
7
 10
-251.521182147289
 20
-72.4646911927189
 30
0
 40
56.00000000000005
 50
155.1225160997809
 51
204.8774839002191
  0
ARC
  8
1
 62
7
 10
-251.521182147289
 20
-72.4646911927189
 30
0
 40
55.99999999999999
 50
95.12251609978087
 51
144.8774839002192
  0
ARC
  8
1
 62
7
 10
-251.521182147289
 20
-72.4646911927189
 30
0
 40
55.99999999999996
 50
35.12251609978092
 51
84.87748390021909
  0
ARC
  8
1
 62
7
 10
-251.521182147289
 20
-72.4646911927189
 30
0
 40
55.99999999999998
 50
335.1225160997809
 51
24.8774839002191
  0
ARC
  8
1
 62
7
 10
-251.521182147289
 20
-72.4646911927189
 30
0
 40
56.00000000000001
 50
275.1225160997809
 51
324.8774839002191
  0
ARC
  8
1
 62
7
 10
-251.521182147289
 20
-72.4646911927189
 30
0
 40
15
 50
105.4660099534206
 51
74.53399004657945
  0
ARC
  8
1
 62
7
 10
-251.521182147289
 20
-72.4646911927189
 30
0
 40
56.00000000000005
 50
215.1225160997809
 51
264.8774839002192
  0
ARC
  8
1
 62
7
 10
-636.521182147289
 20
-28.9646911927189
 30
0
 40
7
 50
180
 51
0
  0
ARC
  8
1
 62
7
 10
-636.521182147289
 20
-72.4646911927189
 30
0
 40
56
 50
97.18075578145829
 51
144.877483900219
  0
ARC
  8
1
 62
7
 10
-636.521182147289
 20
-72.4646911927189
 30
0
 40
56.00000000000001
 50
155.1225160997808
 51
204.877483900219
  0
ARC
  8
1
 62
7
 10
-636.521182147289
 20
-72.4646911927189
 30
0
 40
55.99999999999987
 50
215.1225160997808
 51
264.877483900219
  0
ARC
  8
1
 62
7
 10
-636.521182147289
 20
-72.4646911927189
 30
0
 40
55.99999999999982
 50
275.1225160997808
 51
324.8774839002191
  0
ARC
  8
1
 62
7
 10
-636.521182147289
 20
-72.4646911927189
 30
0
 40
55.99999999999987
 50
335.1225160997809
 51
24.87748390021912
  0
ARC
  8
1
 62
7
 10
-636.521182147289
 20
-72.4646911927189
 30
0
 40
55.99999999999996
 50
35.12251609978092
 51
82.81924421854171
  0
ARC
  8
1
 62
7
 10
-636.521182147289
 20
-72.4646911927189
 30
0
 40
55.00000000000001
 50
97.31202192626694
 51
82.68797807373308
  0
ARC
  8
1
 62
7
 10
-636.521182147289
 20
-72.4646911927189
 30
0
 40
53.00000000000001
 50
97.589542391858
 51
82.41045760814198
  0
CIRCLE
  8
1
 62
7
 10
-409.521182147289
 20
-46.96469119271892
 30
0
 40
3.299999999999955
  0
CIRCLE
  8
1
 62
7
 10
-397.521182147289
 20
-46.96469119271892
 30
0
 40
3.299999999999955
  0
CIRCLE
  8
1
 62
7
 10
-251.521182147289
 20
-72.4646911927189
 30
0
 40
38.2348043161615
  0
CIRCLE
  8
1
 62
7
 10
-636.521182147289
 20
-9.464691192718902
 30
0
 40
2.75
  0
CIRCLE
  8
1
 62
7
 10
-409.521182147289
 20
-97.9646911927189
 30
0
 40
3.299999999999955
  0
CIRCLE
  8
1
 62
7
 10
-397.521182147289
 20
-97.9646911927189
 30
0
 40
3.299999999999955
  0
CIRCLE
  8
1
 62
7
 10
-251.521182147289
 20
-72.4646911927189
 30
0
 40
23.60000000000002
  0
CIRCLE
  8
1
 62
3
  6
DASHDOT
 10
-251.521182147289
 20
-72.4646911927189
 30
0
 40
25
  0
CIRCLE
  8
1
 62
7
 10
-251.521182147289
 20
-72.4646911927189
 30
0
 40
26.60000000000002
  0
CIRCLE
  8
1
 62
7
 10
-251.521182147289
 20
-72.4646911927189
 30
0
 40
29
  0
CIRCLE
  8
1
 62
7
 10
-251.521182147289
 20
-72.4646911927189
 30
0
 40
50.5
  0
CIRCLE
  8
1
 62
7
 10
-251.521182147289
 20
-9.464691192718902
 30
0
 40
2.75
  0
CIRCLE
  8
1
 62
7
 10
-636.521182147289
 20
-72.4646911927189
 30
0
 40
31
  0
CIRCLE
  8
1
 62
7
 10
-636.521182147289
 20
-72.4646911927189
 30
0
 40
20
  0
TEXT
  8
1
 62
7
 10
-687.6332124511119
 20
27.3848968855005
 30
0
 40
6
  1
DC4303
 41
0.9
  7
SIMPLEX
  0
TEXT
  8
1
 62
7
 10
-688.1848774359759
 20
38.0465517795469
 30
0
 40
6
  1
MWC 5
 41
0.9
  7
SIMPLEX
  0
ENDSEC
  0
EOF
