  0
SECTION
  2
HEADER
  9
$ACADVER
  1
AC1009
  9
$INSBASE
 10
0
 20
0
  9
$EXTMIN
 10
-1147.2336576603
 20
-169.6661634748878
  9
$EXTMAX
 10
-559.3454998972342
 20
41.3279350160072
  9
$LIMMIN
 10
-1147.2336576603
 20
-169.6661634748878
  9
$LIMMAX
 10
-559.3454998972342
 20
41.3279350160072
  9
$VIEWCTR
 10
10
 20
10
  9
$VIEWSIZE
 40
10
  9
$SNAPMODE
 70
0
  9
$SNAPUNIT
 10
1
 20
1
  9
$SNAPBASE
 10
0
 20
0
  9
$SNAPANG
 50
0
  9
$SNAPSTYLE
 70
0
  9
$SNAPISOPAIR
 70
0
  9
$GRIDMODE
 70
0
  9
$GRIDUNIT
 10
0
 20
0
  9
$ORTHOMODE
 70
0
  9
$REGENMODE
 70
1
  9
$FILLMODE
 70
1
  9
$QTEXTMODE
 70
0
  9
$DRAGMODE
 70
2
  9
$LTSCALE
 40
1
  9
$OSMODE
 70
0
  9
$ATTMODE
 70
1
  9
$TEXTSIZE
 40
3.5
  9
$TRACEWID
 40
0.5
  9
$TEXTSTYLE
  7
STANDARD
  9
$CLAYER
  8
0
  9
$CELTYPE
  6
BYLAYER
  9
$CECOLOR
 62
256
  9
$DIMSCALE
 40
1
  9
$DIMASZ
 40
0.18
  9
$DIMEXO
 40
0.0625
  9
$DIMDLI
 40
0.38
  9
$DIMRND
 40
0
  9
$DIMDLE
 40
0
  9
$DIMEXE
 40
0.18
  9
$DIMTP
 40
0
  9
$DIMTM
 40
0
  9
$DIMTXT
 40
0.18
  9
$DIMCEN
 40
0.09
  9
$DIMTSZ
 40
0
  9
$DIMTOL
 70
0
  9
$DIMLIM
 70
0
  9
$DIMTIH
 70
1
  9
$DIMTOH
 70
1
  9
$DIMSE1
 70
0
  9
$DIMSE2
 70
0
  9
$DIMTAD
 70
0
  9
$DIMZIN
 70
0
  9
$DIMBLK
  1

  9
$DIMASO
 70
1
  9
$DIMSHO
 70
1
  9
$DIMPOST
  1

  9
$DIMAPOST
  1

  9
$DIMALT
 70
0
  9
$DIMALTD
 70
2
  9
$DIMALTF
 40
25.4
  9
$DIMLFAC
 40
1
  9
$DIMTOFL
 70
0
  9
$DIMTVP
 40
0
  9
$DIMTIX
 70
0
  9
$DIMSOXD
 70
0
  9
$DIMSAH
 70
0
  9
$DIMBLK1
  1

  9
$DIMBLK2
  1

  9
$DIMSTYLE
  2
*UNNAMED
  9
$DIMCLRD
 70
0
  9
$DIMCLRE
 70
0
  9
$DIMCLRT
 70
0
  9
$DIMTFAC
 40
1
  9
$DIMGAP
 40
0.09
  9
$LUNITS
 70
2
  9
$LUPREC
 70
4
  9
$AXISMODE
 70
0
  9
$AXISUNIT
 10
0
 20
0
  9
$SKETCHINC
 40
0.1
  9
$FILLETRAD
 40
2
  9
$AUNITS
 70
0
  9
$AUPREC
 70
0
  9
$MENU
  1
ACAD
  9
$ELEVATION
 40
0
  9
$THICKNESS
 40
0
  9
$VIEWDIR
 10
0
 20
0
 30
1
  9
$LIMCHECK
 70
0
  9
$BLIPMODE
 70
1
  9
$CHAMFERA
 40
0
  9
$CHAMFERB
 40
0
  9
$FASTZOOM
 70
1
  9
$SKPOLY
 70
0
  9
$ANGBASE
 50
0
  9
$ANGDIR
 70
0
  9
$PDMODE
 70
0
  9
$PDSIZE
 40
0
  9
$PLINEWID
 40
0
  9
$COORDS
 70
2
  0
ENDSEC
  0
SECTION
  2
TABLES
  0
TABLE
  2
DIMSTYLE
 70
0
  0
ENDTAB
  0
TABLE
  2
LTYPE
 70
9
  0
LTYPE
  2
CONTINUOUS
 70
64
  3
Solid line
 72
65
 73
0
 40
0
  0
LTYPE
  2
BORDER
 70
64
  3
__ __ . __ __ .
 72
65
 73
6
 40
27.07379673908856
 49
7.735370496882445
 49
-3.867685248441223
 49
7.735370496882445
 49
-3.867685248441223
 49
0
 49
-3.867685248441223
  0
LTYPE
  2
CENTER
 70
64
  3
____ _ ____ _
 72
65
 73
4
 40
30.94148198752978
 49
19.33842624220611
 49
-3.867685248441223
 49
3.867685248441223
 49
-3.867685248441223
  0
LTYPE
  2
DASHDOT
 70
64
  3
__ . __ . __ .
 72
65
 73
4
 40
15.47074099376489
 49
7.735370496882445
 49
-3.867685248441223
 49
0
 49
-3.867685248441223
  0
LTYPE
  2
DASHED
 70
64
  3
__ __ __ __ __
 72
65
 73
2
 40
11.60305574532367
 49
7.735370496882445
 49
-3.867685248441223
  0
LTYPE
  2
DIVIDE
 70
64
  3
__ . . __ . . 
 72
65
 73
6
 40
19.33842624220611
 49
7.735370496882445
 49
-3.867685248441223
 49
0
 49
-3.867685248441223
 49
0
 49
-3.867685248441223
  0
LTYPE
  2
DOT
 70
64
  3
..............
 72
65
 73
4
 40
7.735370496882445
 49
0
 49
-3.867685248441223
 49
0
 49
-3.867685248441223
  0
LTYPE
  2
HIDDEN
 70
64
  3
_ _ _ _ _ _ _
 72
65
 73
2
 40
5.801527872661834
 49
3.867685248441223
 49
-1.933842624220611
  0
LTYPE
  2
PHANTOM
 70
64
  3
_____ _ _ _____ _ _ 
 72
65
 73
6
 40
38.67685248441222
 49
19.33842624220611
 49
-3.867685248441223
 49
3.867685248441223
 49
-3.867685248441223
 49
3.867685248441223
 49
-3.867685248441223
  0
ENDTAB
  0
TABLE
  2
LAYER
 70
3
  0
LAYER
  2
1
 70
0
 62
7
  6
CONTINUOUS
  0
LAYER
  2
0
 70
0
 62
7
  6
CONTINUOUS
  0
ENDTAB
  0
TABLE
  2
STYLE
 70
4
  0
STYLE
  2
STANDARD
 70
0
 40
0
 41
1
 50
0
 71
0
 42
3.5
  3
txt
  4

  0
STYLE
  2
SIMPLEX
 70
0
 40
0
 41
1
 50
0
 71
0
 42
3.5
  3
simplex
  4

  0
STYLE
  2
COMPLEX
 70
0
 40
0
 41
1
 50
0
 71
0
 42
3.5
  3
complex
  4

  0
STYLE
  2
ITALIC
 70
0
 40
0
 41
1
 50
0
 71
0
 42
3.5
  3
italic
  4

  0
ENDTAB
  0
TABLE
  2
VIEW
 70
0
  0
ENDTAB
  0
ENDSEC
  0
SECTION
  2
BLOCKS
  0
ENDSEC
  0
SECTION
  2
ENTITIES
  0
LINE
  8
1
 62
3
  6
DASHDOT
 10
-949.217843239441
 20
-20.69827725040901
 30
0
 11
-944.13855718675
 21
-20.69827725040901
 31
0
  0
LINE
  8
1
 62
7
 10
-639.8833665278087
 20
-36.31931769193505
 30
0
 11
-646.4445434085627
 21
-11.83267221551455
 31
0
  0
LINE
  8
1
 62
7
 10
-648.984928331703
 20
-12.51336630413418
 30
0
 11
-646.4445434085627
 21
-11.83267221551455
 31
0
  0
LINE
  8
1
 62
7
 10
-648.3432442454762
 20
-12.34142757143378
 30
0
 11
-649.6373394709888
 21
-7.511798439988439
 31
0
  0
LINE
  8
1
 62
7
 10
-647.9841399856227
 20
-12.24520587500749
 30
0
 11
-649.2782352111353
 21
-7.415576743562143
 31
0
  0
LINE
  8
1
 62
7
 10
-647.161675390476
 20
-12.02482715093474
 30
0
 11
-648.4557706159886
 21
-7.195198019489395
 31
0
  0
LINE
  8
1
 62
7
 10
-647.3933555581227
 20
-12.08690566475798
 30
0
 11
-648.6874507836353
 21
-7.257276533312637
 31
0
  0
LINE
  8
1
 62
7
 10
-647.7147358701329
 20
-12.17301925982436
 30
0
 11
-649.0088310956455
 21
-7.343390128379021
 31
0
  0
LINE
  8
1
 62
7
 10
-651.5059947383174
 20
-13.18888401185171
 30
0
 11
-648.9656098151771
 21
-12.50818992323208
 31
0
  0
LINE
  8
1
 62
7
 10
-650.8643106520906
 20
-13.01694527915131
 30
0
 11
-652.1584058776032
 21
-8.187316147705971
 31
0
  0
LINE
  8
1
 62
7
 10
-650.5052063922371
 20
-12.92072358272502
 30
0
 11
-651.7993016177497
 21
-8.091094451279675
 31
0
  0
LINE
  8
1
 62
7
 10
-649.6827417970904
 20
-12.70034485865227
 30
0
 11
-650.976837022603
 21
-7.870715727206927
 31
0
  0
LINE
  8
1
 62
7
 10
-649.9144219647371
 20
-12.76242337247551
 30
0
 11
-651.2085171902497
 21
-7.932794241030169
 31
0
  0
LINE
  8
1
 62
7
 10
-650.2358022767473
 20
-12.84853696754189
 30
0
 11
-651.5298975022599
 21
-8.018907836096552
 31
0
  0
LINE
  8
1
 62
7
 10
-648.9656098151771
 20
-12.50818992323208
 30
0
 11
-642.4178974196624
 21
-36.94458525664146
 31
0
  0
LINE
  8
1
 62
7
 10
-651.5059947383174
 20
-13.18888401185171
 30
0
 11
-644.9448178575634
 21
-37.67552948827226
 31
0
  0
LINE
  8
1
 62
7
 10
-631.3454998972341
 20
-78.19827725040901
 30
0
 11
-631.3454998972341
 21
-81.61949322207009
 31
0
  0
LINE
  8
1
 62
7
 10
-619.3454998972341
 20
-78.19827725040901
 30
0
 11
-619.3454998972341
 21
-81.61949322207009
 31
0
  0
LINE
  8
1
 62
7
 10
-631.3454998972341
 20
-78.19827725040901
 30
0
 11
-619.3454998972341
 21
-78.19827725040901
 31
0
  0
LINE
  8
1
 62
3
  6
DASHDOT
 10
-575.1960088685665
 20
-71.7444551052851
 30
0
 11
-565.6175583815208
 21
-66.21433413816976
 31
0
  0
LINE
  8
1
 62
7
 10
-633.3454998972341
 20
-14.69827725040901
 30
0
 11
-633.3454998972341
 21
-35.1849198337722
 31
0
  0
LINE
  8
1
 62
7
 10
-617.3454998972341
 20
-14.69827725040901
 30
0
 11
-617.3454998972341
 21
-35.1849198337722
 31
0
  0
LINE
  8
1
 62
7
 10
-631.3454998972341
 20
-12.69827725040901
 30
0
 11
-619.3454998972341
 21
-12.69827725040901
 31
0
  0
LINE
  8
1
 62
7
 10
-818.3454998972341
 20
-72.86906861731551
 30
0
 11
-818.3454998972341
 21
-57.69827725040901
 31
0
  0
LINE
  8
1
 62
7
 10
-575.5179502663833
 20
-65.00212482770242
 30
0
 11
-569.5179502663833
 21
-75.39442967311568
 31
0
  0
LINE
  8
1
 62
7
 10
-565.4245020142033
 20
-73.03107622280572
 30
0
 11
-569.5179502663833
 21
-75.39442967311568
 31
0
  0
LINE
  8
1
 62
7
 10
-571.4245020142032
 20
-62.63877137739244
 30
0
 11
-575.5179502663833
 21
-65.00212482770242
 31
0
  0
LINE
  8
1
 62
7
 10
-569.5179502663833
 20
-126.0021248277024
 30
0
 11
-575.5179502663834
 21
-136.3944296731156
 31
0
  0
LINE
  8
1
 62
7
 10
-571.4245020142033
 20
-138.7577831234256
 30
0
 11
-575.5179502663834
 21
-136.3944296731156
 31
0
  0
LINE
  8
1
 62
7
 10
-565.4245020142033
 20
-128.3654782780123
 30
0
 11
-569.5179502663833
 21
-126.0021248277024
 31
0
  0
LINE
  8
1
 62
7
 10
-619.3454998972341
 20
-161.698277250409
 30
0
 11
-631.3454998972341
 21
-161.698277250409
 31
0
  0
LINE
  8
1
 62
7
 10
-631.3454998972341
 20
-166.4249841510289
 30
0
 11
-631.3454998972341
 21
-161.698277250409
 31
0
  0
LINE
  8
1
 62
7
 10
-619.3454998972341
 20
-166.4249841510289
 30
0
 11
-619.3454998972341
 21
-161.698277250409
 31
0
  0
LINE
  8
1
 62
7
 10
-675.1730495280848
 20
-136.3944296731156
 30
0
 11
-681.1730495280848
 21
-126.0021248277024
 31
0
  0
LINE
  8
1
 62
7
 10
-685.2664977802649
 20
-128.3654782780123
 30
0
 11
-681.1730495280848
 21
-126.0021248277024
 31
0
  0
LINE
  8
1
 62
7
 10
-679.2664977802649
 20
-138.7577831234256
 30
0
 11
-675.1730495280848
 21
-136.3944296731156
 31
0
  0
LINE
  8
1
 62
7
 10
-681.1730495280848
 20
-75.39442967311562
 30
0
 11
-675.1730495280848
 21
-65.00212482770236
 31
0
  0
LINE
  8
1
 62
7
 10
-679.2664977802649
 20
-62.6387713773924
 30
0
 11
-675.1730495280848
 21
-65.00212482770236
 31
0
  0
LINE
  8
1
 62
7
 10
-685.2664977802649
 20
-73.03107622280567
 30
0
 11
-681.1730495280848
 21
-75.39442967311562
 31
0
  0
LINE
  8
1
 62
7
 10
-631.3454998972341
 20
-39.69827725040901
 30
0
 11
-619.3454998972341
 21
-39.69827725040901
 31
0
  0
LINE
  8
1
 62
7
 10
-619.3454998972341
 20
-34.97157034978908
 30
0
 11
-619.3454998972341
 21
-39.69827725040901
 31
0
  0
LINE
  8
1
 62
7
 10
-631.3454998972341
 20
-34.97157034978908
 30
0
 11
-631.3454998972341
 21
-39.69827725040901
 31
0
  0
LINE
  8
1
 62
7
 10
-768.3454998972341
 20
-80.69827725040901
 30
0
 11
-755.3454998972341
 21
-80.69827725040901
 31
0
  0
LINE
  8
1
 62
7
 10
-755.3454998972341
 20
-78.19827725040901
 30
0
 11
-818.3454998972341
 21
-78.19827725040901
 31
0
  0
LINE
  8
1
 62
7
 10
-818.245499897234
 20
-23.94827725040901
 30
0
 11
-815.245499897234
 21
-23.94827725040901
 31
0
  0
LINE
  8
1
 62
7
 10
-818.245499897234
 20
-17.44827725040901
 30
0
 11
-815.245499897234
 21
-17.44827725040901
 31
0
  0
LINE
  8
1
 62
3
  6
DASHDOT
 10
-819.217843239441
 20
-20.69827725040901
 30
0
 11
-814.13855718675
 21
-20.69827725040901
 31
0
  0
LINE
  8
1
 62
7
 10
-815.245499897234
 20
-12.69827725040901
 30
0
 11
-818.245499897234
 21
-12.69827725040901
 31
0
  0
LINE
  8
1
 62
7
 10
-818.245499897234
 20
-12.69827725040901
 30
0
 11
-818.245499897234
 21
-57.69827725040901
 31
0
  0
LINE
  8
1
 62
7
 10
-815.245499897234
 20
-57.69827725040901
 30
0
 11
-818.3454998972341
 21
-57.69827725040901
 31
0
  0
LINE
  8
1
 62
7
 10
-808.660499897234
 20
-9.399859984221941
 30
0
 11
-806.0304998972341
 21
-9.399859984221941
 31
0
  0
LINE
  8
1
 62
7
 10
-806.6948201470531
 20
-4.399859984221941
 30
0
 11
-806.6948201470531
 21
-9.399859984221941
 31
0
  0
LINE
  8
1
 62
7
 10
-807.066592233563
 20
-4.399859984221941
 30
0
 11
-807.066592233563
 21
-9.399859984221941
 31
0
  0
LINE
  8
1
 62
7
 10
-807.9180702381491
 20
-4.399859984221941
 30
0
 11
-807.9180702381491
 21
-9.399859984221941
 31
0
  0
LINE
  8
1
 62
7
 10
-807.678217279111
 20
-4.399859984221941
 30
0
 11
-807.678217279111
 21
-9.399859984221941
 31
0
  0
LINE
  8
1
 62
7
 10
-807.3454998972341
 20
-4.399859984221941
 30
0
 11
-807.3454998972341
 21
-9.399859984221941
 31
0
  0
LINE
  8
1
 62
7
 10
-808.660499897234
 20
-9.399859984221941
 30
0
 11
-808.660499897234
 21
-35.69827725040901
 31
0
  0
LINE
  8
1
 62
7
 10
-806.0304998972341
 20
-35.69827725040901
 30
0
 11
-806.0304998972341
 21
-9.399859984221941
 31
0
  0
LINE
  8
1
 62
7
 10
-907.3454998972341
 20
-160.398277250409
 30
0
 11
-909.3454998972341
 21
-160.398277250409
 31
0
  0
LINE
  8
1
 62
7
 10
-886.1454998972339
 20
-132.6982772504091
 30
0
 11
-885.3454998972341
 21
-132.698277250409
 31
0
  0
LINE
  8
1
 62
7
 10
-893.1454998972339
 20
-166.698277250409
 30
0
 11
-907.3454998972341
 21
-166.698277250409
 31
0
  0
LINE
  8
1
 62
7
 10
-888.1454998972339
 20
-160.698277250409
 30
0
 11
-886.1454998972339
 21
-144.4095843944598
 31
0
  0
LINE
  8
1
 62
7
 10
-893.1454998972339
 20
-160.698277250409
 30
0
 11
-888.1454998972339
 21
-160.698277250409
 31
0
  0
LINE
  8
1
 62
7
 10
-948.3454998972341
 20
-163.698277250409
 30
0
 11
-946.3454998972341
 21
-165.698277250409
 31
0
  0
LINE
  8
1
 62
7
 10
-913.3454998972341
 20
-165.698277250409
 30
0
 11
-909.3454998972341
 21
-161.698277250409
 31
0
  0
LINE
  8
1
 62
7
 10
-913.3454998972341
 20
-165.698277250409
 30
0
 11
-946.3454998972341
 21
-165.698277250409
 31
0
  0
LINE
  8
1
 62
7
 10
-909.3454998972341
 20
-161.698277250409
 30
0
 11
-909.3454998972341
 21
-39.69827725040901
 31
0
  0
LINE
  8
1
 62
7
 10
-815.8454998972341
 20
-72.298277250409
 30
0
 11
-815.8454998972341
 21
-77.19827725040901
 31
0
  0
LINE
  8
1
 62
7
 10
-813.8454998972341
 20
-72.298277250409
 30
0
 11
-815.8454998972341
 21
-72.298277250409
 31
0
  0
LINE
  8
1
 62
7
 10
-813.8454998972341
 20
-58.94827725040901
 30
0
 11
-813.8454998972341
 21
-77.19827725040901
 31
0
  0
LINE
  8
1
 62
7
 10
-813.8454998972341
 20
-65.94827725040901
 30
0
 11
-816.3454998972341
 21
-65.94827725040901
 31
0
  0
LINE
  8
1
 62
7
 10
-759.3454998972341
 20
-68.14827725040901
 30
0
 11
-757.8454998972341
 21
-68.14827725040901
 31
0
  0
LINE
  8
1
 62
7
 10
-786.8454998972341
 20
-54.69827725040901
 30
0
 11
-786.8454998972341
 21
-40.69827725040901
 31
0
  0
LINE
  8
1
 62
7
 10
-777.3454998972341
 20
-34.69827725040901
 30
0
 11
-763.1454998972339
 21
-34.69827725040901
 31
0
  0
LINE
  8
1
 62
7
 10
-763.1454998972339
 20
-34.69827725040901
 30
0
 11
-763.1454998972339
 21
-73.19827725040901
 31
0
  0
LINE
  8
1
 62
7
 10
-763.1454998972339
 20
-68.19827725040901
 30
0
 11
-759.3454998972341
 21
-68.19827725040901
 31
0
  0
LINE
  8
1
 62
7
 10
-763.1454998972339
 20
-72.44827725040901
 30
0
 11
-759.3454998972341
 21
-72.44827725040901
 31
0
  0
LINE
  8
1
 62
7
 10
-759.3454998972341
 20
-72.44827725040901
 30
0
 11
-759.3454998972341
 21
-65.69827725040901
 31
0
  0
LINE
  8
1
 62
7
 10
-759.3454998972341
 20
-65.69827725040901
 30
0
 11
-756.1454998972339
 21
-65.69827725040901
 31
0
  0
LINE
  8
1
 62
7
 10
-756.1454998972339
 20
-67.541586602927
 30
0
 11
-756.1454998972339
 21
-56.98697010635819
 31
0
  0
LINE
  8
1
 62
7
 10
-756.1454998972339
 20
-56.98697010635819
 30
0
 11
-758.1454998972339
 21
-40.69827725040901
 31
0
  0
LINE
  8
1
 62
7
 10
-758.1454998972339
 20
-40.69827725040901
 30
0
 11
-763.1454998972339
 21
-40.69827725040901
 31
0
  0
LINE
  8
1
 62
7
 10
-779.3454998972341
 20
-39.69827725040901
 30
0
 11
-783.3454998972341
 21
-35.69827725040901
 31
0
  0
LINE
  8
1
 62
7
 10
-786.3454998972341
 20
-54.69827725040901
 30
0
 11
-785.3454998972341
 21
-55.69827725040901
 31
0
  0
LINE
  8
1
 62
7
 10
-818.3454998972341
 20
-60.69827725040901
 30
0
 11
-816.3454998972341
 21
-60.69827725040901
 31
0
  0
LINE
  8
1
 62
7
 10
-816.3454998972341
 20
-58.94827725040901
 30
0
 11
-813.8454998972341
 21
-58.94827725040901
 31
0
  0
LINE
  8
1
 62
7
 10
-793.8454998972341
 20
-63.19827725040901
 30
0
 11
-785.3454998972341
 21
-63.19827725040901
 31
0
  0
LINE
  8
1
 62
7
 10
-785.3454998972341
 20
-63.19827725040901
 30
0
 11
-785.3454998972341
 21
-55.69827725040901
 31
0
  0
LINE
  8
1
 62
7
 10
-815.245499897234
 20
-35.69827725040901
 30
0
 11
-783.3454998972341
 21
-35.69827725040901
 31
0
  0
LINE
  8
1
 62
7
 10
-779.3454998972341
 20
-40.69827725040901
 30
0
 11
-779.3454998972341
 21
-39.69827725040901
 31
0
  0
LINE
  8
1
 62
7
 10
-779.3454998972341
 20
-40.69827725040901
 30
0
 11
-786.8454998972341
 21
-40.69827725040901
 31
0
  0
LINE
  8
1
 62
7
 10
-813.8454998972341
 20
-75.69827725040901
 30
0
 11
-793.8454998972341
 21
-75.69827725040901
 31
0
  0
LINE
  8
1
 62
7
 10
-793.8454998972341
 20
-60.69827725040901
 30
0
 11
-813.8454998972341
 21
-60.69827725040901
 31
0
  0
LINE
  8
1
 62
7
 10
-811.0954998972341
 20
-72.09539156743898
 30
0
 11
-813.8454998972341
 21
-72.09539156743895
 31
0
  0
LINE
  8
1
 62
7
 10
-811.0954998972341
 20
-64.30116293337903
 30
0
 11
-813.8454998972341
 21
-64.30116293337906
 31
0
  0
LINE
  8
1
 62
7
 10
-793.8454998972341
 20
-60.69827725040901
 30
0
 11
-793.8454998972341
 21
-75.69827725040901
 31
0
  0
LINE
  8
1
 62
7
 10
-803.8454998972341
 20
-60.69827725040901
 30
0
 11
-803.8454998972341
 21
-75.69827725040901
 31
0
  0
LINE
  8
1
 62
7
 10
-801.0954998972341
 20
-72.09539156743898
 30
0
 11
-806.5954998972341
 21
-72.09539156743898
 31
0
  0
LINE
  8
1
 62
7
 10
-793.8454998972341
 20
-72.09539156743895
 30
0
 11
-796.5954998972341
 21
-72.09539156743898
 31
0
  0
LINE
  8
1
 62
7
 10
-793.8454998972341
 20
-64.30116293337906
 30
0
 11
-796.5954998972341
 21
-64.30116293337903
 31
0
  0
LINE
  8
1
 62
7
 10
-801.0954998972341
 20
-64.30116293337903
 30
0
 11
-806.5954998972341
 21
-64.30116293337903
 31
0
  0
LINE
  8
1
 62
7
 10
-793.8454998972341
 20
-72.69827725040901
 30
0
 11
-792.3454998972341
 21
-72.69827725040901
 31
0
  0
LINE
  8
1
 62
7
 10
-792.3454998972341
 20
-72.69827725040901
 30
0
 11
-792.3454998972341
 21
-63.998277250409
 31
0
  0
LINE
  8
1
 62
7
 10
-792.3454998972341
 20
-63.998277250409
 30
0
 11
-784.3454998972341
 21
-63.998277250409
 31
0
  0
LINE
  8
1
 62
7
 10
-784.3454998972341
 20
-63.998277250409
 30
0
 11
-784.3454998972341
 21
-47.69827725040901
 31
0
  0
LINE
  8
1
 62
7
 10
-784.3454998972341
 20
-47.69827725040901
 30
0
 11
-785.8454998972341
 21
-47.69827725040901
 31
0
  0
LINE
  8
1
 62
7
 10
-785.8454998972341
 20
-47.69827725040901
 30
0
 11
-785.8454998972341
 21
-41.498277250409
 31
0
  0
LINE
  8
1
 62
7
 10
-785.8454998972341
 20
-41.498277250409
 30
0
 11
-777.3454998972341
 21
-41.498277250409
 31
0
  0
LINE
  8
1
 62
7
 10
-777.3454998972341
 20
-74.69827725040901
 30
0
 11
-777.3454998972341
 21
-34.69827725040901
 31
0
  0
LINE
  8
1
 62
7
 10
-818.3454998972341
 20
-75.69827725040901
 30
0
 11
-818.3454998972341
 21
-125.698277250409
 31
0
  0
LINE
  8
1
 62
7
 10
-818.3454998972341
 20
-75.69827725040901
 30
0
 11
-815.8454998972341
 21
-75.69827725040901
 31
0
  0
LINE
  8
1
 62
7
 10
-815.8454998972341
 20
-77.19827725040901
 30
0
 11
-813.8454998972341
 21
-77.19827725040901
 31
0
  0
LINE
  8
1
 62
7
 10
-777.3454998972341
 20
-74.69827725040901
 30
0
 11
-793.8454998972341
 21
-74.69827725040901
 31
0
  0
LINE
  8
1
 62
7
 10
-757.8454998972341
 20
-70.44827725040901
 30
0
 11
-757.8454998972341
 21
-68.14827725040901
 31
0
  0
LINE
  8
1
 62
7
 10
-757.8454998972341
 20
-68.69827725040901
 30
0
 11
-755.3454998972341
 21
-68.69827725040899
 31
0
  0
LINE
  8
1
 62
7
 10
-755.3454998972341
 20
-68.69827725040899
 30
0
 11
-755.3454998972341
 21
-132.6982772504091
 31
0
  0
LINE
  8
1
 62
7
 10
-790.3454998972341
 20
-80.69827725040901
 30
0
 11
-774.3454998972341
 21
-80.69827725040901
 31
0
  0
LINE
  8
1
 62
7
 10
-774.3454998972341
 20
-80.19827725040901
 30
0
 11
-768.3454998972341
 21
-80.19827725040901
 31
0
  0
LINE
  8
1
 62
7
 10
-796.3454998972341
 20
-80.19827725040901
 30
0
 11
-790.3454998972341
 21
-80.19827725040901
 31
0
  0
LINE
  8
1
 62
7
 10
-796.3454998972341
 20
-80.69827725040901
 30
0
 11
-818.3454998972341
 21
-80.69827725040901
 31
0
  0
LINE
  8
1
 62
7
 10
-790.3454998972341
 20
-80.19827725040901
 30
0
 11
-790.3454998972341
 21
-121.198277250409
 31
0
  0
LINE
  8
1
 62
7
 10
-796.3454998972341
 20
-80.19827725040901
 30
0
 11
-796.3454998972341
 21
-121.198277250409
 31
0
  0
LINE
  8
1
 62
7
 10
-774.3454998972341
 20
-80.19827725040901
 30
0
 11
-774.3454998972341
 21
-121.198277250409
 31
0
  0
LINE
  8
1
 62
7
 10
-768.3454998972341
 20
-80.19827725040901
 30
0
 11
-768.3454998972341
 21
-121.198277250409
 31
0
  0
LINE
  8
1
 62
7
 10
-791.8454998972341
 20
-74.69827725040901
 30
0
 11
-791.8454998972341
 21
-63.998277250409
 31
0
  0
LINE
  8
1
 62
3
  6
DASHDOT
 10
-612.4470361181706
 20
-87.79981347134554
 30
0
 11
-604.5407422913378
 21
-79.89351964451278
 31
0
  0
LINE
  8
1
 62
7
  6
DASHED
 10
-612.3038552928434
 20
-85.53531230245875
 30
0
 11
-606.9896722300663
 21
-80.22112923968162
 31
0
  0
LINE
  8
1
 62
7
  6
DASHED
 10
-610.1825349492838
 20
-87.65663264601834
 30
0
 11
-604.8683518865066
 21
-82.34244958324121
 31
0
  0
LINE
  8
1
 62
3
  6
DASHDOT
 10
-638.2439636762975
 20
-87.79981347134549
 30
0
 11
-646.1502575031303
 21
-79.89351964451271
 31
0
  0
LINE
  8
1
 62
3
  6
DASHDOT
 10
-638.2439636762975
 20
-113.5967410294725
 30
0
 11
-646.1502575031303
 21
-121.5030348563052
 31
0
  0
LINE
  8
1
 62
3
  6
DASHDOT
 10
-612.4470361181707
 20
-113.5967410294725
 30
0
 11
-604.5407422913379
 21
-121.5030348563052
 31
0
  0
LINE
  8
1
 62
7
  6
DASHED
 10
-640.5084648451843
 20
-87.65663264601835
 30
0
 11
-645.8226479079615
 21
-82.34244958324121
 31
0
  0
LINE
  8
1
 62
7
  6
DASHED
 10
-638.3871445016247
 20
-115.8612421983592
 30
0
 11
-643.7013275644018
 21
-121.1754252611364
 31
0
  0
LINE
  8
1
 62
7
  6
DASHED
 10
-610.1825349492839
 20
-113.7399218547996
 30
0
 11
-604.8683518865067
 21
-119.0541049175767
 31
0
  0
LINE
  8
1
 62
7
  6
DASHED
 10
-638.3871445016247
 20
-85.53531230245869
 30
0
 11
-643.7013275644018
 21
-80.22112923968155
 31
0
  0
LINE
  8
1
 62
7
  6
DASHED
 10
-640.5084648451843
 20
-113.7399218547997
 30
0
 11
-645.8226479079615
 21
-119.0541049175768
 31
0
  0
LINE
  8
1
 62
7
  6
DASHED
 10
-612.3038552928434
 20
-115.8612421983592
 30
0
 11
-606.9896722300663
 21
-121.1754252611364
 31
0
  0
LINE
  8
1
 62
3
  6
DASHDOT
 10
-617.509997567188
 20
-100.698277250409
 30
0
 11
-633.1810022272802
 21
-100.698277250409
 31
0
  0
LINE
  8
1
 62
3
  6
DASHDOT
 10
-625.3454998972341
 20
-92.86277492036291
 30
0
 11
-625.3454998972341
 21
-108.5337795804551
 31
0
  0
LINE
  8
1
 62
3
  6
DASHDOT
 10
-620.725983222942
 20
-20.69827725040901
 30
0
 11
-629.9650165715261
 21
-20.69827725040901
 31
0
  0
LINE
  8
1
 62
3
  6
DASHDOT
 10
-625.3454998972341
 20
-16.07876057611694
 30
0
 11
-625.3454998972341
 21
-25.31779392470108
 31
0
  0
LINE
  8
1
 62
3
  6
DASHDOT
 10
-625.3454998972341
 20
-42.79063296016119
 30
0
 11
-625.3454998972341
 21
-31.73039102593047
 31
0
  0
LINE
  8
1
 62
3
  6
DASHDOT
 10
-675.4949909259017
 20
-71.7444551052851
 30
0
 11
-685.0734414129473
 21
-66.21433413816969
 31
0
  0
LINE
  8
1
 62
3
  6
DASHDOT
 10
-675.4949909259017
 20
-129.652099395533
 30
0
 11
-685.0734414129473
 21
-135.1822203626483
 31
0
  0
LINE
  8
1
 62
3
  6
DASHDOT
 10
-625.3454998972342
 20
-158.6059215406571
 30
0
 11
-625.3454998972342
 21
-169.6661634748878
 31
0
  0
LINE
  8
1
 62
3
  6
DASHDOT
 10
-575.1960088685665
 20
-129.652099395533
 30
0
 11
-565.6175583815207
 21
-135.1822203626486
 31
0
  0
LINE
  8
1
 62
7
 10
-786.8454998972341
 20
-54.69827725040901
 30
0
 11
-786.3454998972341
 21
-54.69827725040901
 31
0
  0
LINE
  8
1
 62
7
 10
-759.3454998972341
 20
-70.44827725040901
 30
0
 11
-757.8454998972341
 21
-70.44827725040901
 31
0
  0
LINE
  8
1
 62
7
 10
-777.3454998972341
 20
-68.69827725040901
 30
0
 11
-759.3454998972341
 21
-68.69827725040901
 31
0
  0
LINE
  8
1
 62
7
 10
-777.3454998972341
 20
-73.19827725040901
 30
0
 11
-755.3454998972341
 21
-73.19827725040901
 31
0
  0
LINE
  8
1
 62
7
 10
-815.245499897234
 20
-57.69827725040901
 30
0
 11
-815.245499897234
 21
-12.69827725040901
 31
0
  0
LINE
  8
1
 62
7
 10
-816.3454998972341
 20
-58.94827725040901
 30
0
 11
-816.3454998972341
 21
-69.94417653098451
 31
0
  0
LINE
  8
1
 62
7
 10
-755.3454998972341
 20
-120.698277250409
 30
0
 11
-768.3454998972341
 21
-120.698277250409
 31
0
  0
LINE
  8
1
 62
7
 10
-815.8454998972341
 20
-124.198277250409
 30
0
 11
-815.8454998972341
 21
-129.098277250409
 31
0
  0
LINE
  8
1
 62
7
 10
-815.8454998972341
 20
-129.098277250409
 30
0
 11
-813.8454998972341
 21
-129.098277250409
 31
0
  0
LINE
  8
1
 62
7
 10
-813.8454998972341
 20
-124.198277250409
 30
0
 11
-813.8454998972341
 21
-142.448277250409
 31
0
  0
LINE
  8
1
 62
7
 10
-816.3454998972341
 20
-135.448277250409
 30
0
 11
-813.8454998972341
 21
-135.448277250409
 31
0
  0
LINE
  8
1
 62
7
 10
-757.8454998972341
 20
-133.248277250409
 30
0
 11
-759.3454998972341
 21
-133.248277250409
 31
0
  0
LINE
  8
1
 62
7
 10
-757.8454998972341
 20
-133.248277250409
 30
0
 11
-757.8454998972341
 21
-130.948277250409
 31
0
  0
LINE
  8
1
 62
7
 10
-786.8454998972341
 20
-160.698277250409
 30
0
 11
-786.8454998972341
 21
-146.698277250409
 31
0
  0
LINE
  8
1
 62
7
 10
-763.1454998972339
 20
-166.698277250409
 30
0
 11
-777.3454998972341
 21
-166.698277250409
 31
0
  0
LINE
  8
1
 62
7
 10
-777.3454998972341
 20
-166.698277250409
 30
0
 11
-777.3454998972341
 21
-126.698277250409
 31
0
  0
LINE
  8
1
 62
7
 10
-759.3454998972341
 20
-133.198277250409
 30
0
 11
-763.1454998972339
 21
-133.198277250409
 31
0
  0
LINE
  8
1
 62
7
 10
-759.3454998972341
 20
-128.948277250409
 30
0
 11
-763.1454998972339
 21
-128.948277250409
 31
0
  0
LINE
  8
1
 62
7
 10
-759.3454998972341
 20
-135.698277250409
 30
0
 11
-759.3454998972341
 21
-128.948277250409
 31
0
  0
LINE
  8
1
 62
7
 10
-756.1454998972339
 20
-135.698277250409
 30
0
 11
-759.3454998972341
 21
-135.698277250409
 31
0
  0
LINE
  8
1
 62
7
 10
-756.1454998972339
 20
-144.4095843944598
 30
0
 11
-756.1454998972339
 21
-133.854967897891
 31
0
  0
LINE
  8
1
 62
7
 10
-758.1454998972339
 20
-160.698277250409
 30
0
 11
-756.1454998972339
 21
-144.4095843944598
 31
0
  0
LINE
  8
1
 62
7
 10
-763.1454998972339
 20
-160.698277250409
 30
0
 11
-758.1454998972339
 21
-160.698277250409
 31
0
  0
LINE
  8
1
 62
7
 10
-783.3454998972341
 20
-165.698277250409
 30
0
 11
-779.3454998972341
 21
-161.698277250409
 31
0
  0
LINE
  8
1
 62
7
 10
-785.3454998972341
 20
-145.698277250409
 30
0
 11
-786.3454998972341
 21
-146.698277250409
 31
0
  0
LINE
  8
1
 62
7
 10
-816.3454998972341
 20
-140.698277250409
 30
0
 11
-818.3454998972341
 21
-140.698277250409
 31
0
  0
LINE
  8
1
 62
7
 10
-813.8454998972341
 20
-142.448277250409
 30
0
 11
-816.3454998972341
 21
-142.448277250409
 31
0
  0
LINE
  8
1
 62
7
 10
-785.3454998972341
 20
-138.198277250409
 30
0
 11
-793.8454998972341
 21
-138.198277250409
 31
0
  0
LINE
  8
1
 62
7
 10
-785.3454998972341
 20
-145.698277250409
 30
0
 11
-785.3454998972341
 21
-138.198277250409
 31
0
  0
LINE
  8
1
 62
7
 10
-783.3454998972341
 20
-165.698277250409
 30
0
 11
-816.3454998972341
 21
-165.698277250409
 31
0
  0
LINE
  8
1
 62
7
 10
-779.3454998972341
 20
-161.698277250409
 30
0
 11
-779.3454998972341
 21
-160.698277250409
 31
0
  0
LINE
  8
1
 62
7
 10
-786.8454998972341
 20
-160.698277250409
 30
0
 11
-779.3454998972341
 21
-160.698277250409
 31
0
  0
LINE
  8
1
 62
7
 10
-793.8454998972341
 20
-125.698277250409
 30
0
 11
-813.8454998972341
 21
-125.698277250409
 31
0
  0
LINE
  8
1
 62
7
 10
-813.8454998972341
 20
-140.698277250409
 30
0
 11
-793.8454998972341
 21
-140.698277250409
 31
0
  0
LINE
  8
1
 62
7
 10
-813.8454998972341
 20
-129.3011629333791
 30
0
 11
-811.0954998972341
 21
-129.3011629333791
 31
0
  0
LINE
  8
1
 62
7
 10
-813.8454998972341
 20
-137.095391567439
 30
0
 11
-811.0954998972341
 21
-137.095391567439
 31
0
  0
LINE
  8
1
 62
7
 10
-793.8454998972341
 20
-125.698277250409
 30
0
 11
-793.8454998972341
 21
-140.698277250409
 31
0
  0
LINE
  8
1
 62
7
 10
-803.8454998972341
 20
-125.698277250409
 30
0
 11
-803.8454998972341
 21
-140.698277250409
 31
0
  0
LINE
  8
1
 62
7
 10
-806.5954998972341
 20
-129.3011629333791
 30
0
 11
-801.0954998972341
 21
-129.3011629333791
 31
0
  0
LINE
  8
1
 62
7
 10
-796.5954998972341
 20
-129.3011629333791
 30
0
 11
-793.8454998972341
 21
-129.3011629333791
 31
0
  0
LINE
  8
1
 62
7
 10
-796.5954998972341
 20
-137.095391567439
 30
0
 11
-793.8454998972341
 21
-137.095391567439
 31
0
  0
LINE
  8
1
 62
7
 10
-806.5954998972341
 20
-137.095391567439
 30
0
 11
-801.0954998972341
 21
-137.095391567439
 31
0
  0
LINE
  8
1
 62
7
 10
-792.3454998972341
 20
-128.698277250409
 30
0
 11
-793.8454998972341
 21
-128.698277250409
 31
0
  0
LINE
  8
1
 62
7
 10
-792.3454998972341
 20
-137.398277250409
 30
0
 11
-792.3454998972341
 21
-128.698277250409
 31
0
  0
LINE
  8
1
 62
7
 10
-784.3454998972341
 20
-137.398277250409
 30
0
 11
-792.3454998972341
 21
-137.398277250409
 31
0
  0
LINE
  8
1
 62
7
 10
-784.3454998972341
 20
-153.698277250409
 30
0
 11
-784.3454998972341
 21
-137.398277250409
 31
0
  0
LINE
  8
1
 62
7
 10
-785.8454998972341
 20
-153.698277250409
 30
0
 11
-784.3454998972341
 21
-153.698277250409
 31
0
  0
LINE
  8
1
 62
7
 10
-785.8454998972341
 20
-159.898277250409
 30
0
 11
-785.8454998972341
 21
-153.698277250409
 31
0
  0
LINE
  8
1
 62
7
 10
-777.3454998972341
 20
-159.898277250409
 30
0
 11
-785.8454998972341
 21
-159.898277250409
 31
0
  0
LINE
  8
1
 62
7
 10
-815.8454998972341
 20
-125.698277250409
 30
0
 11
-818.3454998972341
 21
-125.698277250409
 31
0
  0
LINE
  8
1
 62
7
 10
-813.8454998972341
 20
-124.198277250409
 30
0
 11
-815.8454998972341
 21
-124.198277250409
 31
0
  0
LINE
  8
1
 62
7
 10
-793.8454998972341
 20
-126.698277250409
 30
0
 11
-777.3454998972341
 21
-126.698277250409
 31
0
  0
LINE
  8
1
 62
7
 10
-755.3454998972341
 20
-132.6982772504091
 30
0
 11
-757.8454998972341
 21
-132.698277250409
 31
0
  0
LINE
  8
1
 62
7
 10
-774.3454998972341
 20
-120.698277250409
 30
0
 11
-790.3454998972341
 21
-120.698277250409
 31
0
  0
LINE
  8
1
 62
7
 10
-768.3454998972341
 20
-121.198277250409
 30
0
 11
-774.3454998972341
 21
-121.198277250409
 31
0
  0
LINE
  8
1
 62
7
 10
-790.3454998972341
 20
-121.198277250409
 30
0
 11
-796.3454998972341
 21
-121.198277250409
 31
0
  0
LINE
  8
1
 62
7
 10
-818.3454998972341
 20
-120.698277250409
 30
0
 11
-796.3454998972341
 21
-120.698277250409
 31
0
  0
LINE
  8
1
 62
7
 10
-786.3454998972341
 20
-146.698277250409
 30
0
 11
-786.8454998972341
 21
-146.698277250409
 31
0
  0
LINE
  8
1
 62
7
 10
-757.8454998972341
 20
-130.948277250409
 30
0
 11
-759.3454998972341
 21
-130.948277250409
 31
0
  0
LINE
  8
1
 62
7
 10
-759.3454998972341
 20
-132.698277250409
 30
0
 11
-777.3454998972341
 21
-132.698277250409
 31
0
  0
LINE
  8
1
 62
7
 10
-755.3454998972341
 20
-128.198277250409
 30
0
 11
-777.3454998972341
 21
-128.198277250409
 31
0
  0
LINE
  8
1
 62
7
 10
-816.3454998972341
 20
-131.4523779698335
 30
0
 11
-816.3454998972341
 21
-142.448277250409
 31
0
  0
LINE
  8
1
 62
3
  6
DASHDOT
 10
-771.3454998972341
 20
-119.488232392972
 30
0
 11
-771.3454998972341
 21
-129.819403270292
 31
0
  0
LINE
  8
1
 62
3
  6
DASHDOT
 10
-793.3454998972341
 20
-119.217028936206
 30
0
 11
-793.3454998972341
 21
-126.698277250409
 31
0
  0
LINE
  8
1
 62
7
  6
DASHED
 10
-794.8454998972341
 20
-121.198277250409
 30
0
 11
-794.8454998972341
 21
-125.698277250409
 31
0
  0
LINE
  8
1
 62
7
  6
DASHED
 10
-791.8454998972341
 20
-121.198277250409
 30
0
 11
-791.8454998972341
 21
-137.398277250409
 31
0
  0
LINE
  8
1
 62
7
  6
DASHED
 10
-772.8454998972341
 20
-121.198277250409
 30
0
 11
-772.8454998972341
 21
-128.198277250409
 31
0
  0
LINE
  8
1
 62
7
  6
DASHED
 10
-769.8454998972341
 20
-121.198277250409
 30
0
 11
-769.8454998972341
 21
-128.198277250409
 31
0
  0
LINE
  8
1
 62
3
 10
-755.3454998972341
 20
-100.698277250409
 30
0
 11
-752.3454998972341
 21
-100.698277250409
 31
0
  0
LINE
  8
1
 62
3
 10
-821.3454998972341
 20
-100.698277250409
 30
0
 11
-818.3454998972341
 21
-100.698277250409
 31
0
  0
LINE
  8
1
 62
7
 10
-818.3454998972341
 20
-129.752851668255
 30
0
 11
-818.3454998972341
 21
-163.698277250409
 31
0
  0
LINE
  8
1
 62
7
 10
-818.3454998972341
 20
-163.698277250409
 30
0
 11
-816.3454998972341
 21
-165.698277250409
 31
0
  0
LINE
  8
1
 62
7
 10
-946.3454998972341
 20
-35.69827725040901
 30
0
 11
-946.3454998972341
 21
-165.698277250409
 31
0
  0
LINE
  8
1
 62
7
 10
-913.3454998972341
 20
-35.69827725040901
 30
0
 11
-913.3454998972341
 21
-165.698277250409
 31
0
  0
LINE
  8
1
 62
7
 10
-909.3454998972341
 20
-40.99827725040902
 30
0
 11
-907.3454998972341
 21
-40.99827725040902
 31
0
  0
LINE
  8
1
 62
7
 10
-888.1454998972339
 20
-40.69827725040901
 30
0
 11
-888.1454998972339
 21
-160.698277250409
 31
0
  0
LINE
  8
1
 62
7
 10
-907.3454998972341
 20
-34.69827725040901
 30
0
 11
-893.1454998972339
 21
-34.69827725040901
 31
0
  0
LINE
  8
1
 62
7
 10
-893.1454998972339
 20
-34.69827725040901
 30
0
 11
-893.1454998972339
 21
-166.698277250409
 31
0
  0
LINE
  8
1
 62
7
 10
-886.1454998972339
 20
-56.9869701063582
 30
0
 11
-886.1454998972339
 21
-144.4095843944598
 31
0
  0
LINE
  8
1
 62
7
 10
-886.1454998972339
 20
-56.9869701063582
 30
0
 11
-888.1454998972339
 21
-40.69827725040901
 31
0
  0
LINE
  8
1
 62
7
 10
-888.1454998972339
 20
-40.69827725040901
 30
0
 11
-893.1454998972339
 21
-40.69827725040901
 31
0
  0
LINE
  8
1
 62
7
 10
-946.3454998972341
 20
-35.69827725040901
 30
0
 11
-948.3454998972341
 21
-37.69827725040901
 31
0
  0
LINE
  8
1
 62
7
 10
-909.3454998972341
 20
-39.69827725040901
 30
0
 11
-913.3454998972341
 21
-35.69827725040901
 31
0
  0
LINE
  8
1
 62
7
 10
-948.3454998972341
 20
-37.69827725040901
 30
0
 11
-948.3454998972341
 21
-163.698277250409
 31
0
  0
LINE
  8
1
 62
7
 10
-907.3454998972341
 20
-34.69827725040901
 30
0
 11
-907.3454998972341
 21
-166.698277250409
 31
0
  0
LINE
  8
1
 62
7
 10
-885.3454998972341
 20
-68.69827725040901
 30
0
 11
-885.3454998972341
 21
-132.698277250409
 31
0
  0
LINE
  8
1
 62
3
 10
-907.3454998972341
 20
-34.69827725040901
 30
0
 11
-893.1454998972339
 21
-166.698277250409
 31
0
  0
LINE
  8
1
 62
3
 10
-893.1454998972339
 20
-34.69827725040901
 30
0
 11
-907.3454998972341
 21
-166.698277250409
 31
0
  0
LINE
  8
1
 62
3
 10
-951.3454998972341
 20
-100.698277250409
 30
0
 11
-948.3454998972341
 21
-100.698277250409
 31
0
  0
LINE
  8
1
 62
3
 10
-885.3454998972341
 20
-100.698277250409
 30
0
 11
-882.3454998972341
 21
-100.698277250409
 31
0
  0
LINE
  8
1
 62
7
 10
-938.660499897234
 20
-9.399859984221941
 30
0
 11
-936.0304998972341
 21
-9.399859984221941
 31
0
  0
LINE
  8
1
 62
7
 10
-936.6948201470531
 20
-4.399859984221941
 30
0
 11
-936.6948201470531
 21
-9.399859984221941
 31
0
  0
LINE
  8
1
 62
7
 10
-937.066592233563
 20
-4.399859984221941
 30
0
 11
-937.066592233563
 21
-9.399859984221941
 31
0
  0
LINE
  8
1
 62
7
 10
-937.9180702381491
 20
-4.399859984221941
 30
0
 11
-937.9180702381491
 21
-9.399859984221941
 31
0
  0
LINE
  8
1
 62
7
 10
-937.678217279111
 20
-4.399859984221941
 30
0
 11
-937.678217279111
 21
-9.399859984221941
 31
0
  0
LINE
  8
1
 62
7
 10
-937.3454998972341
 20
-4.399859984221941
 30
0
 11
-937.3454998972341
 21
-9.399859984221941
 31
0
  0
LINE
  8
1
 62
7
 10
-938.660499897234
 20
-9.399859984221941
 30
0
 11
-938.660499897234
 21
-35.69827725040901
 31
0
  0
LINE
  8
1
 62
7
 10
-936.0304998972341
 20
-35.69827725040901
 30
0
 11
-936.0304998972341
 21
-9.399859984221941
 31
0
  0
LINE
  8
1
 62
7
 10
-945.245499897234
 20
-12.69827725040901
 30
0
 11
-948.245499897234
 21
-12.69827725040901
 31
0
  0
LINE
  8
1
 62
7
 10
-948.245499897234
 20
-12.69827725040901
 30
0
 11
-948.245499897234
 21
-37.59827725040898
 31
0
  0
LINE
  8
1
 62
3
 10
-776.949212187476
 20
-34.69827725040901
 30
0
 11
-763.1454998972339
 21
-73.19827725040901
 31
0
  0
LINE
  8
1
 62
3
 10
-763.1454998972339
 20
-34.69827725040901
 30
0
 11
-777.3454998972341
 21
-73.19827725040901
 31
0
  0
LINE
  8
1
 62
7
 10
-763.1454998972339
 20
-128.198277250409
 30
0
 11
-763.1454998972339
 21
-166.698277250409
 31
0
  0
LINE
  8
1
 62
3
 10
-777.3454998972341
 20
-128.198277250409
 30
0
 11
-763.1454998972339
 21
-166.698277250409
 31
0
  0
LINE
  8
1
 62
3
 10
-763.1454998972339
 20
-128.198277250409
 30
0
 11
-777.3454998972341
 21
-166.698277250409
 31
0
  0
LINE
  8
1
 62
7
 10
-913.3454998972341
 20
-35.69827725040901
 30
0
 11
-946.3454998972341
 21
-35.69827725040901
 31
0
  0
LINE
  8
1
 62
7
 10
-945.245499897234
 20
-35.69827725040901
 30
0
 11
-945.245499897234
 21
-12.69827725040901
 31
0
  0
LINE
  8
1
 62
7
 10
-1060.746181936905
 20
-37.67552948827228
 30
0
 11
-1054.185005056151
 21
-13.18888401185175
 31
0
  0
LINE
  8
1
 62
7
 10
-1056.725389979291
 20
-12.50818992323214
 30
0
 11
-1054.185005056151
 21
-13.18888401185175
 31
0
  0
LINE
  8
1
 62
7
 10
-1056.083705893064
 20
-12.68012865593252
 30
0
 11
-1054.789610667551
 21
-7.850499524487185
 31
0
  0
LINE
  8
1
 62
7
 10
-1055.724601633211
 20
-12.77635035235884
 30
0
 11
-1054.430506407698
 21
-7.946721220913497
 31
0
  0
LINE
  8
1
 62
7
 10
-1054.902137038064
 20
-12.99672907643164
 30
0
 11
-1053.608041812551
 21
-8.167099944986303
 31
0
  0
LINE
  8
1
 62
7
 10
-1055.133817205711
 20
-12.93465056260835
 30
0
 11
-1053.839721980198
 21
-8.105021431163014
 31
0
  0
LINE
  8
1
 62
7
 10
-1055.455197517721
 20
-12.84853696754194
 30
0
 11
-1054.161102292208
 21
-8.018907836096606
 31
0
  0
LINE
  8
1
 62
7
 10
-1059.246456385905
 20
-11.83267221551455
 30
0
 11
-1056.706071462765
 21
-12.51336630413416
 31
0
  0
LINE
  8
1
 62
7
 10
-1058.604772299678
 20
-12.00461094821493
 30
0
 11
-1057.310677074166
 21
-7.174981816769595
 31
0
  0
LINE
  8
1
 62
7
 10
-1058.245668039825
 20
-12.10083264464125
 30
0
 11
-1056.951572814312
 21
-7.271203513195907
 31
0
  0
LINE
  8
1
 62
7
 10
-1057.423203444678
 20
-12.32121136871405
 30
0
 11
-1056.129108219166
 21
-7.491582237268712
 31
0
  0
LINE
  8
1
 62
7
 10
-1057.654883612325
 20
-12.25913285489076
 30
0
 11
-1056.360788386812
 21
-7.429503723445422
 31
0
  0
LINE
  8
1
 62
7
 10
-1057.976263924335
 20
-12.17301925982435
 30
0
 11
-1056.682168698823
 21
-7.343390128379014
 31
0
  0
LINE
  8
1
 62
7
 10
-1056.706071462765
 20
-12.51336630413416
 30
0
 11
-1063.25378385828
 21
-36.94976163754355
 31
0
  0
LINE
  8
1
 62
7
 10
-1059.246456385905
 20
-11.83267221551455
 30
0
 11
-1065.80763326666
 21
-36.31931769193501
 31
0
  0
LINE
  8
1
 62
7
 10
-1086.345499897234
 20
-78.19827725040901
 30
0
 11
-1086.345499897234
 21
-81.61949322207009
 31
0
  0
LINE
  8
1
 62
7
 10
-1074.345499897234
 20
-78.19827725040901
 30
0
 11
-1074.345499897234
 21
-81.61949322207009
 31
0
  0
LINE
  8
1
 62
7
 10
-1086.345499897234
 20
-78.19827725040901
 30
0
 11
-1074.345499897234
 21
-78.19827725040901
 31
0
  0
LINE
  8
1
 62
7
 10
-1088.345499897234
 20
-14.69827725040901
 30
0
 11
-1088.345499897234
 21
-49.69827725040901
 31
0
  0
LINE
  8
1
 62
7
 10
-1072.345499897234
 20
-14.69827725040901
 30
0
 11
-1072.345499897234
 21
-49.69827725040901
 31
0
  0
LINE
  8
1
 62
7
 10
-1086.345499897234
 20
-12.69827725040901
 30
0
 11
-1074.345499897234
 21
-12.69827725040901
 31
0
  0
LINE
  8
1
 62
7
 10
-1020.424502014203
 20
-73.03107622280572
 30
0
 11
-1021.053848651246
 21
-73.3944296731157
 31
0
  0
LINE
  8
1
 62
7
 10
-1026.424502014203
 20
-62.63877137739244
 30
0
 11
-1027.053848651246
 21
-63.00212482770242
 31
0
  0
LINE
  8
1
 62
7
 10
-1026.424502014203
 20
-138.7577831234256
 30
0
 11
-1027.053848651246
 21
-138.3944296731157
 31
0
  0
LINE
  8
1
 62
7
 10
-1020.424502014203
 20
-128.3654782780123
 30
0
 11
-1021.053848651246
 21
-128.0021248277024
 31
0
  0
LINE
  8
1
 62
7
 10
-1086.345499897234
 20
-166.4249841510289
 30
0
 11
-1086.345499897234
 21
-165.698277250409
 31
0
  0
LINE
  8
1
 62
7
 10
-1074.345499897234
 20
-166.4249841510289
 30
0
 11
-1074.345499897234
 21
-165.698277250409
 31
0
  0
LINE
  8
1
 62
7
 10
-1140.266497780265
 20
-128.3654782780123
 30
0
 11
-1139.637151143223
 21
-128.0021248277023
 31
0
  0
LINE
  8
1
 62
7
 10
-1134.266497780265
 20
-138.7577831234256
 30
0
 11
-1133.637151143223
 21
-138.3944296731156
 31
0
  0
LINE
  8
1
 62
7
 10
-1134.266497780265
 20
-62.6387713773924
 30
0
 11
-1133.637151143223
 21
-63.00212482770232
 31
0
  0
LINE
  8
1
 62
7
 10
-1140.266497780265
 20
-73.03107622280567
 30
0
 11
-1139.637151143223
 21
-73.39442967311558
 31
0
  0
LINE
  8
1
 62
3
  6
DASHDOT
 10
-1072.509997567188
 20
-100.698277250409
 30
0
 11
-1088.18100222728
 21
-100.698277250409
 31
0
  0
LINE
  8
1
 62
3
  6
DASHDOT
 10
-1080.345499897234
 20
-92.86277492036291
 30
0
 11
-1080.345499897234
 21
-108.5337795804551
 31
0
  0
LINE
  8
1
 62
3
  6
DASHDOT
 10
-1075.725983222942
 20
-20.69827725040901
 30
0
 11
-1084.965016571526
 21
-20.69827725040901
 31
0
  0
LINE
  8
1
 62
3
  6
DASHDOT
 10
-1080.345499897234
 20
-16.07876057611694
 30
0
 11
-1080.345499897234
 21
-25.31779392470108
 31
0
  0
LINE
  8
1
 62
7
 10
-885.3454998972341
 20
-68.69827725040901
 30
0
 11
-886.1454998972339
 21
-68.69827725040901
 31
0
  0
ARC
  8
1
 62
7
 10
-619.3454998972341
 20
-14.69827725040901
 30
0
 40
2
 50
0
 51
90
  0
ARC
  8
1
 62
7
 10
-631.3454998972341
 20
-14.69827725040901
 30
0
 40
2
 50
90
 51
180
  0
ARC
  8
1
 62
7
 10
-1074.345499897234
 20
-14.69827725040901
 30
0
 40
2
 50
0
 51
90
  0
ARC
  8
1
 62
7
 10
-1086.345499897234
 20
-14.69827725040901
 30
0
 40
2
 50
90
 51
180
  0
ARC
  8
1
 62
7
 10
-625.3454998972341
 20
-100.698277250409
 30
0
 40
65.99999999999989
 50
335.2159085704541
 51
24.78409142954587
  0
ARC
  8
1
 62
7
 10
-625.3454998972341
 20
-100.698277250409
 30
0
 40
20
 50
107.4576031237221
 51
72.54239687627792
  0
ARC
  8
1
 62
7
 10
-625.3454998972341
 20
-100.698277250409
 30
0
 40
65.27633568147036
 50
24.72610404264818
 51
35.27389595735173
  0
ARC
  8
1
 62
7
 10
-625.3454998972341
 20
-100.698277250409
 30
0
 40
65.27633568147031
 50
324.7261040426482
 51
335.2738959573517
  0
ARC
  8
1
 62
7
 10
-625.3454998972341
 20
-100.698277250409
 30
0
 40
65.27633568147036
 50
264.7261040426482
 51
275.2738959573518
  0
ARC
  8
1
 62
7
 10
-625.3454998972341
 20
-100.698277250409
 30
0
 40
65.27633568147034
 50
204.7261040426482
 51
215.2738959573518
  0
ARC
  8
1
 62
7
 10
-625.3454998972341
 20
-100.698277250409
 30
0
 40
65.27633568147043
 50
144.7261040426482
 51
155.2738959573518
  0
ARC
  8
1
 62
7
 10
-625.3454998972341
 20
-100.698277250409
 30
0
 40
65.27633568147036
 50
84.72610404264823
 51
95.27389595735177
  0
ARC
  8
1
 62
7
 10
-625.3454998972341
 20
-100.698277250409
 30
0
 40
65.99999999999996
 50
275.2159085704541
 51
324.7840914295459
  0
ARC
  8
1
 62
7
 10
-625.3454998972341
 20
-100.698277250409
 30
0
 40
66.00000000000001
 50
215.2159085704541
 51
264.7840914295459
  0
ARC
  8
1
 62
7
 10
-625.3454998972341
 20
-100.698277250409
 30
0
 40
66.00000000000001
 50
155.2159085704541
 51
204.7840914295458
  0
ARC
  8
1
 62
7
 10
-625.3454998972341
 20
-100.698277250409
 30
0
 40
65.99999999999999
 50
95.21590857045413
 51
144.7840914295459
  0
ARC
  8
1
 62
7
 10
-625.3454998972341
 20
-100.698277250409
 30
0
 40
66
 50
35.21590857045409
 51
84.78409142954588
  0
ARC
  8
1
 62
7
 10
-1080.345499897234
 20
-100.698277250409
 30
0
 40
66.0000000000002
 50
335.2159085704542
 51
24.78409142954575
  0
ARC
  8
1
 62
7
 10
-1080.345499897234
 20
-100.698277250409
 30
0
 40
20
 50
107.4576031237221
 51
72.54239687627792
  0
ARC
  8
1
 62
7
 10
-1080.345499897234
 20
-100.698277250409
 30
0
 40
65.99999999999996
 50
275.2159085704541
 51
324.784091429546
  0
ARC
  8
1
 62
7
 10
-1080.345499897234
 20
-100.698277250409
 30
0
 40
66.00000000000001
 50
215.2159085704541
 51
264.7840914295459
  0
ARC
  8
1
 62
7
 10
-1080.345499897234
 20
-100.698277250409
 30
0
 40
66.00000000000001
 50
155.2159085704541
 51
204.7840914295458
  0
ARC
  8
1
 62
7
 10
-1080.345499897234
 20
-100.698277250409
 30
0
 40
66
 50
96.96206269108444
 51
144.7840914295459
  0
ARC
  8
1
 62
7
 10
-1080.345499897234
 20
-49.69827725040901
 30
0
 40
8
 50
180
 51
0
  0
ARC
  8
1
 62
7
 10
-1080.345499897234
 20
-100.698277250409
 30
0
 40
66.00000000000019
 50
35.21590857045398
 51
83.03793730891556
  0
ARC
  8
1
 62
7
 10
-1080.345499897234
 20
-100.698277250409
 30
0
 40
65.2763356814705
 50
97.03963383379855
 51
82.96036616620145
  0
ARC
  8
1
 62
7
 10
-1080.345499897234
 20
-100.698277250409
 30
0
 40
63.00000000000001
 50
97.29535108491641
 51
82.70464891508358
  0
CIRCLE
  8
1
 62
7
 10
-625.3454998972341
 20
-100.698277250409
 30
0
 40
32
  0
CIRCLE
  8
1
 62
7
 10
-625.3454998972341
 20
-100.698277250409
 30
0
 40
27.5
  0
CIRCLE
  8
1
 62
7
 10
-625.3454998972341
 20
-100.698277250409
 30
0
 40
35
  0
CIRCLE
  8
1
 62
7
 10
-625.3454998972341
 20
-100.698277250409
 30
0
 40
43.71130714405081
  0
CIRCLE
  8
1
 62
7
 10
-625.3454998972341
 20
-100.698277250409
 30
0
 40
60
  0
CIRCLE
  8
1
 62
7
 10
-625.3454998972341
 20
-20.69827725040901
 30
0
 40
3.25
  0
CIRCLE
  8
1
 62
7
 10
-808.8454998972341
 20
-68.19827725040901
 30
0
 40
4.5
  0
CIRCLE
  8
1
 62
7
 10
-798.8454998972341
 20
-68.19827725040901
 30
0
 40
4.5
  0
CIRCLE
  8
1
 62
7
 10
-808.8454998972341
 20
-133.198277250409
 30
0
 40
4.5
  0
CIRCLE
  8
1
 62
7
 10
-798.8454998972341
 20
-133.198277250409
 30
0
 40
4.5
  0
CIRCLE
  8
1
 62
7
 10
-1080.345499897234
 20
-20.69827725040901
 30
0
 40
3.25
  0
CIRCLE
  8
1
 62
7
 10
-1080.345499897234
 20
-100.698277250409
 30
0
 40
40
  0
CIRCLE
  8
1
 62
7
 10
-1080.345499897234
 20
-100.698277250409
 30
0
 40
25
  0
TEXT
  8
1
 62
7
 10
-1147.2336576603
 20
21.1151502011946
 30
0
 40
8
  1
DC4304
 41
0.9
  7
SIMPLEX
  0
TEXT
  8
1
 62
7
 10
-1146.58183125818
 20
33.3279350160072
 30
0
 40
8
  1
MWC 10
 41
0.9
  7
SIMPLEX
  0
ENDSEC
  0
EOF
