  0
SECTION
  2
HEADER
  9
$ACADVER
  1
AC1009
  9
$INSBASE
 10
0
 20
0
  9
$EXTMIN
 10
-917.777272278923
 20
-218.8124339813763
  9
$EXTMAX
 10
-222.2772722789231
 20
20.33319921431105
  9
$LIMMIN
 10
-917.777272278923
 20
-218.8124339813763
  9
$LIMMAX
 10
-222.2772722789231
 20
20.33319921431105
  9
$VIEWCTR
 10
10
 20
10
  9
$VIEWSIZE
 40
10
  9
$SNAPMODE
 70
0
  9
$SNAPUNIT
 10
1
 20
1
  9
$SNAPBASE
 10
0
 20
0
  9
$SNAPANG
 50
0
  9
$SNAPSTYLE
 70
0
  9
$SNAPISOPAIR
 70
0
  9
$GRIDMODE
 70
0
  9
$GRIDUNIT
 10
0
 20
0
  9
$ORTHOMODE
 70
0
  9
$REGENMODE
 70
1
  9
$FILLMODE
 70
1
  9
$QTEXTMODE
 70
0
  9
$DRAGMODE
 70
2
  9
$LTSCALE
 40
1
  9
$OSMODE
 70
0
  9
$ATTMODE
 70
1
  9
$TEXTSIZE
 40
3.5
  9
$TRACEWID
 40
0.5
  9
$TEXTSTYLE
  7
STANDARD
  9
$CLAYER
  8
0
  9
$CELTYPE
  6
BYLAYER
  9
$CECOLOR
 62
256
  9
$DIMSCALE
 40
1
  9
$DIMASZ
 40
0.18
  9
$DIMEXO
 40
0.0625
  9
$DIMDLI
 40
0.38
  9
$DIMRND
 40
0
  9
$DIMDLE
 40
0
  9
$DIMEXE
 40
0.18
  9
$DIMTP
 40
0
  9
$DIMTM
 40
0
  9
$DIMTXT
 40
0.18
  9
$DIMCEN
 40
0.09
  9
$DIMTSZ
 40
0
  9
$DIMTOL
 70
0
  9
$DIMLIM
 70
0
  9
$DIMTIH
 70
1
  9
$DIMTOH
 70
1
  9
$DIMSE1
 70
0
  9
$DIMSE2
 70
0
  9
$DIMTAD
 70
0
  9
$DIMZIN
 70
0
  9
$DIMBLK
  1

  9
$DIMASO
 70
1
  9
$DIMSHO
 70
1
  9
$DIMPOST
  1

  9
$DIMAPOST
  1

  9
$DIMALT
 70
0
  9
$DIMALTD
 70
2
  9
$DIMALTF
 40
25.4
  9
$DIMLFAC
 40
1
  9
$DIMTOFL
 70
0
  9
$DIMTVP
 40
0
  9
$DIMTIX
 70
0
  9
$DIMSOXD
 70
0
  9
$DIMSAH
 70
0
  9
$DIMBLK1
  1

  9
$DIMBLK2
  1

  9
$DIMSTYLE
  2
*UNNAMED
  9
$DIMCLRD
 70
0
  9
$DIMCLRE
 70
0
  9
$DIMCLRT
 70
0
  9
$DIMTFAC
 40
1
  9
$DIMGAP
 40
0.09
  9
$LUNITS
 70
2
  9
$LUPREC
 70
4
  9
$AXISMODE
 70
0
  9
$AXISUNIT
 10
0
 20
0
  9
$SKETCHINC
 40
0.1
  9
$FILLETRAD
 40
2
  9
$AUNITS
 70
0
  9
$AUPREC
 70
0
  9
$MENU
  1
ACAD
  9
$ELEVATION
 40
0
  9
$THICKNESS
 40
0
  9
$VIEWDIR
 10
0
 20
0
 30
1
  9
$LIMCHECK
 70
0
  9
$BLIPMODE
 70
1
  9
$CHAMFERA
 40
0
  9
$CHAMFERB
 40
0
  9
$FASTZOOM
 70
1
  9
$SKPOLY
 70
0
  9
$ANGBASE
 50
0
  9
$ANGDIR
 70
0
  9
$PDMODE
 70
0
  9
$PDSIZE
 40
0
  9
$PLINEWID
 40
0
  9
$COORDS
 70
2
  0
ENDSEC
  0
SECTION
  2
TABLES
  0
TABLE
  2
DIMSTYLE
 70
0
  0
ENDTAB
  0
TABLE
  2
LTYPE
 70
9
  0
LTYPE
  2
CONTINUOUS
 70
64
  3
Solid line
 72
65
 73
0
 40
0
  0
LTYPE
  2
BORDER
 70
64
  3
__ __ . __ __ .
 72
65
 73
6
 40
32.02960526315789
 49
9.151315789473683
 49
-4.575657894736842
 49
9.151315789473683
 49
-4.575657894736842
 49
0
 49
-4.575657894736842
  0
LTYPE
  2
CENTER
 70
64
  3
____ _ ____ _
 72
65
 73
4
 40
36.60526315789473
 49
22.87828947368421
 49
-4.575657894736842
 49
4.575657894736842
 49
-4.575657894736842
  0
LTYPE
  2
DASHDOT
 70
64
  3
__ . __ . __ .
 72
65
 73
4
 40
18.30263157894737
 49
9.151315789473683
 49
-4.575657894736842
 49
0
 49
-4.575657894736842
  0
LTYPE
  2
DASHED
 70
64
  3
__ __ __ __ __
 72
65
 73
2
 40
13.72697368421052
 49
9.151315789473683
 49
-4.575657894736842
  0
LTYPE
  2
DIVIDE
 70
64
  3
__ . . __ . . 
 72
65
 73
6
 40
22.87828947368421
 49
9.151315789473683
 49
-4.575657894736842
 49
0
 49
-4.575657894736842
 49
0
 49
-4.575657894736842
  0
LTYPE
  2
DOT
 70
64
  3
..............
 72
65
 73
4
 40
9.151315789473683
 49
0
 49
-4.575657894736842
 49
0
 49
-4.575657894736842
  0
LTYPE
  2
HIDDEN
 70
64
  3
_ _ _ _ _ _ _
 72
65
 73
2
 40
6.863486842105262
 49
4.575657894736842
 49
-2.287828947368421
  0
LTYPE
  2
PHANTOM
 70
64
  3
_____ _ _ _____ _ _ 
 72
65
 73
6
 40
45.75657894736842
 49
22.87828947368421
 49
-4.575657894736842
 49
4.575657894736842
 49
-4.575657894736842
 49
4.575657894736842
 49
-4.575657894736842
  0
ENDTAB
  0
TABLE
  2
LAYER
 70
3
  0
LAYER
  2
1
 70
0
 62
7
  6
CONTINUOUS
  0
LAYER
  2
0
 70
0
 62
7
  6
CONTINUOUS
  0
ENDTAB
  0
TABLE
  2
STYLE
 70
4
  0
STYLE
  2
STANDARD
 70
0
 40
0
 41
1
 50
0
 71
0
 42
3.5
  3
txt
  4

  0
STYLE
  2
SIMPLEX
 70
0
 40
0
 41
1
 50
0
 71
0
 42
3.5
  3
simplex
  4

  0
STYLE
  2
COMPLEX
 70
0
 40
0
 41
1
 50
0
 71
0
 42
3.5
  3
complex
  4

  0
STYLE
  2
ITALIC
 70
0
 40
0
 41
1
 50
0
 71
0
 42
3.5
  3
italic
  4

  0
ENDTAB
  0
TABLE
  2
VIEW
 70
0
  0
ENDTAB
  0
ENDSEC
  0
SECTION
  2
BLOCKS
  0
ENDSEC
  0
SECTION
  2
ENTITIES
  0
LINE
  8
1
 62
7
 10
-521.902272278923
 20
-101.7658197539903
 30
0
 11
-524.777272278923
 21
-101.7658197539903
 31
0
  0
LINE
  8
1
 62
7
 10
-521.902272278923
 20
-92.67255301425369
 30
0
 11
-524.777272278923
 21
-92.67255301425372
 31
0
  0
LINE
  8
1
 62
7
 10
-515.8772722789229
 20
-88.469186384122
 30
0
 11
-522.6772722789229
 21
-88.469186384122
 31
0
  0
LINE
  8
1
 62
7
 10
-513.777272278923
 20
-105.969186384122
 30
0
 11
-513.777272278923
 21
-88.469186384122
 31
0
  0
LINE
  8
1
 62
7
 10
-510.902272278923
 20
-101.7658197539903
 30
0
 11
-516.652272278923
 21
-101.7658197539903
 31
0
  0
LINE
  8
1
 62
7
 10
-502.777272278923
 20
-101.7658197539903
 30
0
 11
-505.652272278923
 21
-101.7658197539903
 31
0
  0
LINE
  8
1
 62
7
 10
-502.777272278923
 20
-92.67255301425372
 30
0
 11
-505.652272278923
 21
-92.67255301425369
 31
0
  0
LINE
  8
1
 62
7
 10
-510.902272278923
 20
-92.67255301425369
 30
0
 11
-516.652272278923
 21
-92.67255301425369
 31
0
  0
LINE
  8
1
 62
7
 10
-504.877272278923
 20
-88.469186384122
 30
0
 11
-511.6772722789229
 21
-88.469186384122
 31
0
  0
LINE
  8
1
 62
7
 10
-484.277272278923
 20
-65.469186384122
 30
0
 11
-488.777272278923
 21
-60.969186384122
 31
0
  0
LINE
  8
1
 62
7
 10
-492.277272278923
 20
-83.969186384122
 30
0
 11
-493.777272278923
 21
-82.469186384122
 31
0
  0
LINE
  8
1
 62
7
 10
-530.777272278923
 20
-88.469186384122
 30
0
 11
-527.777272278923
 21
-88.469186384122
 31
0
  0
LINE
  8
1
 62
7
 10
-527.777272278923
 20
-86.719186384122
 30
0
 11
-524.777272278923
 21
-86.719186384122
 31
0
  0
LINE
  8
1
 62
7
 10
-502.777272278923
 20
-88.469186384122
 30
0
 11
-524.777272278923
 21
-88.469186384122
 31
0
  0
LINE
  8
1
 62
7
 10
-527.6772722789229
 20
-60.969186384122
 30
0
 11
-488.777272278923
 21
-60.969186384122
 31
0
  0
LINE
  8
1
 62
7
 10
-484.277272278923
 20
-65.469186384122
 30
0
 11
-484.277272278923
 21
-66.969186384122
 31
0
  0
LINE
  8
1
 62
7
 10
-484.277272278923
 20
-66.969186384122
 30
0
 11
-494.277272278923
 21
-66.969186384122
 31
0
  0
LINE
  8
1
 62
7
 10
-492.277272278923
 20
-83.969186384122
 30
0
 11
-492.277272278923
 21
-92.469186384122
 31
0
  0
LINE
  8
1
 62
7
 10
-492.277272278923
 20
-92.469186384122
 30
0
 11
-502.777272278923
 21
-92.469186384122
 31
0
  0
LINE
  8
1
 62
7
 10
-502.777272278923
 20
-101.469186384122
 30
0
 11
-501.277272278923
 21
-101.469186384122
 31
0
  0
LINE
  8
1
 62
7
 10
-501.277272278923
 20
-101.469186384122
 30
0
 11
-501.277272278923
 21
-93.26918638412199
 31
0
  0
LINE
  8
1
 62
7
 10
-501.277272278923
 20
-93.26918638412199
 30
0
 11
-491.277272278923
 21
-93.26918638412199
 31
0
  0
LINE
  8
1
 62
7
 10
-491.277272278923
 20
-93.26918638412199
 30
0
 11
-491.277272278923
 21
-75.219186384122
 31
0
  0
LINE
  8
1
 62
7
 10
-491.277272278923
 20
-75.219186384122
 30
0
 11
-492.277272278923
 21
-75.219186384122
 31
0
  0
LINE
  8
1
 62
7
 10
-492.277272278923
 20
-75.219186384122
 30
0
 11
-492.277272278923
 21
-67.76918638412199
 31
0
  0
LINE
  8
1
 62
7
 10
-492.277272278923
 20
-67.76918638412199
 30
0
 11
-482.277272278923
 21
-67.76918638412199
 31
0
  0
LINE
  8
1
 62
7
 10
-457.777272278923
 20
-104.469186384122
 30
0
 11
-458.777272278923
 21
-103.469186384122
 31
0
  0
LINE
  8
1
 62
7
 10
-471.777272278923
 20
-113.469186384122
 30
0
 11
-457.777272278923
 21
-113.469186384122
 31
0
  0
LINE
  8
1
 62
7
 10
-457.777272278923
 20
-110.969186384122
 30
0
 11
-530.777272278923
 21
-110.969186384122
 31
0
  0
LINE
  8
1
 62
7
 10
-506.277272278923
 20
-113.469186384122
 30
0
 11
-530.777272278923
 21
-113.469186384122
 31
0
  0
LINE
  8
1
 62
7
 10
-498.277272278923
 20
-113.469186384122
 30
0
 11
-479.777272278923
 21
-113.469186384122
 31
0
  0
LINE
  8
1
 62
7
 10
-506.277272278923
 20
-112.469186384122
 30
0
 11
-498.277272278923
 21
-112.469186384122
 31
0
  0
LINE
  8
1
 62
7
 10
-479.777272278923
 20
-112.469186384122
 30
0
 11
-471.777272278923
 21
-112.469186384122
 31
0
  0
LINE
  8
1
 62
7
 10
-498.277272278923
 20
-112.469186384122
 30
0
 11
-498.277272278923
 21
-164.469186384122
 31
0
  0
LINE
  8
1
 62
7
 10
-506.277272278923
 20
-112.469186384122
 30
0
 11
-506.277272278923
 21
-164.469186384122
 31
0
  0
LINE
  8
1
 62
7
 10
-479.777272278923
 20
-112.469186384122
 30
0
 11
-479.777272278923
 21
-164.469186384122
 31
0
  0
LINE
  8
1
 62
7
 10
-471.777272278923
 20
-112.469186384122
 30
0
 11
-471.777272278923
 21
-164.469186384122
 31
0
  0
LINE
  8
1
 62
7
 10
-530.777272278923
 20
-105.969186384122
 30
0
 11
-530.777272278923
 21
-170.969186384122
 31
0
  0
LINE
  8
1
 62
7
 10
-530.777272278923
 20
-105.969186384122
 30
0
 11
-527.277272278923
 21
-105.969186384122
 31
0
  0
LINE
  8
1
 62
7
 10
-527.277272278923
 20
-107.469186384122
 30
0
 11
-524.777272278923
 21
-107.469186384122
 31
0
  0
LINE
  8
1
 62
7
 10
-502.777272278923
 20
-104.969186384122
 30
0
 11
-482.277272278923
 21
-104.969186384122
 31
0
  0
LINE
  8
1
 62
7
 10
-460.277272278923
 20
-103.469186384122
 30
0
 11
-458.777272278923
 21
-103.469186384122
 31
0
  0
LINE
  8
1
 62
7
 10
-457.777272278923
 20
-104.469186384122
 30
0
 11
-457.777272278923
 21
-172.469186384122
 31
0
  0
LINE
  8
1
 62
7
 10
-460.277272278923
 20
-98.56918638412199
 30
0
 11
-462.777272278923
 21
-98.56918638412199
 31
0
  0
LINE
  8
1
 62
7
 10
-462.777272278923
 20
-104.969186384122
 30
0
 11
-462.777272278923
 21
-94.469186384122
 31
0
  0
LINE
  8
1
 62
7
 10
-462.777272278923
 20
-94.469186384122
 30
0
 11
-459.277272278923
 21
-94.469186384122
 31
0
  0
LINE
  8
1
 62
7
 10
-459.277272278923
 20
-83.75787924007119
 30
0
 11
-461.277272278923
 21
-67.469186384122
 31
0
  0
LINE
  8
1
 62
7
 10
-468.277272278923
 20
-67.469186384122
 30
0
 11
-461.277272278923
 21
-67.469186384122
 31
0
  0
LINE
  8
1
 62
7
 10
-462.777272278923
 20
-102.719186384122
 30
0
 11
-468.277272278923
 21
-102.719186384122
 31
0
  0
LINE
  8
1
 62
7
 10
-462.777272278923
 20
-98.469186384122
 30
0
 11
-468.277272278923
 21
-98.469186384122
 31
0
  0
LINE
  8
1
 62
7
 10
-459.277272278923
 20
-96.9592942977911
 30
0
 11
-459.277272278923
 21
-83.75787924007119
 31
0
  0
LINE
  8
1
 62
7
 10
-482.277272278923
 20
-59.969186384122
 30
0
 11
-468.277272278923
 21
-59.969186384122
 31
0
  0
LINE
  8
1
 62
7
 10
-482.277272278923
 20
-59.969186384122
 30
0
 11
-482.277272278923
 21
-104.969186384122
 31
0
  0
LINE
  8
1
 62
7
 10
-468.277272278923
 20
-59.969186384122
 30
0
 11
-468.277272278923
 21
-103.469186384122
 31
0
  0
LINE
  8
1
 62
7
 10
-524.777272278923
 20
-101.069186384122
 30
0
 11
-527.277272278923
 21
-101.069186384122
 31
0
  0
LINE
  8
1
 62
7
 10
-524.777272278923
 20
-86.719186384122
 30
0
 11
-524.777272278923
 21
-107.469186384122
 31
0
  0
LINE
  8
1
 62
7
 10
-527.277272278923
 20
-107.469186384122
 30
0
 11
-524.777272278923
 21
-107.469186384122
 31
0
  0
LINE
  8
1
 62
7
 10
-527.277272278923
 20
-101.069186384122
 30
0
 11
-527.277272278923
 21
-107.469186384122
 31
0
  0
LINE
  8
1
 62
7
 10
-524.777272278923
 20
-86.719186384122
 30
0
 11
-527.777272278923
 21
-86.719186384122
 31
0
  0
LINE
  8
1
 62
7
 10
-527.777272278923
 20
-95.01918638412199
 30
0
 11
-524.777272278923
 21
-95.01918638412199
 31
0
  0
LINE
  8
1
 62
7
 10
-527.777272278923
 20
-86.719186384122
 30
0
 11
-527.777272278923
 21
-99.2877790294302
 31
0
  0
LINE
  8
1
 62
7
 10
-502.777272278923
 20
-88.469186384122
 30
0
 11
-502.777272278923
 21
-105.969186384122
 31
0
  0
LINE
  8
1
 62
7
 10
-530.777272278923
 20
-84.469186384122
 30
0
 11
-530.777272278923
 21
-102.387423794194
 31
0
  0
LINE
  8
1
 62
7
 10
-494.277272278923
 20
-82.469186384122
 30
0
 11
-494.277272278923
 21
-66.969186384122
 31
0
  0
LINE
  8
1
 62
7
 10
-530.777272278923
 20
-213.469186384122
 30
0
 11
-528.277272278923
 21
-215.969186384122
 31
0
  0
LINE
  8
1
 62
7
 10
-488.777272278923
 20
-215.969186384122
 30
0
 11
-528.277272278923
 21
-215.969186384122
 31
0
  0
LINE
  8
1
 62
3
 10
-482.277272278923
 20
-103.469186384122
 30
0
 11
-468.277272278923
 21
-59.969186384122
 31
0
  0
LINE
  8
1
 62
3
 10
-468.277272278923
 20
-103.469186384122
 30
0
 11
-482.277272278923
 21
-59.969186384122
 31
0
  0
LINE
  8
1
 62
7
 10
-527.6772722789229
 20
-84.469186384122
 30
0
 11
-527.6772722789229
 21
-39.469186384122
 31
0
  0
LINE
  8
1
 62
7
 10
-530.6772722789229
 20
-39.469186384122
 30
0
 11
-530.6772722789229
 21
-84.469186384122
 31
0
  0
LINE
  8
1
 62
7
 10
-530.6772722789229
 20
-39.469186384122
 30
0
 11
-527.6772722789229
 21
-39.469186384122
 31
0
  0
LINE
  8
1
 62
7
 10
-530.777272278923
 20
-84.469186384122
 30
0
 11
-527.6772722789229
 21
-84.469186384122
 31
0
  0
LINE
  8
1
 62
7
 10
-530.6772722789229
 20
-44.219186384122
 30
0
 11
-527.6772722789229
 21
-44.219186384122
 31
0
  0
LINE
  8
1
 62
7
 10
-530.6772722789229
 20
-50.719186384122
 30
0
 11
-527.6772722789229
 21
-50.719186384122
 31
0
  0
LINE
  8
1
 62
3
  6
DASHDOT
 10
-532.754596573334
 20
-47.469186384122
 30
0
 11
-525.670706147213
 21
-47.469186384122
 31
0
  0
LINE
  8
1
 62
7
 10
-516.4622722789229
 20
-35.91266525283739
 30
0
 11
-516.4622722789229
 21
-60.969186384122
 31
0
  0
LINE
  8
1
 62
7
 10
-519.092272278923
 20
-35.91266525283739
 30
0
 11
-519.092272278923
 21
-60.969186384122
 31
0
  0
LINE
  8
1
 62
7
 10
-518.1886992917259
 20
-35.91266525283739
 30
0
 11
-518.1886992917259
 21
-30.91266525283739
 31
0
  0
LINE
  8
1
 62
7
 10
-518.5237984630849
 20
-35.91266525283739
 30
0
 11
-518.5237984630849
 21
-30.91266525283739
 31
0
  0
LINE
  8
1
 62
7
 10
-517.4692216591
 20
-35.91266525283739
 30
0
 11
-517.4692216591
 21
-30.91266525283739
 31
0
  0
LINE
  8
1
 62
7
 10
-517.055275623891
 20
-35.91266525283739
 30
0
 11
-517.055275623891
 21
-30.91266525283739
 31
0
  0
LINE
  8
1
 62
7
 10
-519.092272278923
 20
-35.91266525283739
 30
0
 11
-516.4622722789229
 21
-35.91266525283739
 31
0
  0
LINE
  8
1
 62
7
 10
-294.777272278923
 20
-60.19882162197209
 30
0
 11
-294.777272278923
 21
-65.969186384122
 31
0
  0
LINE
  8
1
 62
7
 10
-306.777272278923
 20
-60.19882162197209
 30
0
 11
-306.777272278923
 21
-65.969186384122
 31
0
  0
LINE
  8
1
 62
7
 10
-306.777272278923
 20
-65.969186384122
 30
0
 11
-294.777272278923
 21
-65.969186384122
 31
0
  0
LINE
  8
1
 62
7
 10
-365.5613965264192
 20
-94.13785158034035
 30
0
 11
-360.5641140532948
 21
-97.02303396141531
 31
0
  0
LINE
  8
1
 62
7
 10
-371.5613965264192
 20
-104.5301564257536
 30
0
 11
-366.5641140532948
 21
-107.4153388068286
 31
0
  0
LINE
  8
1
 62
7
 10
-366.5641140532948
 20
-107.4153388068286
 30
0
 11
-360.5641140532948
 21
-97.02303396141531
 31
0
  0
LINE
  8
1
 62
7
 10
-371.5613965264192
 20
-172.4082163424902
 30
0
 11
-366.5641140532949
 21
-169.5230339614153
 31
0
  0
LINE
  8
1
 62
7
 10
-365.5613965264192
 20
-182.8005211879035
 30
0
 11
-360.5641140532949
 21
-179.9153388068286
 31
0
  0
LINE
  8
1
 62
7
 10
-360.5641140532949
 20
-179.9153388068286
 30
0
 11
-366.5641140532949
 21
-169.5230339614153
 31
0
  0
LINE
  8
1
 62
7
 10
-306.777272278923
 20
-216.7395511462718
 30
0
 11
-306.777272278923
 21
-210.9691863841219
 31
0
  0
LINE
  8
1
 62
7
 10
-294.777272278923
 20
-216.7395511462719
 30
0
 11
-294.777272278923
 21
-210.9691863841219
 31
0
  0
LINE
  8
1
 62
7
 10
-294.777272278923
 20
-210.9691863841219
 30
0
 11
-306.777272278923
 21
-210.9691863841219
 31
0
  0
LINE
  8
1
 62
7
 10
-235.9931480314269
 20
-182.8005211879035
 30
0
 11
-240.9904305045513
 21
-179.9153388068286
 31
0
  0
LINE
  8
1
 62
7
 10
-229.9931480314269
 20
-172.4082163424903
 30
0
 11
-234.9904305045513
 21
-169.5230339614153
 31
0
  0
LINE
  8
1
 62
7
 10
-234.9904305045513
 20
-169.5230339614153
 30
0
 11
-240.9904305045513
 21
-179.9153388068286
 31
0
  0
LINE
  8
1
 62
7
 10
-229.9931480314269
 20
-104.5301564257536
 30
0
 11
-234.9904305045513
 21
-107.4153388068286
 31
0
  0
LINE
  8
1
 62
7
 10
-235.9931480314269
 20
-94.13785158034038
 30
0
 11
-240.9904305045512
 21
-97.02303396141532
 31
0
  0
LINE
  8
1
 62
7
 10
-240.9904305045512
 20
-97.02303396141532
 30
0
 11
-234.9904305045513
 21
-107.4153388068286
 31
0
  0
LINE
  8
1
 62
7
 10
-307.777272278923
 20
-110.969186384122
 30
0
 11
-293.777272278923
 21
-110.969186384122
 31
0
  0
LINE
  8
1
 62
7
 10
-293.777272278923
 20
-110.969186384122
 30
0
 11
-293.777272278923
 21
-114.469186384122
 31
0
  0
LINE
  8
1
 62
7
 10
-307.777272278923
 20
-110.969186384122
 30
0
 11
-307.777272278923
 21
-114.469186384122
 31
0
  0
LINE
  8
1
 62
3
  6
DASHDOT
 10
-361.0855728480041
 20
-103.6501728161941
 30
0
 11
-370.3565657206883
 21
-98.2975625854948
 31
0
  0
LINE
  8
1
 62
3
  6
DASHDOT
 10
-361.0855728480041
 20
-173.2881999520498
 30
0
 11
-370.3565657206884
 21
-178.6408101827491
 31
0
  0
LINE
  8
1
 62
3
  6
DASHDOT
 10
-240.4689717098419
 20
-173.2881999520498
 30
0
 11
-231.1979788371578
 21
-178.6408101827491
 31
0
  0
LINE
  8
1
 62
3
  6
DASHDOT
 10
-240.4689717098419
 20
-103.6501728161941
 30
0
 11
-231.1979788371578
 21
-98.29756258549482
 31
0
  0
LINE
  8
1
 62
7
 10
-306.777272278923
 20
-39.469186384122
 30
0
 11
-294.777272278923
 21
-39.469186384122
 31
0
  0
LINE
  8
1
 62
7
 10
-292.777272278923
 20
-41.469186384122
 30
0
 11
-292.777272278923
 21
-60.377893655675
 31
0
  0
LINE
  8
1
 62
7
 10
-308.777272278923
 20
-41.469186384122
 30
0
 11
-308.777272278923
 21
-60.37789365567501
 31
0
  0
LINE
  8
1
 62
7
 10
-323.6235463311409
 20
-63.36727055016369
 30
0
 11
-329.856245213981
 21
-40.10652165112612
 31
0
  0
LINE
  8
1
 62
7
 10
-329.4827400006241
 20
-34.83006032878792
 30
0
 11
-328.1886447751115
 21
-39.65968946023326
 31
0
  0
LINE
  8
1
 62
7
 10
-329.1590590566405
 20
-34.74333028124214
 30
0
 11
-327.8649638311279
 21
-39.57295941268748
 31
0
  0
LINE
  8
1
 62
7
 10
-330.1777020274149
 20
-35.0162748426368
 30
0
 11
-328.8836068019023
 21
-39.84590397408213
 31
0
  0
LINE
  8
1
 62
7
 10
-330.5775431935132
 20
-35.12341196019356
 30
0
 11
-329.2834479680006
 21
-39.9530410916389
 31
0
  0
LINE
  8
1
 62
7
 10
-327.3158602908408
 20
-39.42582756250649
 30
0
 11
-321.0945673194709
 21
-62.64400902043015
 31
0
  0
LINE
  8
1
 62
7
 10
-318.5427764848603
 20
-62.00588237292443
 30
0
 11
-324.7754753677006
 21
-38.74513347388686
 31
0
  0
LINE
  8
1
 62
7
 10
-326.9423550774839
 20
-34.14936624016829
 30
0
 11
-325.6482598519713
 21
-38.97899537161363
 31
0
  0
LINE
  8
1
 62
7
 10
-326.6186741335003
 20
-34.06263619262251
 30
0
 11
-325.3245789079877
 21
-38.89226532406785
 31
0
  0
LINE
  8
1
 62
7
 10
-327.6373171042747
 20
-34.33558075401717
 30
0
 11
-326.3432218787621
 21
-39.1652098854625
 31
0
  0
LINE
  8
1
 62
7
 10
-328.037158270373
 20
-34.44271787157393
 30
0
 11
-326.7430630448604
 21
-39.27234700301927
 31
0
  0
LINE
  8
1
 62
7
 10
-329.856245213981
 20
-40.10652165112612
 30
0
 11
-324.7754753677006
 21
-38.74513347388686
 31
0
  0
LINE
  8
1
 62
7
 10
-327.2957912655822
 20
-34.24406918134515
 30
0
 11
-326.0016960400696
 21
-39.07369831279049
 31
0
  0
LINE
  8
1
 62
7
 10
-329.871590094964
 20
-34.93425239754303
 30
0
 11
-328.5774948694514
 21
-39.76388152898837
 31
0
  0
LINE
  8
1
 62
3
  6
DASHDOT
 10
-284.1462901194261
 20
-121.838204224625
 30
0
 11
-273.8651573332646
 21
-111.5570714384636
 31
0
  0
LINE
  8
1
 62
7
  6
DASHED
 10
-284.1921114156815
 20
-119.7627051773209
 30
0
 11
-277.1119339875467
 21
-112.6825277491861
 31
0
  0
LINE
  8
1
 62
7
  6
DASHED
 10
-282.0707910721219
 20
-121.8840255208805
 30
0
 11
-274.990613643987
 21
-114.8038480927457
 31
0
  0
LINE
  8
1
 62
7
  6
DASHED
 10
-319.4837534857241
 20
-121.8840255208804
 30
0
 11
-326.563930913859
 21
-114.8038480927456
 31
0
  0
LINE
  8
1
 62
7
  6
DASHED
 10
-317.3624331421645
 20
-157.175667590923
 30
0
 11
-324.4426105702993
 21
-164.2558450190579
 31
0
  0
LINE
  8
1
 62
7
  6
DASHED
 10
-282.0707910721219
 20
-155.0543472473634
 30
0
 11
-274.9906136439872
 21
-162.1345246754982
 31
0
  0
LINE
  8
1
 62
3
  6
DASHDOT
 10
-317.40825443842
 20
-121.838204224625
 30
0
 11
-327.6893872245815
 21
-111.5570714384635
 31
0
  0
LINE
  8
1
 62
3
  6
DASHDOT
 10
-317.40825443842
 20
-155.1001685436189
 30
0
 11
-327.6893872245815
 21
-165.3813013297803
 31
0
  0
LINE
  8
1
 62
3
  6
DASHDOT
 10
-284.1462901194261
 20
-155.1001685436189
 30
0
 11
-273.8651573332647
 21
-165.3813013297804
 31
0
  0
LINE
  8
1
 62
7
  6
DASHED
 10
-317.3624331421645
 20
-119.7627051773209
 30
0
 11
-324.4426105702993
 21
-112.682527749186
 31
0
  0
LINE
  8
1
 62
7
  6
DASHED
 10
-319.4837534857241
 20
-155.0543472473634
 30
0
 11
-326.563930913859
 21
-162.1345246754983
 31
0
  0
LINE
  8
1
 62
7
  6
DASHED
 10
-284.1921114156816
 20
-157.175667590923
 30
0
 11
-277.1119339875467
 21
-164.2558450190579
 31
0
  0
LINE
  8
1
 62
7
 10
-682.277272278923
 20
-213.469186384122
 30
0
 11
-679.777272278923
 21
-215.969186384122
 31
0
  0
LINE
  8
1
 62
7
 10
-640.277272278923
 20
-215.969186384122
 30
0
 11
-635.777272278923
 21
-211.469186384122
 31
0
  0
LINE
  8
1
 62
7
 10
-640.277272278923
 20
-215.969186384122
 30
0
 11
-679.777272278923
 21
-215.969186384122
 31
0
  0
LINE
  8
1
 62
7
 10
-610.277272278923
 20
-173.469186384122
 30
0
 11
-609.277272278923
 21
-172.469186384122
 31
0
  0
LINE
  8
1
 62
7
 10
-612.777272278923
 20
-209.469186384122
 30
0
 11
-610.777272278923
 21
-193.1804935281728
 31
0
  0
LINE
  8
1
 62
7
 10
-612.777272278923
 20
-209.469186384122
 30
0
 11
-619.777272278923
 21
-209.469186384122
 31
0
  0
LINE
  8
1
 62
7
 10
-619.777272278923
 20
-216.969186384122
 30
0
 11
-633.777272278923
 21
-216.969186384122
 31
0
  0
LINE
  8
1
 62
7
 10
-610.277272278923
 20
-173.469186384122
 30
0
 11
-610.777272278923
 21
-173.469186384122
 31
0
  0
LINE
  8
1
 62
7
 10
-633.777272278923
 20
-209.669186384122
 30
0
 11
-635.777272278923
 21
-209.669186384122
 31
0
  0
LINE
  8
1
 62
7
 10
-682.1772722789229
 20
-39.469186384122
 30
0
 11
-679.1772722789229
 21
-39.469186384122
 31
0
  0
LINE
  8
1
 62
3
  6
DASHDOT
 10
-684.254596573334
 20
-47.469186384122
 30
0
 11
-677.170706147213
 21
-47.469186384122
 31
0
  0
LINE
  8
1
 62
3
  6
DASHDOT
 10
-296.210650770558
 20
-47.469186384122
 30
0
 11
-305.343893787288
 21
-47.469186384122
 31
0
  0
LINE
  8
1
 62
3
  6
DASHDOT
 10
-300.777272278923
 20
-42.90256487575698
 30
0
 11
-300.777272278923
 21
-52.03580789248701
 31
0
  0
LINE
  8
1
 62
3
  6
DASHDOT
 10
-300.7772722789231
 20
-68.8311592482663
 30
0
 11
-300.7772722789231
 21
-58.12593878686772
 31
0
  0
LINE
  8
1
 62
3
  6
DASHDOT
 10
-300.7772722789231
 20
-208.1072135199776
 30
0
 11
-300.7772722789231
 21
-218.8124339813763
 31
0
  0
LINE
  8
1
 62
3
  6
DASHDOT
 10
-293.750867525078
 20
-138.469186384122
 30
0
 11
-307.8036770327681
 21
-138.469186384122
 31
0
  0
LINE
  8
1
 62
3
  6
DASHDOT
 10
-300.777272278923
 20
-131.442781630277
 30
0
 11
-300.777272278923
 21
-145.495591137967
 31
0
  0
LINE
  8
1
 62
7
 10
-516.652272278923
 20
-175.1725530142537
 30
0
 11
-510.902272278923
 21
-175.1725530142537
 31
0
  0
LINE
  8
1
 62
7
 10
-524.777272278923
 20
-175.1725530142537
 30
0
 11
-521.902272278923
 21
-175.1725530142537
 31
0
  0
LINE
  8
1
 62
7
 10
-524.777272278923
 20
-184.2658197539903
 30
0
 11
-521.902272278923
 21
-184.2658197539903
 31
0
  0
LINE
  8
1
 62
7
 10
-516.652272278923
 20
-184.2658197539903
 30
0
 11
-510.902272278923
 21
-184.2658197539903
 31
0
  0
LINE
  8
1
 62
7
 10
-522.6772722789229
 20
-188.469186384122
 30
0
 11
-515.8772722789229
 21
-188.469186384122
 31
0
  0
LINE
  8
1
 62
7
 10
-513.777272278923
 20
-188.469186384122
 30
0
 11
-513.777272278923
 21
-170.969186384122
 31
0
  0
LINE
  8
1
 62
7
 10
-505.652272278923
 20
-175.1725530142537
 30
0
 11
-502.777272278923
 21
-175.1725530142537
 31
0
  0
LINE
  8
1
 62
7
 10
-505.652272278923
 20
-184.2658197539903
 30
0
 11
-502.777272278923
 21
-184.2658197539903
 31
0
  0
LINE
  8
1
 62
7
 10
-511.6772722789229
 20
-188.469186384122
 30
0
 11
-504.877272278923
 21
-188.469186384122
 31
0
  0
LINE
  8
1
 62
7
 10
-488.777272278923
 20
-215.969186384122
 30
0
 11
-484.277272278923
 21
-211.469186384122
 31
0
  0
LINE
  8
1
 62
7
 10
-493.777272278923
 20
-194.469186384122
 30
0
 11
-492.277272278923
 21
-192.969186384122
 31
0
  0
LINE
  8
1
 62
7
 10
-527.777272278923
 20
-188.469186384122
 30
0
 11
-530.777272278923
 21
-188.469186384122
 31
0
  0
LINE
  8
1
 62
7
 10
-502.777272278923
 20
-188.469186384122
 30
0
 11
-524.777272278923
 21
-188.469186384122
 31
0
  0
LINE
  8
1
 62
7
 10
-488.777272278923
 20
-215.969186384122
 30
0
 11
-527.6772722789229
 21
-215.969186384122
 31
0
  0
LINE
  8
1
 62
7
 10
-484.277272278923
 20
-209.969186384122
 30
0
 11
-484.277272278923
 21
-211.469186384122
 31
0
  0
LINE
  8
1
 62
7
 10
-493.777272278923
 20
-194.469186384122
 30
0
 11
-494.277272278923
 21
-194.469186384122
 31
0
  0
LINE
  8
1
 62
7
 10
-492.277272278923
 20
-184.469186384122
 30
0
 11
-492.277272278923
 21
-192.969186384122
 31
0
  0
LINE
  8
1
 62
7
 10
-502.777272278923
 20
-184.469186384122
 30
0
 11
-492.277272278923
 21
-184.469186384122
 31
0
  0
LINE
  8
1
 62
7
 10
-501.277272278923
 20
-175.469186384122
 30
0
 11
-502.777272278923
 21
-175.469186384122
 31
0
  0
LINE
  8
1
 62
7
 10
-501.277272278923
 20
-183.669186384122
 30
0
 11
-501.277272278923
 21
-175.469186384122
 31
0
  0
LINE
  8
1
 62
7
 10
-491.277272278923
 20
-183.669186384122
 30
0
 11
-501.277272278923
 21
-183.669186384122
 31
0
  0
LINE
  8
1
 62
7
 10
-491.277272278923
 20
-201.719186384122
 30
0
 11
-491.277272278923
 21
-183.669186384122
 31
0
  0
LINE
  8
1
 62
7
 10
-492.277272278923
 20
-201.719186384122
 30
0
 11
-491.277272278923
 21
-201.719186384122
 31
0
  0
LINE
  8
1
 62
7
 10
-492.277272278923
 20
-209.169186384122
 30
0
 11
-492.277272278923
 21
-201.719186384122
 31
0
  0
LINE
  8
1
 62
7
 10
-482.277272278923
 20
-209.169186384122
 30
0
 11
-492.277272278923
 21
-209.169186384122
 31
0
  0
LINE
  8
1
 62
7
 10
-482.277272278923
 20
-173.469186384122
 30
0
 11
-462.777272278923
 21
-173.469186384122
 31
0
  0
LINE
  8
1
 62
7
 10
-458.777272278923
 20
-173.469186384122
 30
0
 11
-457.777272278923
 21
-172.469186384122
 31
0
  0
LINE
  8
1
 62
7
 10
-471.777272278923
 20
-163.469186384122
 30
0
 11
-457.777272278923
 21
-163.469186384122
 31
0
  0
LINE
  8
1
 62
7
 10
-506.277272278923
 20
-163.469186384122
 30
0
 11
-530.777272278923
 21
-163.469186384122
 31
0
  0
LINE
  8
1
 62
7
 10
-479.777272278923
 20
-163.469186384122
 30
0
 11
-498.277272278923
 21
-163.469186384122
 31
0
  0
LINE
  8
1
 62
7
 10
-498.277272278923
 20
-164.469186384122
 30
0
 11
-506.277272278923
 21
-164.469186384122
 31
0
  0
LINE
  8
1
 62
7
 10
-471.777272278923
 20
-164.469186384122
 30
0
 11
-479.777272278923
 21
-164.469186384122
 31
0
  0
LINE
  8
1
 62
7
 10
-527.277272278923
 20
-170.969186384122
 30
0
 11
-530.777272278923
 21
-170.969186384122
 31
0
  0
LINE
  8
1
 62
7
 10
-482.277272278923
 20
-177.969186384122
 30
0
 11
-462.777272278923
 21
-177.969186384122
 31
0
  0
LINE
  8
1
 62
7
 10
-460.277272278923
 20
-171.969186384122
 30
0
 11
-462.777272278923
 21
-171.969186384122
 31
0
  0
LINE
  8
1
 62
7
 10
-458.777272278923
 20
-173.469186384122
 30
0
 11
-460.277272278923
 21
-173.469186384122
 31
0
  0
LINE
  8
1
 62
7
 10
-462.777272278923
 20
-178.369186384122
 30
0
 11
-460.277272278923
 21
-178.369186384122
 31
0
  0
LINE
  8
1
 62
7
 10
-459.277272278923
 20
-182.469186384122
 30
0
 11
-462.777272278923
 21
-182.469186384122
 31
0
  0
LINE
  8
1
 62
7
 10
-462.777272278923
 20
-182.469186384122
 30
0
 11
-462.777272278923
 21
-171.969186384122
 31
0
  0
LINE
  8
1
 62
7
 10
-461.277272278923
 20
-209.469186384122
 30
0
 11
-459.277272278923
 21
-193.1804935281728
 31
0
  0
LINE
  8
1
 62
7
 10
-461.277272278923
 20
-209.469186384122
 30
0
 11
-468.277272278923
 21
-209.469186384122
 31
0
  0
LINE
  8
1
 62
7
 10
-468.277272278923
 20
-174.219186384122
 30
0
 11
-462.777272278923
 21
-174.219186384122
 31
0
  0
LINE
  8
1
 62
7
 10
-468.277272278923
 20
-178.469186384122
 30
0
 11
-462.777272278923
 21
-178.469186384122
 31
0
  0
LINE
  8
1
 62
7
 10
-459.277272278923
 20
-193.1804935281728
 30
0
 11
-459.277272278923
 21
-179.9790784704529
 31
0
  0
LINE
  8
1
 62
7
 10
-468.277272278923
 20
-216.969186384122
 30
0
 11
-482.277272278923
 21
-216.969186384122
 31
0
  0
LINE
  8
1
 62
7
 10
-482.277272278923
 20
-216.969186384122
 30
0
 11
-482.277272278923
 21
-171.969186384122
 31
0
  0
LINE
  8
1
 62
7
 10
-468.277272278923
 20
-173.469186384122
 30
0
 11
-468.277272278923
 21
-216.969186384122
 31
0
  0
LINE
  8
1
 62
7
 10
-527.277272278923
 20
-175.869186384122
 30
0
 11
-524.777272278923
 21
-175.869186384122
 31
0
  0
LINE
  8
1
 62
7
 10
-524.777272278923
 20
-169.469186384122
 30
0
 11
-524.777272278923
 21
-190.219186384122
 31
0
  0
LINE
  8
1
 62
7
 10
-524.777272278923
 20
-169.469186384122
 30
0
 11
-527.277272278923
 21
-169.469186384122
 31
0
  0
LINE
  8
1
 62
7
 10
-527.277272278923
 20
-169.469186384122
 30
0
 11
-527.277272278923
 21
-175.869186384122
 31
0
  0
LINE
  8
1
 62
7
 10
-527.777272278923
 20
-190.219186384122
 30
0
 11
-524.777272278923
 21
-190.219186384122
 31
0
  0
LINE
  8
1
 62
7
 10
-524.777272278923
 20
-181.919186384122
 30
0
 11
-527.777272278923
 21
-181.919186384122
 31
0
  0
LINE
  8
1
 62
7
 10
-527.777272278923
 20
-190.219186384122
 30
0
 11
-527.777272278923
 21
-177.6505937388138
 31
0
  0
LINE
  8
1
 62
7
 10
-502.777272278923
 20
-188.469186384122
 30
0
 11
-502.777272278923
 21
-170.969186384122
 31
0
  0
LINE
  8
1
 62
7
 10
-494.277272278923
 20
-209.969186384122
 30
0
 11
-494.277272278923
 21
-194.469186384122
 31
0
  0
LINE
  8
1
 62
3
 10
-468.277272278923
 20
-216.969186384122
 30
0
 11
-482.277272278923
 21
-173.469186384122
 31
0
  0
LINE
  8
1
 62
3
 10
-482.277272278923
 20
-216.969186384122
 30
0
 11
-468.277272278923
 21
-173.469186384122
 31
0
  0
LINE
  8
1
 62
7
 10
-530.777272278923
 20
-213.469186384122
 30
0
 11
-530.777272278923
 21
-174.55094897405
 31
0
  0
LINE
  8
1
 62
7
 10
-494.277272278923
 20
-209.969186384122
 30
0
 11
-484.277272278923
 21
-209.969186384122
 31
0
  0
LINE
  8
1
 62
7
 10
-524.777272278923
 20
-169.469186384122
 30
0
 11
-527.277272278923
 21
-169.469186384122
 31
0
  0
LINE
  8
1
 62
7
 10
-524.777272278923
 20
-190.219186384122
 30
0
 11
-527.777272278923
 21
-190.219186384122
 31
0
  0
LINE
  8
1
 62
7
 10
-482.277272278923
 20
-171.969186384122
 30
0
 11
-502.777272278923
 21
-171.969186384122
 31
0
  0
LINE
  8
1
 62
7
  6
DASHED
 10
-500.777272278923
 20
-164.469186384122
 30
0
 11
-500.777272278923
 21
-183.669186384122
 31
0
  0
LINE
  8
1
 62
3
  6
DASHDOT
 10
-502.277272278923
 20
-163.438776467451
 30
0
 11
-502.277272278923
 21
-176.357723797027
 31
0
  0
LINE
  8
1
 62
7
  6
DASHED
 10
-503.777272278923
 20
-170.969186384122
 30
0
 11
-503.777272278923
 21
-164.469186384122
 31
0
  0
LINE
  8
1
 62
3
 10
-475.777272278923
 20
-163.567132763709
 30
0
 11
-475.777272278923
 21
-174.957234518277
 31
0
  0
LINE
  8
1
 62
7
  6
DASHED
 10
-477.277272278923
 20
-173.469186384122
 30
0
 11
-477.277272278923
 21
-164.469186384122
 31
0
  0
LINE
  8
1
 62
7
  6
DASHED
 10
-474.277272278923
 20
-164.469186384122
 30
0
 11
-474.277272278923
 21
-173.469186384122
 31
0
  0
LINE
  8
1
 62
3
 10
-457.777272278923
 20
-138.469186384122
 30
0
 11
-454.777272278923
 21
-138.469186384122
 31
0
  0
LINE
  8
1
 62
3
 10
-530.777272278923
 20
-138.469186384122
 30
0
 11
-533.777272278923
 21
-138.469186384122
 31
0
  0
LINE
  8
1
 62
7
 10
-517.808779100513
 20
-35.91266525283739
 30
0
 11
-517.808779100513
 21
-30.91266525283739
 31
0
  0
LINE
  8
1
 62
7
 10
-494.277272278923
 20
-82.469186384122
 30
0
 11
-493.777272278923
 21
-82.469186384122
 31
0
  0
LINE
  8
1
 62
7
 10
-502.777272278923
 20
-105.969186384122
 30
0
 11
-524.777272278923
 21
-105.969186384122
 31
0
  0
LINE
  8
1
 62
7
 10
-502.777272278923
 20
-170.969186384122
 30
0
 11
-524.777272278923
 21
-170.969186384122
 31
0
  0
LINE
  8
1
 62
7
 10
-482.277272278923
 20
-98.969186384122
 30
0
 11
-462.777272278923
 21
-98.969186384122
 31
0
  0
LINE
  8
1
 62
7
 10
-462.777272278923
 20
-104.969186384122
 30
0
 11
-460.277272278923
 21
-104.969186384122
 31
0
  0
LINE
  8
1
 62
7
 10
-679.777272278923
 20
-60.96918638412205
 30
0
 11
-682.277272278923
 21
-63.46918638412205
 31
0
  0
LINE
  8
1
 62
7
 10
-635.777272278923
 20
-65.469186384122
 30
0
 11
-640.277272278923
 21
-60.96918638412205
 31
0
  0
LINE
  8
1
 62
7
 10
-679.777272278923
 20
-60.96918638412205
 30
0
 11
-640.277272278923
 21
-60.96918638412205
 31
0
  0
LINE
  8
1
 62
7
 10
-609.277272278923
 20
-104.4691863841221
 30
0
 11
-610.277272278923
 21
-103.4691863841221
 31
0
  0
LINE
  8
1
 62
7
 10
-609.277272278923
 20
-104.4691863841221
 30
0
 11
-609.277272278923
 21
-172.469186384122
 31
0
  0
LINE
  8
1
 62
7
 10
-610.777272278923
 20
-83.75787924007125
 30
0
 11
-612.777272278923
 21
-67.46918638412205
 31
0
  0
LINE
  8
1
 62
7
 10
-610.777272278923
 20
-83.75787924007125
 30
0
 11
-610.777272278923
 21
-193.1804935281728
 31
0
  0
LINE
  8
1
 62
7
 10
-619.777272278923
 20
-67.46918638412205
 30
0
 11
-612.777272278923
 21
-67.46918638412205
 31
0
  0
LINE
  8
1
 62
7
 10
-633.777272278923
 20
-59.96918638412205
 30
0
 11
-619.777272278923
 21
-59.96918638412205
 31
0
  0
LINE
  8
1
 62
7
 10
-633.777272278923
 20
-59.96918638412205
 30
0
 11
-633.777272278923
 21
-216.969186384122
 31
0
  0
LINE
  8
1
 62
7
 10
-619.777272278923
 20
-59.96918638412205
 30
0
 11
-619.777272278923
 21
-216.969186384122
 31
0
  0
LINE
  8
1
 62
7
 10
-682.277272278923
 20
-63.46918638412205
 30
0
 11
-682.277272278923
 21
-213.469186384122
 31
0
  0
LINE
  8
1
 62
7
 10
-610.777272278923
 20
-103.4691863841221
 30
0
 11
-610.277272278923
 21
-103.4691863841221
 31
0
  0
LINE
  8
1
 62
7
 10
-610.277272278923
 20
-103.4691863841221
 30
0
 11
-610.277272278923
 21
-173.469186384122
 31
0
  0
LINE
  8
1
 62
7
 10
-612.777272278923
 20
-67.46918638412205
 30
0
 11
-612.777272278923
 21
-209.469186384122
 31
0
  0
LINE
  8
1
 62
7
 10
-635.777272278923
 20
-67.26918638412204
 30
0
 11
-633.777272278923
 21
-67.26918638412204
 31
0
  0
LINE
  8
1
 62
7
 10
-635.777272278923
 20
-65.469186384122
 30
0
 11
-635.777272278923
 21
-211.469186384122
 31
0
  0
LINE
  8
1
 62
7
 10
-640.277272278923
 20
-60.96918638412205
 30
0
 11
-640.277272278923
 21
-215.969186384122
 31
0
  0
LINE
  8
1
 62
7
 10
-679.777272278923
 20
-60.96918638412205
 30
0
 11
-679.777272278923
 21
-215.969186384122
 31
0
  0
LINE
  8
1
 62
7
 10
-679.1772722789229
 20
-60.969186384122
 30
0
 11
-679.1772722789229
 21
-39.469186384122
 31
0
  0
LINE
  8
1
 62
7
 10
-682.1772722789229
 20
-63.36918638412203
 30
0
 11
-682.1772722789229
 21
-39.469186384122
 31
0
  0
LINE
  8
1
 62
7
 10
-667.9622722789229
 20
-35.91266525283739
 30
0
 11
-667.9622722789229
 21
-60.969186384122
 31
0
  0
LINE
  8
1
 62
7
 10
-670.592272278923
 20
-35.91266525283739
 30
0
 11
-670.592272278923
 21
-60.969186384122
 31
0
  0
LINE
  8
1
 62
7
 10
-669.6886992917259
 20
-35.91266525283739
 30
0
 11
-669.6886992917259
 21
-30.91266525283739
 31
0
  0
LINE
  8
1
 62
7
 10
-670.0237984630849
 20
-35.91266525283739
 30
0
 11
-670.0237984630849
 21
-30.91266525283739
 31
0
  0
LINE
  8
1
 62
7
 10
-668.9692216591
 20
-35.91266525283739
 30
0
 11
-668.9692216591
 21
-30.91266525283739
 31
0
  0
LINE
  8
1
 62
7
 10
-668.555275623891
 20
-35.91266525283739
 30
0
 11
-668.555275623891
 21
-30.91266525283739
 31
0
  0
LINE
  8
1
 62
7
 10
-670.592272278923
 20
-35.91266525283739
 30
0
 11
-667.9622722789229
 21
-35.91266525283739
 31
0
  0
LINE
  8
1
 62
7
 10
-669.308779100513
 20
-35.91266525283739
 30
0
 11
-669.308779100513
 21
-30.91266525283739
 31
0
  0
LINE
  8
1
 62
3
 10
-633.777272278923
 20
-59.96918638412205
 30
0
 11
-619.777272278923
 21
-216.969186384122
 31
0
  0
LINE
  8
1
 62
3
 10
-633.777272278923
 20
-216.969186384122
 30
0
 11
-619.777272278923
 21
-59.96918638412205
 31
0
  0
LINE
  8
1
 62
3
 10
-609.277272278923
 20
-138.469186384122
 30
0
 11
-606.277272278923
 21
-138.469186384122
 31
0
  0
LINE
  8
1
 62
3
 10
-682.277272278923
 20
-138.469186384122
 30
0
 11
-685.277272278923
 21
-138.469186384122
 31
0
  0
LINE
  8
1
 62
7
 10
-904.0613965264192
 20
-94.13785158034035
 30
0
 11
-903.192797383341
 21
-94.63933752941445
 31
0
  0
LINE
  8
1
 62
7
 10
-910.0613965264192
 20
-104.5301564257536
 30
0
 11
-909.192797383341
 21
-105.0316423748277
 31
0
  0
LINE
  8
1
 62
7
 10
-910.0613965264192
 20
-172.4082163424902
 30
0
 11
-909.192797383341
 21
-171.9067303934162
 31
0
  0
LINE
  8
1
 62
7
 10
-904.0613965264192
 20
-182.8005211879035
 30
0
 11
-903.192797383341
 21
-182.2990352388294
 31
0
  0
LINE
  8
1
 62
7
 10
-845.277272278923
 20
-216.7395511462718
 30
0
 11
-845.277272278923
 21
-215.7365792481238
 31
0
  0
LINE
  8
1
 62
7
 10
-833.277272278923
 20
-216.7395511462719
 30
0
 11
-833.277272278923
 21
-215.7365792481238
 31
0
  0
LINE
  8
1
 62
7
 10
-774.4931480314269
 20
-182.8005211879035
 30
0
 11
-775.3617471745051
 21
-182.2990352388295
 31
0
  0
LINE
  8
1
 62
7
 10
-768.4931480314269
 20
-172.4082163424903
 30
0
 11
-769.361747174505
 21
-171.9067303934163
 31
0
  0
LINE
  8
1
 62
7
 10
-768.4931480314269
 20
-104.5301564257536
 30
0
 11
-769.361747174505
 21
-105.0316423748276
 31
0
  0
LINE
  8
1
 62
7
 10
-774.4931480314269
 20
-94.13785158034038
 30
0
 11
-775.3617471745049
 21
-94.63933752941439
 31
0
  0
LINE
  8
1
 62
7
 10
-846.277272278923
 20
-110.969186384122
 30
0
 11
-832.277272278923
 21
-110.969186384122
 31
0
  0
LINE
  8
1
 62
7
 10
-832.277272278923
 20
-110.969186384122
 30
0
 11
-832.277272278923
 21
-114.469186384122
 31
0
  0
LINE
  8
1
 62
7
 10
-846.277272278923
 20
-110.969186384122
 30
0
 11
-846.277272278923
 21
-114.469186384122
 31
0
  0
LINE
  8
1
 62
7
 10
-845.277272278923
 20
-39.469186384122
 30
0
 11
-833.277272278923
 21
-39.469186384122
 31
0
  0
LINE
  8
1
 62
7
 10
-831.277272278923
 20
-41.469186384122
 30
0
 11
-831.277272278923
 21
-76.469186384122
 31
0
  0
LINE
  8
1
 62
7
 10
-847.277272278923
 20
-41.469186384122
 30
0
 11
-847.277272278923
 21
-76.469186384122
 31
0
  0
LINE
  8
1
 62
7
 10
-821.5117680729858
 20
-62.00588237292434
 30
0
 11
-815.2790691901455
 21
-38.74513347388681
 31
0
  0
LINE
  8
1
 62
7
 10
-812.3173735257633
 20
-34.36233653333441
 30
0
 11
-813.6114687512759
 21
-39.19196566477974
 31
0
  0
LINE
  8
1
 62
7
 10
-811.9936925817797
 20
-34.44906658088014
 30
0
 11
-813.2877878072923
 21
-39.27869571232547
 31
0
  0
LINE
  8
1
 62
7
 10
-813.0123355525541
 20
-34.17612201948551
 30
0
 11
-814.3064307780667
 21
-39.00575115093084
 31
0
  0
LINE
  8
1
 62
7
 10
-813.4121767186525
 20
-34.06898490192869
 30
0
 11
-814.7062719441651
 21
-38.89861403337402
 31
0
  0
LINE
  8
1
 62
7
 10
-812.7386842670053
 20
-39.42582756250642
 30
0
 11
-818.959977238375
 21
-62.64400902043016
 31
0
  0
LINE
  8
1
 62
7
 10
-816.4309982267052
 20
-63.36727055016367
 30
0
 11
-810.1982993438651
 21
-40.10652165112603
 31
0
  0
LINE
  8
1
 62
7
 10
-809.7769886026231
 20
-35.04303062195402
 30
0
 11
-811.0710838281357
 21
-39.87265975339935
 31
0
  0
LINE
  8
1
 62
7
 10
-809.4533076586395
 20
-35.12976066949975
 30
0
 11
-810.7474028841521
 21
-39.95938980094508
 31
0
  0
LINE
  8
1
 62
7
 10
-810.4719506294139
 20
-34.85681610810511
 30
0
 11
-811.7660458549265
 21
-39.68644523955045
 31
0
  0
LINE
  8
1
 62
7
 10
-810.8717917955123
 20
-34.7496789905483
 30
0
 11
-812.1658870210249
 21
-39.57930812199363
 31
0
  0
LINE
  8
1
 62
7
 10
-815.2790691901455
 20
-38.74513347388681
 30
0
 11
-810.1982993438651
 21
-40.10652165112603
 31
0
  0
LINE
  8
1
 62
7
 10
-810.1304247907215
 20
-34.94832768077709
 30
0
 11
-811.4245200162341
 21
-39.77795681222242
 31
0
  0
LINE
  8
1
 62
7
 10
-812.7062236201032
 20
-34.25814446457925
 30
0
 11
-814.0003188456158
 21
-39.08777359602458
 31
0
  0
LINE
  8
1
 62
3
  6
DASHDOT
 10
-834.710650770558
 20
-47.469186384122
 30
0
 11
-843.843893787288
 21
-47.469186384122
 31
0
  0
LINE
  8
1
 62
3
  6
DASHDOT
 10
-839.277272278923
 20
-42.90256487575698
 30
0
 11
-839.277272278923
 21
-52.03580789248701
 31
0
  0
LINE
  8
1
 62
3
  6
DASHDOT
 10
-832.250867525078
 20
-138.469186384122
 30
0
 11
-846.3036770327681
 21
-138.469186384122
 31
0
  0
LINE
  8
1
 62
3
  6
DASHDOT
 10
-839.277272278923
 20
-131.442781630277
 30
0
 11
-839.277272278923
 21
-145.495591137967
 31
0
  0
LINE
  8
1
 62
7
 10
-460.277272278923
 20
-98.56918638412199
 30
0
 11
-460.277272278923
 21
-104.969186384122
 31
0
  0
LINE
  8
1
 62
7
 10
-482.277272278923
 20
-103.469186384122
 30
0
 11
-462.777272278923
 21
-103.469186384122
 31
0
  0
LINE
  8
1
 62
7
 10
-460.277272278923
 20
-178.369186384122
 30
0
 11
-460.277272278923
 21
-171.969186384122
 31
0
  0
ARC
  8
1
 62
7
 10
-294.777272278923
 20
-41.469186384122
 30
0
 40
2
 50
0
 51
90
  0
ARC
  8
1
 62
7
 10
-306.777272278923
 20
-41.469186384122
 30
0
 40
2
 50
90
 51
180
  0
ARC
  8
1
 62
7
 10
-833.277272278923
 20
-41.469186384122
 30
0
 40
2
 50
0
 51
90
  0
ARC
  8
1
 62
7
 10
-845.277272278923
 20
-41.469186384122
 30
0
 40
2
 50
90
 51
180
  0
ARC
  8
1
 62
7
 10
-300.777272278923
 20
-138.469186384122
 30
0
 40
78.49999999999996
 50
34.38357048804576
 51
85.61642951195428
  0
ARC
  8
1
 62
7
 10
-300.777272278923
 20
-138.469186384122
 30
0
 40
78.49999999999999
 50
94.38357048804571
 51
145.6164295119542
  0
ARC
  8
1
 62
7
 10
-300.777272278923
 20
-138.469186384122
 30
0
 40
78.5
 50
154.3835704880457
 51
205.6164295119542
  0
ARC
  8
1
 62
7
 10
-300.777272278923
 20
-138.469186384122
 30
0
 40
78.49999999999993
 50
214.3835704880457
 51
265.6164295119543
  0
ARC
  8
1
 62
7
 10
-300.777272278923
 20
-138.469186384122
 30
0
 40
78.49999999999999
 50
274.3835704880457
 51
325.6164295119543
  0
ARC
  8
1
 62
7
 10
-300.777272278923
 20
-138.469186384122
 30
0
 40
78.49999999999994
 50
334.3835704880457
 51
25.61642951195434
  0
ARC
  8
1
 62
7
 10
-300.777272278923
 20
-138.469186384122
 30
0
 40
77.49999999999994
 50
85.55975453408172
 51
94.44024546591828
  0
ARC
  8
1
 62
7
 10
-300.777272278923
 20
-138.469186384122
 30
0
 40
77.49999999999994
 50
145.5597545340817
 51
154.4402454659183
  0
ARC
  8
1
 62
7
 10
-300.777272278923
 20
-138.469186384122
 30
0
 40
77.5
 50
205.5597545340817
 51
214.4402454659183
  0
ARC
  8
1
 62
7
 10
-300.777272278923
 20
-138.469186384122
 30
0
 40
77.49999999999986
 50
265.5597545340817
 51
274.4402454659183
  0
ARC
  8
1
 62
7
 10
-300.777272278923
 20
-138.469186384122
 30
0
 40
77.49999999999989
 50
325.5597545340817
 51
334.4402454659183
  0
ARC
  8
1
 62
7
 10
-300.777272278923
 20
-138.469186384122
 30
0
 40
77.49999999999999
 50
25.55975453408175
 51
34.4402454659183
  0
ARC
  8
1
 62
7
 10
-300.777272278923
 20
-138.469186384122
 30
0
 40
25
 50
106.260204708312
 51
73.73979529168804
  0
ARC
  8
1
 62
7
 10
-839.277272278923
 20
-138.469186384122
 30
0
 40
78.49999999999999
 50
95.84921509921524
 51
145.6164295119543
  0
ARC
  8
1
 62
7
 10
-839.277272278923
 20
-138.469186384122
 30
0
 40
78.5000000000001
 50
154.3835704880457
 51
205.6164295119542
  0
ARC
  8
1
 62
7
 10
-839.277272278923
 20
-138.469186384122
 30
0
 40
78.50000000000003
 50
214.3835704880457
 51
265.6164295119543
  0
ARC
  8
1
 62
7
 10
-839.277272278923
 20
-138.469186384122
 30
0
 40
78.49999999999999
 50
274.3835704880457
 51
325.6164295119543
  0
ARC
  8
1
 62
7
 10
-839.277272278923
 20
-138.469186384122
 30
0
 40
78.49999999999986
 50
334.3835704880457
 51
25.61642951195438
  0
ARC
  8
1
 62
7
 10
-839.277272278923
 20
-138.469186384122
 30
0
 40
25
 50
106.260204708312
 51
73.73979529168804
  0
ARC
  8
1
 62
7
 10
-839.277272278923
 20
-138.469186384122
 30
0
 40
78.4999999999999
 50
34.38357048804579
 51
84.15078490078474
  0
ARC
  8
1
 62
7
 10
-839.277272278923
 20
-138.469186384122
 30
0
 40
77.50000000000003
 50
95.92495728598452
 51
84.07504271401548
  0
ARC
  8
1
 62
7
 10
-839.277272278923
 20
-76.469186384122
 30
0
 40
8
 50
180
 51
0
  0
ARC
  8
1
 62
7
 10
-839.277272278923
 20
-138.469186384122
 30
0
 40
75
 50
96.12319886626941
 51
83.8768011337306
  0
CIRCLE
  8
1
 62
7
 10
-519.277272278923
 20
-97.219186384122
 30
0
 40
5.25
  0
CIRCLE
  8
1
 62
7
 10
-508.277272278923
 20
-97.219186384122
 30
0
 40
5.25
  0
CIRCLE
  8
1
 62
7
 10
-300.777272278923
 20
-138.469186384122
 30
0
 40
54.71130714405084
  0
CIRCLE
  8
1
 62
7
 10
-300.777272278923
 20
-138.469186384122
 30
0
 40
44
  0
CIRCLE
  8
1
 62
7
 10
-300.777272278923
 20
-138.469186384122
 30
0
 40
71.00000000000003
  0
CIRCLE
  8
1
 62
7
 10
-300.777272278923
 20
-138.469186384122
 30
0
 40
35
  0
CIRCLE
  8
1
 62
7
 10
-300.777272278923
 20
-47.469186384122
 30
0
 40
3.25
  0
CIRCLE
  8
1
 62
7
 10
-519.277272278923
 20
-179.719186384122
 30
0
 40
5.25
  0
CIRCLE
  8
1
 62
7
 10
-508.277272278923
 20
-179.719186384122
 30
0
 40
5.25
  0
CIRCLE
  8
1
 62
7
 10
-839.277272278923
 20
-47.469186384122
 30
0
 40
3.25
  0
CIRCLE
  8
1
 62
7
 10
-839.277272278923
 20
-138.469186384122
 30
0
 40
32.5
  0
CIRCLE
  8
1
 62
7
 10
-839.277272278923
 20
-138.469186384122
 30
0
 40
50
  0
TEXT
  8
1
 62
7
 10
-913.539964586615
 20
-5.65877858589085
 30
0
 40
9
  1
DC4305
 41
0.9
  7
SIMPLEX
  0
TEXT
  8
1
 62
7
 10
-913.539964586615
 20
11.33319921431105
 30
0
 40
9
  1
MWC 20
 41
0.9
  7
SIMPLEX
  0
ENDSEC
  0
EOF
