  0
SECTION
  2
HEADER
  9
$ACADVER
  1
AC1009
  9
$INSBASE
 10
0
 20
0
  9
$EXTMIN
 10
-536.9049921805129
 20
-77.15139315833319
  9
$EXTMAX
 10
555.595007819487
 20
308.474524096182
  9
$LIMMIN
 10
-536.9049921805129
 20
-77.15139315833319
  9
$LIMMAX
 10
555.595007819487
 20
308.474524096182
  9
$VIEWCTR
 10
10
 20
10
  9
$VIEWSIZE
 40
10
  9
$SNAPMODE
 70
0
  9
$SNAPUNIT
 10
1
 20
1
  9
$SNAPBASE
 10
0
 20
0
  9
$SNAPANG
 50
0
  9
$SNAPSTYLE
 70
0
  9
$SNAPISOPAIR
 70
0
  9
$GRIDMODE
 70
0
  9
$GRIDUNIT
 10
0
 20
0
  9
$ORTHOMODE
 70
0
  9
$REGENMODE
 70
1
  9
$FILLMODE
 70
1
  9
$QTEXTMODE
 70
0
  9
$DRAGMODE
 70
2
  9
$LTSCALE
 40
1
  9
$OSMODE
 70
0
  9
$ATTMODE
 70
1
  9
$TEXTSIZE
 40
3.5
  9
$TRACEWID
 40
0.5
  9
$TEXTSTYLE
  7
STANDARD
  9
$CLAYER
  8
0
  9
$CELTYPE
  6
BYLAYER
  9
$CECOLOR
 62
256
  9
$DIMSCALE
 40
1
  9
$DIMASZ
 40
0.18
  9
$DIMEXO
 40
0.0625
  9
$DIMDLI
 40
0.38
  9
$DIMRND
 40
0
  9
$DIMDLE
 40
0
  9
$DIMEXE
 40
0.18
  9
$DIMTP
 40
0
  9
$DIMTM
 40
0
  9
$DIMTXT
 40
0.18
  9
$DIMCEN
 40
0.09
  9
$DIMTSZ
 40
0
  9
$DIMTOL
 70
0
  9
$DIMLIM
 70
0
  9
$DIMTIH
 70
1
  9
$DIMTOH
 70
1
  9
$DIMSE1
 70
0
  9
$DIMSE2
 70
0
  9
$DIMTAD
 70
0
  9
$DIMZIN
 70
0
  9
$DIMBLK
  1

  9
$DIMASO
 70
1
  9
$DIMSHO
 70
1
  9
$DIMPOST
  1

  9
$DIMAPOST
  1

  9
$DIMALT
 70
0
  9
$DIMALTD
 70
2
  9
$DIMALTF
 40
25.4
  9
$DIMLFAC
 40
1
  9
$DIMTOFL
 70
0
  9
$DIMTVP
 40
0
  9
$DIMTIX
 70
0
  9
$DIMSOXD
 70
0
  9
$DIMSAH
 70
0
  9
$DIMBLK1
  1

  9
$DIMBLK2
  1

  9
$DIMSTYLE
  2
*UNNAMED
  9
$DIMCLRD
 70
0
  9
$DIMCLRE
 70
0
  9
$DIMCLRT
 70
0
  9
$DIMTFAC
 40
1
  9
$DIMGAP
 40
0.09
  9
$LUNITS
 70
2
  9
$LUPREC
 70
4
  9
$AXISMODE
 70
0
  9
$AXISUNIT
 10
0
 20
0
  9
$SKETCHINC
 40
0.1
  9
$FILLETRAD
 40
2
  9
$AUNITS
 70
0
  9
$AUPREC
 70
0
  9
$MENU
  1
ACAD
  9
$ELEVATION
 40
0
  9
$THICKNESS
 40
0
  9
$VIEWDIR
 10
0
 20
0
 30
1
  9
$LIMCHECK
 70
0
  9
$BLIPMODE
 70
1
  9
$CHAMFERA
 40
0
  9
$CHAMFERB
 40
0
  9
$FASTZOOM
 70
1
  9
$SKPOLY
 70
0
  9
$ANGBASE
 50
0
  9
$ANGDIR
 70
0
  9
$PDMODE
 70
0
  9
$PDSIZE
 40
0
  9
$PLINEWID
 40
0
  9
$COORDS
 70
2
  0
ENDSEC
  0
SECTION
  2
TABLES
  0
TABLE
  2
DIMSTYLE
 70
0
  0
ENDTAB
  0
TABLE
  2
LTYPE
 70
9
  0
LTYPE
  2
CONTINUOUS
 70
64
  3
Solid line
 72
65
 73
0
 40
0
  0
LTYPE
  2
BORDER
 70
64
  3
__ __ . __ __ .
 72
65
 73
6
 40
50.3125
 49
14.375
 49
-7.1875
 49
14.375
 49
-7.1875
 49
0
 49
-7.1875
  0
LTYPE
  2
CENTER
 70
64
  3
____ _ ____ _
 72
65
 73
4
 40
57.5
 49
35.9375
 49
-7.1875
 49
7.1875
 49
-7.1875
  0
LTYPE
  2
DASHDOT
 70
64
  3
__ . __ . __ .
 72
65
 73
4
 40
28.75
 49
14.375
 49
-7.1875
 49
0
 49
-7.1875
  0
LTYPE
  2
DASHED
 70
64
  3
__ __ __ __ __
 72
65
 73
2
 40
21.5625
 49
14.375
 49
-7.1875
  0
LTYPE
  2
DIVIDE
 70
64
  3
__ . . __ . . 
 72
65
 73
6
 40
35.9375
 49
14.375
 49
-7.1875
 49
0
 49
-7.1875
 49
0
 49
-7.1875
  0
LTYPE
  2
DOT
 70
64
  3
..............
 72
65
 73
4
 40
14.375
 49
0
 49
-7.1875
 49
0
 49
-7.1875
  0
LTYPE
  2
HIDDEN
 70
64
  3
_ _ _ _ _ _ _
 72
65
 73
2
 40
10.78125
 49
7.1875
 49
-3.59375
  0
LTYPE
  2
PHANTOM
 70
64
  3
_____ _ _ _____ _ _ 
 72
65
 73
6
 40
71.875
 49
35.9375
 49
-7.1875
 49
7.1875
 49
-7.1875
 49
7.1875
 49
-7.1875
  0
ENDTAB
  0
TABLE
  2
LAYER
 70
3
  0
LAYER
  2
1
 70
0
 62
7
  6
CONTINUOUS
  0
LAYER
  2
0
 70
0
 62
7
  6
CONTINUOUS
  0
ENDTAB
  0
TABLE
  2
STYLE
 70
4
  0
STYLE
  2
STANDARD
 70
0
 40
0
 41
1
 50
0
 71
0
 42
3.5
  3
txt
  4

  0
STYLE
  2
SIMPLEX
 70
0
 40
0
 41
1
 50
0
 71
0
 42
3.5
  3
simplex
  4

  0
STYLE
  2
COMPLEX
 70
0
 40
0
 41
1
 50
0
 71
0
 42
3.5
  3
complex
  4

  0
STYLE
  2
ITALIC
 70
0
 40
0
 41
1
 50
0
 71
0
 42
3.5
  3
italic
  4

  0
ENDTAB
  0
TABLE
  2
VIEW
 70
0
  0
ENDTAB
  0
ENDSEC
  0
SECTION
  2
BLOCKS
  0
ENDSEC
  0
SECTION
  2
ENTITIES
  0
LINE
  8
1
 62
7
 10
82.09500781948702
 20
-70.59352517985616
 30
0
 11
82.09500781948702
 21
-39.0935251798561
 31
0
  0
LINE
  8
1
 62
7
 10
-178.404992180513
 20
137.6564748201439
 30
0
 11
-178.404992180513
 21
146.1564748201439
 31
0
  0
LINE
  8
1
 62
7
 10
-173.704992180513
 20
146.1564748201439
 30
0
 11
-173.704992180513
 21
137.6564748201439
 31
0
  0
LINE
  8
1
 62
7
 10
-178.404992180513
 20
146.1564748201439
 30
0
 11
-173.704992180513
 21
146.1564748201439
 31
0
  0
LINE
  8
1
 62
7
 10
-178.704992180513
 20
145.6368595778732
 30
0
 11
-178.404992180513
 21
146.1564748201439
 31
0
  0
LINE
  8
1
 62
7
 10
-178.704992180513
 20
138.1760900624146
 30
0
 11
-178.704992180513
 21
145.6368595778732
 31
0
  0
LINE
  8
1
 62
7
 10
-178.404992180513
 20
137.6564748201439
 30
0
 11
-178.704992180513
 21
138.1760900624146
 31
0
  0
LINE
  8
1
 62
7
 10
-173.704992180513
 20
137.6564748201439
 30
0
 11
-178.404992180513
 21
137.6564748201439
 31
0
  0
LINE
  8
1
 62
7
 10
-172.404992180513
 20
146.5064748201439
 30
0
 11
-172.404992180513
 21
137.3064748201439
 31
0
  0
LINE
  8
1
 62
7
 10
-173.704992180513
 20
146.5064748201439
 30
0
 11
-172.404992180513
 21
146.5064748201439
 31
0
  0
LINE
  8
1
 62
7
 10
-173.704992180513
 20
137.3064748201439
 30
0
 11
-173.704992180513
 21
146.5064748201439
 31
0
  0
LINE
  8
1
 62
7
 10
-172.404992180513
 20
137.3064748201439
 30
0
 11
-173.704992180513
 21
137.3064748201439
 31
0
  0
LINE
  8
1
 62
7
 10
-172.404992180513
 20
143.2064748201439
 30
0
 11
-173.704992180513
 21
141.9064748201439
 31
0
  0
LINE
  8
1
 62
7
 10
-172.404992180513
 20
141.9064748201439
 30
0
 11
-173.704992180513
 21
140.6064748201439
 31
0
  0
LINE
  8
1
 62
7
 10
-183.404992180513
 20
92.00647482014404
 30
0
 11
-182.404992180513
 21
92.00647482014404
 31
0
  0
LINE
  8
1
 62
7
 10
-49.40499218051298
 20
100.9064748201439
 30
0
 11
-50.40499218051298
 21
101.9064748201439
 31
0
  0
LINE
  8
1
 62
7
 10
-183.404992180513
 20
92.00647482014404
 30
0
 11
-184.404992180513
 21
91.00647482014404
 31
0
  0
LINE
  8
1
 62
7
 10
-54.40499218051298
 20
154.4064748201439
 30
0
 11
-66.40499218051298
 21
154.4064748201439
 31
0
  0
LINE
  8
1
 62
7
 10
-51.40499218051298
 20
151.4064748201439
 30
0
 11
-54.40499218051298
 21
154.4064748201439
 31
0
  0
LINE
  8
1
 62
7
 10
-170.404992180513
 20
164.406474820144
 30
0
 11
-100.404992180513
 21
164.406474820144
 31
0
  0
LINE
  8
1
 62
7
 10
-93.40499218051298
 20
157.4064748201439
 30
0
 11
-100.404992180513
 21
164.406474820144
 31
0
  0
LINE
  8
1
 62
7
 10
-170.404992180513
 20
132.9064748201439
 30
0
 11
-182.404992180513
 21
132.9064748201439
 31
0
  0
LINE
  8
1
 62
7
 10
-89.40499218051298
 20
164.406474820144
 30
0
 11
-66.40499218051298
 21
164.406474820144
 31
0
  0
LINE
  8
1
 62
7
 10
-50.40499218051298
 20
101.9064748201439
 30
0
 11
-51.40499218051298
 21
101.9064748201439
 31
0
  0
LINE
  8
1
 62
3
 10
-66.40499218051298
 20
46.9064748201439
 30
0
 11
-89.40499218051298
 21
164.406474820144
 31
0
  0
LINE
  8
1
 62
3
 10
-66.40499218051298
 20
164.406474820144
 30
0
 11
-89.40499218051298
 21
46.9064748201439
 31
0
  0
LINE
  8
1
 62
7
 10
-93.40499218051298
 20
154.4064748201439
 30
0
 11
-89.40499218051298
 21
154.4064748201439
 31
0
  0
LINE
  8
1
 62
7
 10
202.095007819487
 20
-8.093525179856101
 30
0
 11
200.195007819487
 21
-8.093525179856101
 31
0
  0
LINE
  8
1
 62
7
 10
200.195007819487
 20
-8.093525179856101
 30
0
 11
200.195007819487
 21
-6.093525179856101
 31
0
  0
LINE
  8
1
 62
7
 10
200.195007819487
 20
-6.093525179856101
 30
0
 11
195.995007819487
 21
-6.093525179856101
 31
0
  0
LINE
  8
1
 62
7
 10
195.995007819487
 20
-6.093525179856101
 30
0
 11
195.995007819487
 21
-12.49352517985597
 31
0
  0
LINE
  8
1
 62
7
 10
195.995007819487
 20
-12.49352517985597
 30
0
 11
163.095007819487
 21
-12.49352517985597
 31
0
  0
LINE
  8
1
 62
7
 10
163.095007819487
 20
-70.59352517985616
 30
0
 11
163.095007819487
 21
-0.5935251798561012
 31
0
  0
LINE
  8
1
 62
7
 10
163.095007819487
 20
-0.5935251798561012
 30
0
 11
129.095007819487
 21
-0.5935251798561012
 31
0
  0
LINE
  8
1
 62
7
 10
129.095007819487
 20
-0.5935251798561012
 30
0
 11
129.095007819487
 21
1.806474820143933
 31
0
  0
LINE
  8
1
 62
7
 10
129.095007819487
 20
1.806474820143933
 30
0
 11
80.09500781948702
 21
1.806474820143933
 31
0
  0
LINE
  8
1
 62
7
 10
77.09500781948702
 20
1.806474820143933
 30
0
 11
68.09500781948702
 21
1.806474820143933
 31
0
  0
LINE
  8
1
 62
7
 10
177.095007819487
 20
10.9064748201439
 30
0
 11
169.095007819487
 21
10.9064748201439
 31
0
  0
LINE
  8
1
 62
7
 10
169.095007819487
 20
11.9064748201439
 30
0
 11
133.095007819487
 21
11.9064748201439
 31
0
  0
LINE
  8
1
 62
7
 10
133.095007819487
 20
10.9064748201439
 30
0
 11
125.095007819487
 21
10.9064748201439
 31
0
  0
LINE
  8
1
 62
7
 10
125.095007819487
 20
11.9064748201439
 30
0
 11
68.09500781948702
 21
11.9064748201439
 31
0
  0
LINE
  8
1
 62
7
 10
203.095007819487
 20
11.9064748201439
 30
0
 11
177.095007819487
 21
11.9064748201439
 31
0
  0
LINE
  8
1
 62
7
 10
203.095007819487
 20
-7.093525179856101
 30
0
 11
200.195007819487
 21
-7.093525179856101
 31
0
  0
LINE
  8
1
 62
7
 10
195.995007819487
 20
-7.093525179856101
 30
0
 11
163.095007819487
 21
-7.093525179856101
 31
0
  0
LINE
  8
1
 62
7
 10
202.095007819487
 20
-8.093525179856101
 30
0
 11
203.095007819487
 21
-7.093525179856101
 31
0
  0
LINE
  8
1
 62
7
 10
196.195007819487
 20
-14.99352517985597
 30
0
 11
200.195007819487
 21
-14.99352517985612
 31
0
  0
LINE
  8
1
 62
7
 10
200.195007819487
 20
-14.99352517985612
 30
0
 11
200.195007819487
 21
-6.093525179856101
 31
0
  0
LINE
  8
1
 62
7
 10
196.195007819487
 20
-6.093525179856101
 30
0
 11
196.195007819487
 21
-20.0935251798561
 31
0
  0
LINE
  8
1
 62
7
 10
196.195007819487
 20
-20.0935251798561
 30
0
 11
201.095007819487
 21
-20.0935251798561
 31
0
  0
LINE
  8
1
 62
7
 10
201.095007819487
 20
-17.35892107487507
 30
0
 11
201.095007819487
 21
-57.5935251798561
 31
0
  0
LINE
  8
1
 62
7
 10
198.095007819487
 20
-60.5935251798561
 30
0
 11
186.095007819487
 21
-60.5935251798561
 31
0
  0
LINE
  8
1
 62
7
 10
186.095007819487
 20
-60.5935251798561
 30
0
 11
186.095007819487
 21
-7.093525179856101
 31
0
  0
LINE
  8
1
 62
7
 10
186.095007819487
 20
-7.993525179855965
 30
0
 11
196.195007819487
 21
-7.993525179855965
 31
0
  0
LINE
  8
1
 62
7
 10
196.195007819487
 20
-13.0935251798561
 30
0
 11
186.095007819487
 21
-13.0935251798561
 31
0
  0
LINE
  8
1
 62
7
 10
198.095007819487
 20
-60.5935251798561
 30
0
 11
201.095007819487
 21
-57.5935251798561
 31
0
  0
LINE
  8
1
 62
7
 10
162.595007819487
 20
-60.49352517985597
 30
0
 11
146.595007819487
 21
-60.49352517985597
 31
0
  0
LINE
  8
1
 62
7
 10
146.095007819487
 20
-59.99352517985597
 30
0
 11
146.095007819487
 21
-49.0935251798561
 31
0
  0
LINE
  8
1
 62
7
 10
146.095007819487
 20
-49.0935251798561
 30
0
 11
186.095007819487
 21
-49.0935251798561
 31
0
  0
LINE
  8
1
 62
7
 10
148.095007819487
 20
-49.0935251798561
 30
0
 11
148.095007819487
 21
-17.49352517985597
 31
0
  0
LINE
  8
1
 62
7
 10
148.095007819487
 20
-17.49352517985597
 30
0
 11
130.095007819487
 21
-17.49352517985597
 31
0
  0
LINE
  8
1
 62
7
 10
129.095007819487
 20
-16.49352517985597
 30
0
 11
129.095007819487
 21
-6.593525179856101
 31
0
  0
LINE
  8
1
 62
7
 10
129.095007819487
 20
-6.593525179856101
 30
0
 11
128.095007819487
 21
-6.593525179856101
 31
0
  0
LINE
  8
1
 62
7
 10
186.095007819487
 20
-35.0935251798561
 30
0
 11
148.095007819487
 21
-35.0935251798561
 31
0
  0
LINE
  8
1
 62
7
 10
128.095007819487
 20
-18.0935251798561
 30
0
 11
147.095007819487
 21
-18.0935251798561
 31
0
  0
LINE
  8
1
 62
7
 10
147.095007819487
 20
-40.0935251798561
 30
0
 11
145.095007819487
 21
-40.0935251798561
 31
0
  0
LINE
  8
1
 62
7
 10
129.095007819487
 20
-16.49352517985597
 30
0
 11
130.095007819487
 21
-17.49352517985597
 31
0
  0
LINE
  8
1
 62
7
 10
162.595007819487
 20
-60.49352517985597
 30
0
 11
163.095007819487
 21
-59.99352517985597
 31
0
  0
LINE
  8
1
 62
7
 10
146.095007819487
 20
-59.99352517985597
 30
0
 11
146.595007819487
 21
-60.49352517985597
 31
0
  0
LINE
  8
1
 62
7
 10
159.095007819487
 20
-61.0935251798561
 30
0
 11
159.095007819487
 21
-63.5935251798561
 31
0
  0
LINE
  8
1
 62
7
 10
152.095007819487
 20
-70.59352517985616
 30
0
 11
82.09500781948702
 21
-70.59352517985616
 31
0
  0
LINE
  8
1
 62
7
 10
152.095007819487
 20
-70.59352517985616
 30
0
 11
159.095007819487
 21
-63.5935251798561
 31
0
  0
LINE
  8
1
 62
7
 10
147.095007819487
 20
-40.0935251798561
 30
0
 11
147.095007819487
 21
-18.0935251798561
 31
0
  0
LINE
  8
1
 62
7
 10
112.360007819487
 20
-17.1127349461259
 30
0
 11
95.83000781948701
 21
-17.1127349461259
 31
0
  0
LINE
  8
1
 62
7
 10
119.830007819487
 20
-17.1127349461259
 30
0
 11
128.095007819487
 21
-17.11273494612567
 31
0
  0
LINE
  8
1
 62
7
 10
119.830007819487
 20
-4.174315413586271
 30
0
 11
128.095007819487
 21
-4.174315413586385
 31
0
  0
LINE
  8
1
 62
7
 10
112.360007819487
 20
-4.174315413586271
 30
0
 11
95.83000781948701
 21
-4.174315413586271
 31
0
  0
LINE
  8
1
 62
3
 10
124.312007819487
 20
-10.643525179856
 30
0
 11
107.878007819487
 21
-10.643525179856
 31
0
  0
LINE
  8
1
 62
3
 10
116.095007819487
 20
-18.8605251798561
 30
0
 11
116.095007819487
 21
-2.426525179855958
 31
0
  0
LINE
  8
1
 62
7
 10
70.09500781948702
 20
-39.0935251798561
 30
0
 11
70.09500781948702
 21
1.806474820143933
 31
0
  0
LINE
  8
1
 62
7
 10
70.09500781948702
 20
-39.0935251798561
 30
0
 11
82.09500781948702
 21
-39.0935251798561
 31
0
  0
LINE
  8
1
 62
7
 10
145.095007819487
 20
-40.0935251798561
 30
0
 11
145.095007819487
 21
-61.0935251798561
 31
0
  0
LINE
  8
1
 62
7
 10
186.095007819487
 20
-59.5935251798561
 30
0
 11
186.095007819487
 21
-70.59352517985616
 31
0
  0
LINE
  8
1
 62
7
 10
186.095007819487
 20
-70.59352517985616
 30
0
 11
163.095007819487
 21
-70.59352517985616
 31
0
  0
LINE
  8
1
 62
3
 10
186.095007819487
 20
-70.59352517985616
 30
0
 11
163.095007819487
 21
-7.093525179856101
 31
0
  0
LINE
  8
1
 62
3
 10
163.095007819487
 20
-70.59352517985616
 30
0
 11
186.095007819487
 21
-7.093525179856101
 31
0
  0
LINE
  8
1
 62
7
 10
177.095007819487
 20
10.9064748201439
 30
0
 11
169.095007819487
 21
10.9064748201439
 31
0
  0
LINE
  8
1
 62
7
 10
177.095007819487
 20
10.9064748201439
 30
0
 11
169.095007819487
 21
10.9064748201439
 31
0
  0
LINE
  8
1
 62
7
 10
131.095007819487
 20
-17.49352517985597
 30
0
 11
131.095007819487
 21
10.9064748201439
 31
0
  0
LINE
  8
1
 62
7
 10
175.095007819487
 20
-7.093525179856101
 30
0
 11
175.095007819487
 21
10.9064748201439
 31
0
  0
LINE
  8
1
 62
7
 10
171.095007819487
 20
-7.093525179856101
 30
0
 11
171.095007819487
 21
10.9064748201439
 31
0
  0
LINE
  8
1
 62
3
 10
173.095007819487
 20
-8.432750634025069
 30
0
 11
173.095007819487
 21
12.70993142176911
 31
0
  0
LINE
  8
1
 62
7
 10
127.095007819487
 20
1.806474820143933
 30
0
 11
127.095007819487
 21
10.9064748201439
 31
0
  0
LINE
  8
1
 62
3
 10
129.095007819487
 20
-2.381150820350683
 30
0
 11
129.095007819487
 21
12.90078179183291
 31
0
  0
LINE
  8
1
 62
7
 10
88.36000781948701
 20
-17.1127349461259
 30
0
 11
80.09500781948702
 21
-17.11273494612567
 31
0
  0
LINE
  8
1
 62
7
 10
88.36000781948701
 20
-4.174315413586271
 30
0
 11
80.09500781948702
 21
-4.174315413586385
 31
0
  0
LINE
  8
1
 62
3
 10
100.312007819487
 20
-10.643525179856
 30
0
 11
83.87800781948701
 21
-10.643525179856
 31
0
  0
LINE
  8
1
 62
3
 10
92.09500781948702
 20
-18.8605251798561
 30
0
 11
92.09500781948702
 21
-2.426525179855958
 31
0
  0
LINE
  8
1
 62
7
 10
76.09500781948702
 20
-26.5935251798561
 30
0
 11
80.09500781948702
 21
-26.5935251798561
 31
0
  0
LINE
  8
1
 62
7
 10
80.09500781948702
 20
-15.79352517985609
 30
0
 11
76.09500781948702
 21
-15.79352517985609
 31
0
  0
LINE
  8
1
 62
7
 10
77.09500781948702
 20
-4.343525179856101
 30
0
 11
80.09500781948702
 21
-4.343525179856101
 31
0
  0
LINE
  8
1
 62
7
 10
80.09500781948702
 20
3.656474820143899
 30
0
 11
77.09500781948702
 21
3.656474820143899
 31
0
  0
LINE
  8
1
 62
7
 10
77.09500781948702
 20
3.656474820143899
 30
0
 11
77.09500781948702
 21
-4.343525179856101
 31
0
  0
LINE
  8
1
 62
7
 10
76.09500781948702
 20
-4.385115703852364
 30
0
 11
76.09500781948702
 21
-26.5935251798561
 31
0
  0
LINE
  8
1
 62
7
 10
76.09500781948702
 20
-23.0935251798561
 30
0
 11
70.09500781948702
 21
-23.0935251798561
 31
0
  0
LINE
  8
1
 62
7
 10
80.09500781948702
 20
-23.0935251798561
 30
0
 11
128.095007819487
 21
-23.0935251798561
 31
0
  0
LINE
  8
1
 62
7
 10
80.09500781948702
 20
3.656474820143899
 30
0
 11
80.09500781948702
 21
-26.5935251798561
 31
0
  0
LINE
  8
1
 62
7
 10
104.095007819487
 20
-23.0935251798561
 30
0
 11
104.095007819487
 21
1.806474820143933
 31
0
  0
LINE
  8
1
 62
7
 10
128.095007819487
 20
1.806474820143933
 30
0
 11
128.095007819487
 21
-23.0935251798561
 31
0
  0
LINE
  8
1
 62
7
 10
203.095007819487
 20
100.9064748201439
 30
0
 11
203.095007819487
 21
-7.093525179856101
 31
0
  0
LINE
  8
1
 62
7
 10
200.195007819487
 20
101.9064748201439
 30
0
 11
202.095007819487
 21
101.9064748201439
 31
0
  0
LINE
  8
1
 62
7
 10
200.195007819487
 20
99.9064748201439
 30
0
 11
200.195007819487
 21
101.9064748201439
 31
0
  0
LINE
  8
1
 62
7
 10
195.995007819487
 20
99.9064748201439
 30
0
 11
200.195007819487
 21
99.9064748201439
 31
0
  0
LINE
  8
1
 62
7
 10
195.995007819487
 20
106.3064748201438
 30
0
 11
195.995007819487
 21
99.9064748201439
 31
0
  0
LINE
  8
1
 62
7
 10
163.095007819487
 20
106.3064748201438
 30
0
 11
195.995007819487
 21
106.3064748201438
 31
0
  0
LINE
  8
1
 62
7
 10
163.095007819487
 20
94.4064748201439
 30
0
 11
163.095007819487
 21
164.4064748201439
 31
0
  0
LINE
  8
1
 62
7
 10
129.095007819487
 20
94.4064748201439
 30
0
 11
163.095007819487
 21
94.4064748201439
 31
0
  0
LINE
  8
1
 62
7
 10
129.095007819487
 20
92.00647482014387
 30
0
 11
129.095007819487
 21
94.4064748201439
 31
0
  0
LINE
  8
1
 62
7
 10
80.09500781948702
 20
92.00647482014387
 30
0
 11
129.095007819487
 21
92.00647482014387
 31
0
  0
LINE
  8
1
 62
7
 10
68.09500781948702
 20
92.00647482014387
 30
0
 11
77.09500781948702
 21
92.00647482014387
 31
0
  0
LINE
  8
1
 62
7
 10
169.095007819487
 20
82.9064748201439
 30
0
 11
177.095007819487
 21
82.9064748201439
 31
0
  0
LINE
  8
1
 62
7
 10
133.095007819487
 20
81.9064748201439
 30
0
 11
169.095007819487
 21
81.9064748201439
 31
0
  0
LINE
  8
1
 62
7
 10
125.095007819487
 20
82.9064748201439
 30
0
 11
133.095007819487
 21
82.9064748201439
 31
0
  0
LINE
  8
1
 62
7
 10
68.09500781948702
 20
81.9064748201439
 30
0
 11
125.095007819487
 21
81.9064748201439
 31
0
  0
LINE
  8
1
 62
7
 10
133.095007819487
 20
10.9064748201439
 30
0
 11
133.095007819487
 21
82.9064748201439
 31
0
  0
LINE
  8
1
 62
7
 10
125.095007819487
 20
10.9064748201439
 30
0
 11
125.095007819487
 21
82.9064748201439
 31
0
  0
LINE
  8
1
 62
7
 10
169.095007819487
 20
10.9064748201439
 30
0
 11
169.095007819487
 21
82.9064748201439
 31
0
  0
LINE
  8
1
 62
7
 10
177.095007819487
 20
81.9064748201439
 30
0
 11
203.095007819487
 21
81.9064748201439
 31
0
  0
LINE
  8
1
 62
7
 10
200.195007819487
 20
100.9064748201439
 30
0
 11
203.095007819487
 21
100.9064748201439
 31
0
  0
LINE
  8
1
 62
7
 10
163.095007819487
 20
100.9064748201439
 30
0
 11
195.995007819487
 21
100.9064748201439
 31
0
  0
LINE
  8
1
 62
7
 10
203.095007819487
 20
100.9064748201439
 30
0
 11
202.095007819487
 21
101.9064748201439
 31
0
  0
LINE
  8
1
 62
7
 10
68.09500781948702
 20
92.00647482014387
 30
0
 11
68.09500781948702
 21
1.806474820143933
 31
0
  0
LINE
  8
1
 62
7
 10
200.195007819487
 20
108.8064748201439
 30
0
 11
196.195007819487
 21
108.8064748201438
 31
0
  0
LINE
  8
1
 62
7
 10
200.195007819487
 20
99.9064748201439
 30
0
 11
200.195007819487
 21
108.8064748201439
 31
0
  0
LINE
  8
1
 62
7
 10
196.195007819487
 20
113.9064748201439
 30
0
 11
196.195007819487
 21
99.9064748201439
 31
0
  0
LINE
  8
1
 62
7
 10
201.095007819487
 20
113.9064748201439
 30
0
 11
196.195007819487
 21
113.9064748201439
 31
0
  0
LINE
  8
1
 62
7
 10
201.095007819487
 20
151.4064748201439
 30
0
 11
201.095007819487
 21
111.1718707151629
 31
0
  0
LINE
  8
1
 62
7
 10
186.095007819487
 20
154.4064748201439
 30
0
 11
198.095007819487
 21
154.4064748201439
 31
0
  0
LINE
  8
1
 62
7
 10
186.095007819487
 20
100.9064748201439
 30
0
 11
186.095007819487
 21
154.4064748201439
 31
0
  0
LINE
  8
1
 62
7
 10
196.195007819487
 20
101.8064748201438
 30
0
 11
186.095007819487
 21
101.8064748201438
 31
0
  0
LINE
  8
1
 62
7
 10
186.095007819487
 20
106.9064748201439
 30
0
 11
196.195007819487
 21
106.9064748201439
 31
0
  0
LINE
  8
1
 62
7
 10
201.095007819487
 20
151.4064748201439
 30
0
 11
198.095007819487
 21
154.4064748201439
 31
0
  0
LINE
  8
1
 62
7
 10
146.595007819487
 20
154.3064748201438
 30
0
 11
162.595007819487
 21
154.3064748201438
 31
0
  0
LINE
  8
1
 62
7
 10
146.095007819487
 20
142.9064748201439
 30
0
 11
146.095007819487
 21
153.8064748201438
 31
0
  0
LINE
  8
1
 62
7
 10
186.095007819487
 20
142.9064748201439
 30
0
 11
146.095007819487
 21
142.9064748201439
 31
0
  0
LINE
  8
1
 62
7
 10
148.095007819487
 20
111.3064748201438
 30
0
 11
148.095007819487
 21
142.9064748201439
 31
0
  0
LINE
  8
1
 62
7
 10
130.095007819487
 20
111.3064748201438
 30
0
 11
148.095007819487
 21
111.3064748201438
 31
0
  0
LINE
  8
1
 62
7
 10
129.095007819487
 20
100.4064748201439
 30
0
 11
129.095007819487
 21
110.3064748201438
 31
0
  0
LINE
  8
1
 62
7
 10
128.095007819487
 20
100.4064748201439
 30
0
 11
129.095007819487
 21
100.4064748201439
 31
0
  0
LINE
  8
1
 62
7
 10
148.095007819487
 20
128.9064748201439
 30
0
 11
186.095007819487
 21
128.9064748201439
 31
0
  0
LINE
  8
1
 62
7
 10
147.095007819487
 20
111.9064748201439
 30
0
 11
128.095007819487
 21
111.9064748201439
 31
0
  0
LINE
  8
1
 62
7
 10
147.095007819487
 20
133.9064748201439
 30
0
 11
147.095007819487
 21
111.9064748201439
 31
0
  0
LINE
  8
1
 62
7
 10
130.095007819487
 20
111.3064748201438
 30
0
 11
129.095007819487
 21
110.3064748201438
 31
0
  0
LINE
  8
1
 62
7
 10
163.095007819487
 20
153.8064748201438
 30
0
 11
162.595007819487
 21
154.3064748201438
 31
0
  0
LINE
  8
1
 62
7
 10
146.595007819487
 20
154.3064748201438
 30
0
 11
146.095007819487
 21
153.8064748201438
 31
0
  0
LINE
  8
1
 62
7
 10
159.095007819487
 20
154.9064748201439
 30
0
 11
145.095007819487
 21
154.9064748201439
 31
0
  0
LINE
  8
1
 62
7
 10
159.095007819487
 20
157.4064748201439
 30
0
 11
159.095007819487
 21
154.9064748201439
 31
0
  0
LINE
  8
1
 62
7
 10
82.09500781948702
 20
164.4064748201439
 30
0
 11
152.095007819487
 21
164.4064748201439
 31
0
  0
LINE
  8
1
 62
7
 10
159.095007819487
 20
157.4064748201439
 30
0
 11
152.095007819487
 21
164.4064748201439
 31
0
  0
LINE
  8
1
 62
7
 10
95.83000781948701
 20
110.9256845864137
 30
0
 11
112.360007819487
 21
110.9256845864137
 31
0
  0
LINE
  8
1
 62
7
 10
128.095007819487
 20
110.9256845864135
 30
0
 11
119.830007819487
 21
110.9256845864137
 31
0
  0
LINE
  8
1
 62
7
 10
128.095007819487
 20
97.98726505387418
 30
0
 11
119.830007819487
 21
97.98726505387407
 31
0
  0
LINE
  8
1
 62
7
 10
95.83000781948701
 20
97.98726505387407
 30
0
 11
112.360007819487
 21
97.98726505387407
 31
0
  0
LINE
  8
1
 62
3
 10
107.878007819487
 20
104.4564748201438
 30
0
 11
124.312007819487
 21
104.4564748201438
 31
0
  0
LINE
  8
1
 62
3
 10
116.095007819487
 20
96.23947482014376
 30
0
 11
116.095007819487
 21
112.6734748201439
 31
0
  0
LINE
  8
1
 62
7
 10
70.09500781948702
 20
92.00647482014387
 30
0
 11
70.09500781948702
 21
132.9064748201439
 31
0
  0
LINE
  8
1
 62
7
 10
82.09500781948705
 20
132.9064748201439
 30
0
 11
70.09500781948702
 21
132.9064748201439
 31
0
  0
LINE
  8
1
 62
7
 10
145.095007819487
 20
154.9064748201439
 30
0
 11
145.095007819487
 21
133.9064748201439
 31
0
  0
LINE
  8
1
 62
7
 10
186.095007819487
 20
164.4064748201439
 30
0
 11
186.095007819487
 21
153.4064748201439
 31
0
  0
LINE
  8
1
 62
7
 10
163.095007819487
 20
164.4064748201439
 30
0
 11
186.095007819487
 21
164.4064748201439
 31
0
  0
LINE
  8
1
 62
3
 10
163.095007819487
 20
100.9064748201439
 30
0
 11
186.095007819487
 21
164.4064748201439
 31
0
  0
LINE
  8
1
 62
3
 10
186.095007819487
 20
100.9064748201439
 30
0
 11
163.095007819487
 21
164.4064748201439
 31
0
  0
LINE
  8
1
 62
7
 10
169.095007819487
 20
82.9064748201439
 30
0
 11
177.095007819487
 21
82.9064748201439
 31
0
  0
LINE
  8
1
 62
7
 10
169.095007819487
 20
82.9064748201439
 30
0
 11
177.095007819487
 21
82.9064748201439
 31
0
  0
LINE
  8
1
 62
7
 10
203.095007819487
 20
86.9064748201439
 30
0
 11
68.09500781948702
 21
86.9064748201439
 31
0
  0
LINE
  8
1
 62
7
 10
177.095007819487
 20
10.9064748201439
 30
0
 11
177.095007819487
 21
82.9064748201439
 31
0
  0
LINE
  8
1
 62
7
 10
80.09500781948702
 20
110.9256845864135
 30
0
 11
88.36000781948701
 21
110.9256845864137
 31
0
  0
LINE
  8
1
 62
7
 10
80.09500781948702
 20
97.98726505387418
 30
0
 11
88.36000781948701
 21
97.98726505387407
 31
0
  0
LINE
  8
1
 62
3
 10
83.87800781948701
 20
104.4564748201438
 30
0
 11
100.312007819487
 21
104.4564748201438
 31
0
  0
LINE
  8
1
 62
3
 10
92.09500781948702
 20
96.23947482014376
 30
0
 11
92.09500781948702
 21
112.6734748201439
 31
0
  0
LINE
  8
1
 62
7
 10
80.09500781948702
 20
120.4064748201439
 30
0
 11
76.09500781948702
 21
120.4064748201439
 31
0
  0
LINE
  8
1
 62
7
 10
76.09500781948702
 20
109.6064748201439
 30
0
 11
80.09500781948702
 21
109.6064748201439
 31
0
  0
LINE
  8
1
 62
7
 10
80.09500781948702
 20
98.1564748201439
 30
0
 11
77.09500781948702
 21
98.1564748201439
 31
0
  0
LINE
  8
1
 62
7
 10
77.09500781948702
 20
90.1564748201439
 30
0
 11
80.09500781948702
 21
90.1564748201439
 31
0
  0
LINE
  8
1
 62
7
 10
77.09500781948702
 20
98.1564748201439
 30
0
 11
77.09500781948702
 21
90.1564748201439
 31
0
  0
LINE
  8
1
 62
7
 10
76.09500781948702
 20
120.4064748201439
 30
0
 11
76.09500781948702
 21
98.19806534414016
 31
0
  0
LINE
  8
1
 62
7
 10
70.09500781948702
 20
116.9064748201439
 30
0
 11
76.09500781948702
 21
116.9064748201439
 31
0
  0
LINE
  8
1
 62
7
 10
128.095007819487
 20
116.9064748201439
 30
0
 11
80.09500781948702
 21
116.9064748201439
 31
0
  0
LINE
  8
1
 62
7
 10
-170.404992180513
 20
132.9064748201439
 30
0
 11
-170.404992180513
 21
206.9064748201439
 31
0
  0
LINE
  8
1
 62
7
 10
-49.40499218051298
 20
100.9064748201439
 30
0
 11
-49.40499218051298
 21
-7.093525179856101
 31
0
  0
LINE
  8
1
 62
7
 10
-182.404992180513
 20
1.806474820143762
 30
0
 11
-183.404992180513
 21
1.806474820143762
 31
0
  0
LINE
  8
1
 62
7
 10
-184.404992180513
 20
2.806474820143762
 30
0
 11
-184.404992180513
 21
91.00647482014404
 31
0
  0
LINE
  8
1
 62
7
 10
-50.40499218051298
 20
-8.093525179856101
 30
0
 11
-49.40499218051298
 21
-7.093525179856101
 31
0
  0
LINE
  8
1
 62
7
 10
-184.404992180513
 20
2.806474820143762
 30
0
 11
-183.404992180513
 21
1.806474820143762
 31
0
  0
LINE
  8
1
 62
7
 10
-66.40499218051298
 20
-60.5935251798561
 30
0
 11
-54.40499218051298
 21
-60.5935251798561
 31
0
  0
LINE
  8
1
 62
7
 10
-54.40499218051298
 20
-60.5935251798561
 30
0
 11
-51.40499218051298
 21
-57.5935251798561
 31
0
  0
LINE
  8
1
 62
7
 10
-100.404992180513
 20
-70.59352517985616
 30
0
 11
-170.404992180513
 21
-70.59352517985616
 31
0
  0
LINE
  8
1
 62
7
 10
-100.404992180513
 20
-70.59352517985616
 30
0
 11
-93.40499218051298
 21
-63.5935251798561
 31
0
  0
LINE
  8
1
 62
7
 10
-182.404992180513
 20
132.9064748201439
 30
0
 11
-182.404992180513
 21
-39.0935251798561
 31
0
  0
LINE
  8
1
 62
7
 10
-182.404992180513
 20
-39.0935251798561
 30
0
 11
-170.404992180513
 21
-39.0935251798561
 31
0
  0
LINE
  8
1
 62
7
 10
-66.40499218051298
 20
-70.59352517985616
 30
0
 11
-89.40499218051298
 21
-70.59352517985616
 31
0
  0
LINE
  8
1
 62
7
 10
-50.40499218051298
 20
101.9064748201439
 30
0
 11
-50.40499218051298
 21
-8.093525179856101
 31
0
  0
LINE
  8
1
 62
7
 10
-54.40499218051298
 20
154.4064748201439
 30
0
 11
-54.40499218051298
 21
-60.5935251798561
 31
0
  0
LINE
  8
1
 62
7
 10
-51.40499218051298
 20
-8.093525179856101
 30
0
 11
-50.40499218051298
 21
-8.093525179856101
 31
0
  0
LINE
  8
1
 62
7
 10
-51.40499218051298
 20
151.4064748201439
 30
0
 11
-51.40499218051298
 21
-57.5935251798561
 31
0
  0
LINE
  8
1
 62
7
 10
-66.40499218051298
 20
-70.59352517985616
 30
0
 11
-66.40499218051298
 21
164.406474820144
 31
0
  0
LINE
  8
1
 62
3
 10
-89.40499218051298
 20
-70.59352517985616
 30
0
 11
-66.40499218051298
 21
46.9064748201439
 31
0
  0
LINE
  8
1
 62
3
 10
-89.40499218051298
 20
46.9064748201439
 30
0
 11
-66.40499218051298
 21
-70.59352517985616
 31
0
  0
LINE
  8
1
 62
7
 10
-100.404992180513
 20
164.406474820144
 30
0
 11
-100.404992180513
 21
-70.59352517985616
 31
0
  0
LINE
  8
1
 62
7
 10
-89.40499218051298
 20
-60.5935251798561
 30
0
 11
-93.40499218051298
 21
-60.5935251798561
 31
0
  0
LINE
  8
1
 62
7
 10
-93.40499218051298
 20
-63.5935251798561
 30
0
 11
-93.40499218051298
 21
157.4064748201439
 31
0
  0
LINE
  8
1
 62
7
 10
-89.40499218051298
 20
-70.59352517985616
 30
0
 11
-89.40499218051298
 21
164.406474820144
 31
0
  0
LINE
  8
1
 62
7
 10
-174.089992180513
 20
227.1499999999999
 30
0
 11
-174.089992180513
 21
206.9064748201439
 31
0
  0
LINE
  8
1
 62
7
 10
-176.719992180513
 20
206.9064748201439
 30
0
 11
-176.719992180513
 21
227.1499999999999
 31
0
  0
LINE
  8
1
 62
7
 10
-180.404992180513
 20
206.9064748201439
 30
0
 11
-170.404992180513
 21
206.9064748201439
 31
0
  0
LINE
  8
1
 62
7
 10
-180.404992180513
 20
135.9064748201439
 30
0
 11
-170.404992180513
 21
135.9064748201439
 31
0
  0
LINE
  8
1
 62
7
 10
-172.404992180513
 20
152.9064748201439
 30
0
 11
-170.404992180513
 21
152.9064748201439
 31
0
  0
LINE
  8
1
 62
7
 10
-172.404992180513
 20
135.9064748201439
 30
0
 11
-172.404992180513
 21
152.9064748201439
 31
0
  0
LINE
  8
1
 62
7
 10
-180.404992180513
 20
135.9064748201439
 30
0
 11
-180.404992180513
 21
206.9064748201439
 31
0
  0
LINE
  8
1
 62
7
 10
-170.404992180513
 20
164.406474820144
 30
0
 11
-170.404992180513
 21
-70.59352517985616
 31
0
  0
LINE
  8
1
 62
7
 10
80.09500781948702
 20
120.4064748201439
 30
0
 11
80.09500781948702
 21
90.1564748201439
 31
0
  0
LINE
  8
1
 62
7
 10
104.095007819487
 20
92.00647482014387
 30
0
 11
104.095007819487
 21
116.9064748201439
 31
0
  0
LINE
  8
1
 62
7
 10
128.095007819487
 20
116.9064748201439
 30
0
 11
128.095007819487
 21
92.00647482014387
 31
0
  0
LINE
  8
1
 62
7
 10
82.09500781948705
 20
206.9064748201439
 30
0
 11
82.09500781948705
 21
132.9064748201439
 31
0
  0
LINE
  8
1
 62
7
 10
76.211990823596
 20
219.077321050049
 30
0
 11
76.211990823596
 21
224.077321050049
 31
0
  0
LINE
  8
1
 62
7
 10
76.64120879334961
 20
219.077321050049
 30
0
 11
76.64120879334961
 21
224.077321050049
 31
0
  0
LINE
  8
1
 62
7
 10
77.90433596148149
 20
219.077321050049
 30
0
 11
77.90433596148149
 21
224.077321050049
 31
0
  0
LINE
  8
1
 62
7
 10
77.51190810342111
 20
219.077321050049
 30
0
 11
77.51190810342111
 21
224.077321050049
 31
0
  0
LINE
  8
1
 62
7
 10
77.09500781948702
 20
219.077321050049
 30
0
 11
77.09500781948702
 21
224.077321050049
 31
0
  0
LINE
  8
1
 62
7
 10
75.78000781948705
 20
219.077321050049
 30
0
 11
78.41000781948702
 21
219.077321050049
 31
0
  0
LINE
  8
1
 62
7
 10
75.78000781948705
 20
219.077321050049
 30
0
 11
75.78000781948705
 21
153.2214748201439
 31
0
  0
LINE
  8
1
 62
7
 10
72.09500781948705
 20
135.9064748201439
 30
0
 11
72.09500781948705
 21
206.9064748201439
 31
0
  0
LINE
  8
1
 62
7
 10
82.09500781948705
 20
206.9064748201439
 30
0
 11
78.41000781948705
 21
206.9064748201439
 31
0
  0
LINE
  8
1
 62
7
 10
72.09500781948705
 20
135.9064748201439
 30
0
 11
82.09500781948702
 21
135.9064748201439
 31
0
  0
LINE
  8
1
 62
7
 10
74.09500781948705
 20
135.9064748201439
 30
0
 11
74.09500781948705
 21
206.9064748201439
 31
0
  0
LINE
  8
1
 62
7
 10
81.41000781948705
 20
150.2214748201439
 30
0
 11
82.09500781948705
 21
150.2214748201439
 31
0
  0
LINE
  8
1
 62
7
 10
81.41000781948705
 20
147.5914748201439
 30
0
 11
82.09500781948705
 21
147.5914748201439
 31
0
  0
LINE
  8
1
 62
7
 10
78.41000781948705
 20
153.2214748201439
 30
0
 11
78.41000781948702
 21
219.077321050049
 31
0
  0
LINE
  8
1
 62
7
 10
75.78000781948705
 20
206.9064748201439
 30
0
 11
72.09500781948705
 21
206.9064748201439
 31
0
  0
LINE
  8
1
 62
7
 10
-419.404992180513
 20
206.9064748201439
 30
0
 11
-419.404992180513
 21
219.077321050049
 31
0
  0
LINE
  8
1
 62
7
 10
-416.774992180513
 20
206.9064748201439
 30
0
 11
-416.774992180513
 21
219.077321050049
 31
0
  0
LINE
  8
1
 62
7
 10
-421.375593117882
 20
219.077321050049
 30
0
 11
-421.375593117882
 21
224.077321050049
 31
0
  0
LINE
  8
1
 62
7
 10
-421.033352262227
 20
219.077321050049
 30
0
 11
-421.033352262227
 21
224.077321050049
 31
0
  0
LINE
  8
1
 62
7
 10
-420.063669837869
 20
219.077321050049
 30
0
 11
-420.063669837869
 21
224.077321050049
 31
0
  0
LINE
  8
1
 62
7
 10
-420.405910693525
 20
219.077321050049
 30
0
 11
-420.405910693525
 21
224.077321050049
 31
0
  0
LINE
  8
1
 62
7
 10
-420.719992180513
 20
219.077321050049
 30
0
 11
-420.719992180513
 21
224.077321050049
 31
0
  0
LINE
  8
1
 62
7
 10
-418.8182933909001
 20
219.077321050049
 30
0
 11
-418.8182933909001
 21
224.077321050049
 31
0
  0
LINE
  8
1
 62
7
 10
-418.46654584481
 20
219.077321050049
 30
0
 11
-418.46654584481
 21
224.077321050049
 31
0
  0
LINE
  8
1
 62
7
 10
-417.2877162308849
 20
219.077321050049
 30
0
 11
-417.2877162308849
 21
224.077321050049
 31
0
  0
LINE
  8
1
 62
7
 10
-417.696503919585
 20
219.077321050049
 30
0
 11
-417.696503919585
 21
224.077321050049
 31
0
  0
LINE
  8
1
 62
7
 10
-418.0899921805129
 20
219.077321050049
 30
0
 11
-418.0899921805129
 21
224.077321050049
 31
0
  0
LINE
  8
1
 62
7
 10
-422.034992180513
 20
219.077321050049
 30
0
 11
-416.774992180513
 21
219.077321050049
 31
0
  0
LINE
  8
1
 62
7
 10
-422.034992180513
 20
219.077321050049
 30
0
 11
-422.034992180513
 21
206.9064748201439
 31
0
  0
LINE
  8
1
 62
3
  6
DASHDOT
 10
350.1396094664408
 20
97.68754773595609
 30
0
 11
330.6577426107899
 21
108.9354088093826
 31
0
  0
LINE
  8
1
 62
3
  6
DASHDOT
 10
438.0950078194872
 20
148.468620651768
 30
0
 11
438.095007819487
 21
164.4064748201439
 31
0
  0
LINE
  8
1
 62
3
  6
DASHDOT
 10
526.0504061725334
 20
97.6875477359558
 30
0
 11
545.5322730281843
 21
108.9354088093823
 31
0
  0
LINE
  8
1
 62
3
  6
DASHDOT
 10
526.0504061725333
 20
-3.874598095668273
 30
0
 11
545.5322730281841
 21
-15.12245916909475
 31
0
  0
LINE
  8
1
 62
3
  6
DASHDOT
 10
438.0950078194869
 20
-54.65567101148022
 30
0
 11
438.095007819487
 21
-77.15139315833319
 31
0
  0
LINE
  8
1
 62
7
 10
436.124406882118
 20
219.077321050049
 30
0
 11
436.124406882118
 21
224.077321050049
 31
0
  0
LINE
  8
1
 62
7
 10
436.466647737773
 20
219.077321050049
 30
0
 11
436.466647737773
 21
224.077321050049
 31
0
  0
LINE
  8
1
 62
7
 10
437.436330162131
 20
219.077321050049
 30
0
 11
437.436330162131
 21
224.077321050049
 31
0
  0
LINE
  8
1
 62
7
 10
437.094089306475
 20
219.077321050049
 30
0
 11
437.094089306475
 21
224.077321050049
 31
0
  0
LINE
  8
1
 62
7
 10
436.780007819487
 20
219.077321050049
 30
0
 11
436.780007819487
 21
224.077321050049
 31
0
  0
LINE
  8
1
 62
7
 10
438.6817066091
 20
219.077321050049
 30
0
 11
438.6817066091
 21
224.077321050049
 31
0
  0
LINE
  8
1
 62
7
 10
439.03345415519
 20
219.077321050049
 30
0
 11
439.03345415519
 21
224.077321050049
 31
0
  0
LINE
  8
1
 62
7
 10
440.212283769115
 20
219.077321050049
 30
0
 11
440.212283769115
 21
224.077321050049
 31
0
  0
LINE
  8
1
 62
7
 10
439.803496080415
 20
219.077321050049
 30
0
 11
439.803496080415
 21
224.077321050049
 31
0
  0
LINE
  8
1
 62
7
 10
439.410007819487
 20
219.077321050049
 30
0
 11
439.410007819487
 21
224.077321050049
 31
0
  0
LINE
  8
1
 62
7
 10
435.465007819487
 20
219.077321050049
 30
0
 11
440.725007819487
 21
219.077321050049
 31
0
  0
LINE
  8
1
 62
3
  6
DASHDOT
 10
68.09500781948702
 20
46.9064748201439
 30
0
 11
65.09500781948702
 21
46.9064748201439
 31
0
  0
LINE
  8
1
 62
3
  6
DASHDOT
 10
203.095007819487
 20
46.9064748201439
 30
0
 11
206.095007819487
 21
46.9064748201439
 31
0
  0
LINE
  8
1
 62
3
  6
DASHDOT
 10
-419.404992180513
 20
56.9064748201439
 30
0
 11
-419.404992180513
 21
36.9064748201439
 31
0
  0
LINE
  8
1
 62
3
  6
DASHDOT
 10
-409.404992180513
 20
46.9064748201439
 30
0
 11
-429.404992180513
 21
46.9064748201439
 31
0
  0
LINE
  8
1
 62
3
  6
DASHDOT
 10
438.095007819487
 20
56.9064748201439
 30
0
 11
438.095007819487
 21
36.9064748201439
 31
0
  0
LINE
  8
1
 62
3
  6
DASHDOT
 10
448.095007819487
 20
46.9064748201439
 30
0
 11
428.095007819487
 21
46.9064748201439
 31
0
  0
LINE
  8
1
 62
7
 10
-409.404992180513
 20
206.9064748201439
 30
0
 11
-409.404992180513
 21
135.1445005413441
 31
0
  0
LINE
  8
1
 62
7
 10
-395.404992180513
 20
139.6201750518773
 30
0
 11
-395.404992180513
 21
145.5569870457726
 31
0
  0
LINE
  8
1
 62
7
 10
-409.404992180513
 20
206.9064748201439
 30
0
 11
-429.404992180513
 21
206.9064748201439
 31
0
  0
LINE
  8
1
 62
7
 10
-404.7143932572715
 20
141.9064748201439
 30
0
 11
-403.5596927188923
 21
139.9064748201439
 31
0
  0
LINE
  8
1
 62
7
 10
-403.5596927188923
 20
139.9064748201439
 30
0
 11
-401.2502916421337
 21
139.9064748201439
 31
0
  0
LINE
  8
1
 62
7
 10
-401.2502916421337
 20
139.9064748201439
 30
0
 11
-400.0955911037545
 21
141.9064748201439
 31
0
  0
LINE
  8
1
 62
7
 10
-400.0955911037545
 20
141.9064748201439
 30
0
 11
-401.2502916421337
 21
143.9064748201439
 31
0
  0
LINE
  8
1
 62
7
 10
-401.2502916421337
 20
143.9064748201439
 30
0
 11
-403.5596927188923
 21
143.9064748201439
 31
0
  0
LINE
  8
1
 62
7
 10
-403.5596927188923
 20
143.9064748201439
 30
0
 11
-404.7143932572715
 21
141.9064748201439
 31
0
  0
LINE
  8
1
 62
7
 10
-429.404992180513
 20
135.1445005413441
 30
0
 11
-429.404992180513
 21
206.9064748201439
 31
0
  0
LINE
  8
1
 62
7
 10
-443.404992180513
 20
145.5569870457726
 30
0
 11
-443.404992180513
 21
139.6201750518773
 31
0
  0
LINE
  8
1
 62
7
 10
-435.2502916421337
 20
139.9064748201439
 30
0
 11
-434.0955911037545
 21
141.9064748201439
 31
0
  0
LINE
  8
1
 62
7
 10
-437.5596927188923
 20
139.9064748201439
 30
0
 11
-435.2502916421337
 21
139.9064748201439
 31
0
  0
LINE
  8
1
 62
7
 10
-438.7143932572715
 20
141.9064748201439
 30
0
 11
-437.5596927188923
 21
139.9064748201439
 31
0
  0
LINE
  8
1
 62
7
 10
-437.5596927188923
 20
143.9064748201439
 30
0
 11
-438.7143932572715
 21
141.9064748201439
 31
0
  0
LINE
  8
1
 62
7
 10
-435.2502916421337
 20
143.9064748201439
 30
0
 11
-437.5596927188923
 21
143.9064748201439
 31
0
  0
LINE
  8
1
 62
7
 10
-434.0955911037545
 20
141.9064748201439
 30
0
 11
-435.2502916421337
 21
143.9064748201439
 31
0
  0
LINE
  8
1
 62
7
 10
-429.4049921805131
 20
86.9064748201439
 30
0
 11
-429.404992180513
 21
80.44749448264074
 31
0
  0
LINE
  8
1
 62
7
 10
-409.404992180513
 20
86.9064748201439
 30
0
 11
-409.404992180513
 21
80.44749448264074
 31
0
  0
LINE
  8
1
 62
7
 10
-429.4049921805131
 20
86.9064748201439
 30
0
 11
-409.404992180513
 21
86.9064748201439
 31
0
  0
LINE
  8
1
 62
3
  6
DASHDOT
 10
-46.40499218051298
 20
46.9064748201439
 30
0
 11
-49.40499218051298
 21
46.9064748201439
 31
0
  0
LINE
  8
1
 62
3
  6
DASHDOT
 10
-187.404992180513
 20
46.9064748201439
 30
0
 11
-184.404992180513
 21
46.90647482014389
 31
0
  0
LINE
  8
1
 62
7
 10
440.7250078194869
 20
206.9064748201439
 30
0
 11
448.095007819487
 21
206.9064748201439
 31
0
  0
LINE
  8
1
 62
7
 10
438.095007819487
 20
164.4064748201439
 30
0
 11
438.095007819487
 21
219.077321050049
 31
0
  0
LINE
  8
1
 62
7
 10
440.725007819487
 20
164.377037515655
 30
0
 11
440.725007819487
 21
219.077321050049
 31
0
  0
LINE
  8
1
 62
7
 10
435.465007819487
 20
219.077321050049
 30
0
 11
435.465007819487
 21
164.377037515655
 31
0
  0
LINE
  8
1
 62
7
 10
428.095007819487
 20
206.9064748201439
 30
0
 11
435.465007819487
 21
206.9064748201439
 31
0
  0
LINE
  8
1
 62
7
 10
428.095007819487
 20
163.8904480814415
 30
0
 11
428.095007819487
 21
206.9064748201439
 31
0
  0
LINE
  8
1
 62
7
 10
430.095007819487
 20
164.1338180468843
 30
0
 11
430.095007819487
 21
206.9064748201439
 31
0
  0
LINE
  8
1
 62
7
 10
448.095007819487
 20
206.9064748201439
 30
0
 11
448.095007819487
 21
163.8904480814415
 31
0
  0
LINE
  8
1
 62
7
 10
446.095007819487
 20
206.9064748201439
 30
0
 11
446.095007819487
 21
164.1338180468843
 31
0
  0
LINE
  8
1
 62
7
  6
DASHED
 10
464.2175195830718
 20
23.61239018130532
 30
0
 11
478.3743728674776
 21
9.45553689689943
 31
0
  0
LINE
  8
1
 62
7
  6
DASHED
 10
414.8009231806485
 20
20.78396305655906
 30
0
 11
400.6440698962426
 21
6.627109772153182
 31
0
  0
LINE
  8
1
 62
7
  6
DASHED
 10
411.9724960559022
 20
70.20055945898241
 30
0
 11
397.8156427714963
 21
84.3574127433883
 31
0
  0
LINE
  8
1
 62
7
  6
DASHED
 10
475.5459457427315
 20
6.627109772153218
 30
0
 11
461.3890924583256
 21
20.78396305655913
 31
0
  0
LINE
  8
1
 62
7
  6
DASHED
 10
397.8156427714964
 20
9.455536896899382
 30
0
 11
411.9724960559023
 21
23.61239018130528
 31
0
  0
LINE
  8
1
 62
7
  6
DASHED
 10
400.6440698962425
 20
87.18583986813451
 30
0
 11
414.8009231806484
 21
73.0289865837286
 31
0
  0
LINE
  8
1
 62
3
  6
DASHDOT
 10
460.3415858348703
 20
24.65989680476063
 30
0
 11
479.2208844763178
 21
5.780598163313085
 31
0
  0
LINE
  8
1
 62
3
  6
DASHDOT
 10
415.8484298041038
 20
24.65989680476058
 30
0
 11
396.9691311626563
 21
5.780598163313036
 31
0
  0
LINE
  8
1
 62
3
  6
DASHDOT
 10
415.8484298041037
 20
69.15305283552709
 30
0
 11
396.9691311626563
 21
88.03235147697464
 31
0
  0
LINE
  8
1
 62
3
  6
DASHDOT
 10
460.3415858348702
 20
69.15305283552715
 30
0
 11
479.2208844763178
 21
88.0323514769747
 31
0
  0
LINE
  8
1
 62
7
  6
DASHED
 10
478.3743728674776
 20
84.35741274338835
 30
0
 11
464.2175195830717
 21
70.20055945898245
 31
0
  0
LINE
  8
1
 62
7
  6
DASHED
 10
461.3890924583256
 20
73.02898658372867
 30
0
 11
475.5459457427314
 21
87.18583986813455
 31
0
  0
LINE
  8
1
 62
7
 10
428.0950078194869
 20
86.9064748201439
 30
0
 11
428.095007819487
 21
80.44749448264074
 31
0
  0
LINE
  8
1
 62
7
 10
448.095007819487
 20
86.9064748201439
 30
0
 11
448.095007819487
 21
80.44749448264074
 31
0
  0
LINE
  8
1
 62
7
 10
428.0950078194869
 20
86.9064748201439
 30
0
 11
448.095007819487
 21
86.9064748201439
 31
0
  0
LINE
  8
1
 62
3
  6
DASHDOT
 10
350.1396094664407
 20
-3.874598095668089
 30
0
 11
330.6577426107898
 21
-15.12245916909459
 31
0
  0
LINE
  8
1
 62
7
 10
544.9061004994103
 20
95.87218200916375
 30
0
 11
537.9917768319908
 21
91.88019537851493
 31
0
  0
LINE
  8
1
 62
7
 10
526.9917768319908
 20
110.9327542617726
 30
0
 11
533.9061004994103
 21
114.9247408924214
 31
0
  0
LINE
  8
1
 62
7
 10
526.9917768319908
 20
110.9327542617726
 30
0
 11
537.9917768319908
 21
91.88019537851493
 31
0
  0
LINE
  8
1
 62
7
 10
533.9061004994101
 20
-21.11179125213383
 30
0
 11
526.9917768319907
 21
-17.119804621485
 31
0
  0
LINE
  8
1
 62
7
 10
537.9917768319907
 20
1.932754261772641
 30
0
 11
544.9061004994103
 21
-2.059232368876187
 31
0
  0
LINE
  8
1
 62
7
 10
537.9917768319907
 20
1.932754261772641
 30
0
 11
526.9917768319907
 21
-17.119804621485
 31
0
  0
LINE
  8
1
 62
7
 10
427.0950078194869
 20
-70.07749844115372
 30
0
 11
427.0950078194869
 21
-62.09352517985607
 31
0
  0
LINE
  8
1
 62
7
 10
449.0950078194869
 20
-62.09352517985608
 30
0
 11
449.0950078194869
 21
-70.07749844115372
 31
0
  0
LINE
  8
1
 62
7
 10
449.0950078194869
 20
-62.09352517985608
 30
0
 11
427.0950078194869
 21
-62.09352517985607
 31
0
  0
LINE
  8
1
 62
7
 10
331.2839151395638
 20
-2.059232368876036
 30
0
 11
338.1982388069832
 21
1.932754261772787
 31
0
  0
LINE
  8
1
 62
7
 10
349.1982388069832
 20
-17.11980462148487
 30
0
 11
342.2839151395638
 21
-21.11179125213369
 31
0
  0
LINE
  8
1
 62
7
 10
349.1982388069832
 20
-17.11980462148487
 30
0
 11
338.1982388069832
 21
1.932754261772787
 31
0
  0
LINE
  8
1
 62
7
 10
342.2839151395638
 20
114.9247408924216
 30
0
 11
349.1982388069832
 21
110.9327542617728
 31
0
  0
LINE
  8
1
 62
7
 10
338.1982388069832
 20
91.88019537851511
 30
0
 11
331.2839151395638
 21
95.87218200916394
 31
0
  0
LINE
  8
1
 62
7
 10
338.1982388069832
 20
91.88019537851511
 30
0
 11
349.1982388069832
 21
110.9327542617728
 31
0
  0
LINE
  8
1
 62
7
 10
449.095007819487
 20
163.8904480814415
 30
0
 11
449.095007819487
 21
155.9064748201439
 31
0
  0
LINE
  8
1
 62
7
 10
427.095007819487
 20
155.9064748201439
 30
0
 11
427.095007819487
 21
163.8904480814415
 31
0
  0
LINE
  8
1
 62
7
 10
427.095007819487
 20
155.9064748201439
 30
0
 11
449.095007819487
 21
155.9064748201439
 31
0
  0
LINE
  8
1
 62
7
 10
145.095007819487
 20
-61.0935251798561
 30
0
 11
159.095007819487
 21
-61.0935251798561
 31
0
  0
LINE
  8
1
 62
7
 10
145.095007819487
 20
154.9064748201439
 30
0
 11
145.095007819487
 21
133.9064748201439
 31
0
  0
LINE
  8
1
 62
7
 10
145.095007819487
 20
133.9064748201439
 30
0
 11
147.095007819487
 21
133.9064748201439
 31
0
  0
ARC
  8
1
 62
7
 10
81.41000781948705
 20
153.2214748201439
 30
0
 40
3
 50
180
 51
270
  0
ARC
  8
1
 62
7
 10
81.41000781948705
 20
153.2214748201439
 30
0
 40
5.629999999999996
 50
180
 51
270
  0
ARC
  8
1
 62
7
 10
-404.404992180513
 20
156.6186423631133
 30
0
 40
5
 50
180
 51
260.1857516670672
  0
ARC
  8
1
 62
7
 10
-401.404992180513
 20
139.6201750518773
 30
0
 40
6.000000000000081
 50
255.5224878140703
 51
0
  0
ARC
  8
1
 62
7
 10
-400.404992180513
 20
145.5569870457726
 30
0
 40
5
 50
0
 51
75.90149272918723
  0
ARC
  8
1
 62
7
 10
-434.404992180513
 20
156.6186423631133
 30
0
 40
4.999999999999934
 50
279.8142483329334
 51
0
  0
ARC
  8
1
 62
7
 10
-437.404992180513
 20
139.6201750518773
 30
0
 40
6
 50
180
 51
284.4775121859302
  0
ARC
  8
1
 62
7
 10
-438.404992180513
 20
145.5569870457726
 30
0
 40
5.00000000000014
 50
104.0985072708118
 51
180
  0
ARC
  8
1
 62
7
 10
-419.404992180513
 20
46.90647482014389
 30
0
 40
117.4999999999999
 50
94.88214233247308
 51
85.11785766752689
  0
ARC
  8
1
 62
7
 10
-419.404992180513
 20
46.90647482014389
 30
0
 40
110
 50
95.21738368732011
 51
84.78261631267992
  0
ARC
  8
1
 62
7
 10
-419.4049921805143
 20
69.9064748201465
 30
0
 40
82.99999999999781
 50
75.90149272918654
 51
80.18575166706643
  0
ARC
  8
1
 62
7
 10
-419.4049921805143
 20
69.9064748201465
 30
0
 40
82.99999999999727
 50
99.81424833293175
 51
104.0985072708116
  0
ARC
  8
1
 62
7
 10
-419.404992180513
 20
69.9064748201439
 30
0
 40
65.99999999999983
 50
75.52248781407005
 51
104.4775121859299
  0
ARC
  8
1
 62
7
 10
-419.404992180513
 20
46.90647482014389
 30
0
 40
35
 50
106.6015495990202
 51
73.39845040097977
  0
ARC
  8
1
 62
7
 10
438.095007819487
 20
46.9064748201439
 30
0
 40
34.99999999999999
 50
106.6015495990203
 51
73.39845040097976
  0
CIRCLE
  8
1
 62
7
 10
116.095007819487
 20
-10.643525179856
 30
0
 40
7.469999999999999
  0
CIRCLE
  8
1
 62
7
 10
92.09500781948702
 20
-10.643525179856
 30
0
 40
7.469999999999999
  0
CIRCLE
  8
1
 62
7
 10
116.095007819487
 20
104.4564748201438
 30
0
 40
7.469999999999999
  0
CIRCLE
  8
1
 62
7
 10
92.09500781948702
 20
104.4564748201438
 30
0
 40
7.469999999999999
  0
CIRCLE
  8
1
 62
7
 10
438.095007819487
 20
46.9064748201439
 30
0
 40
59.40000000000009
  0
CIRCLE
  8
1
 62
7
 10
438.095007819487
 20
46.9064748201439
 30
0
 40
54
  0
CIRCLE
  8
1
 62
7
 10
-419.404992180513
 20
46.90647482014389
 30
0
 40
45
  0
CIRCLE
  8
1
 62
7
 10
-402.404992180513
 20
141.9064748201439
 30
0
 40
4.25
  0
CIRCLE
  8
1
 62
7
 10
-436.404992180513
 20
141.9064748201439
 30
0
 40
4.25
  0
CIRCLE
  8
1
 62
7
 10
-419.404992180513
 20
46.90647482014389
 30
0
 40
86
  0
CIRCLE
  8
1
 62
7
 10
-419.404992180513
 20
46.90647482014389
 30
0
 40
70
  0
CIRCLE
  8
1
 62
7
 10
438.095007819487
 20
46.9064748201439
 30
0
 40
117.5
  0
CIRCLE
  8
1
 62
7
 10
438.095007819487
 20
46.9064748201439
 30
0
 40
107.5
  0
CIRCLE
  8
1
 62
7
 10
438.095007819487
 20
46.9064748201439
 30
0
 40
104.5
  0
CIRCLE
  8
1
 62
7
 10
438.095007819487
 20
46.9064748201439
 30
0
 40
67
  0
POLYLINE
  8
1
 62
3
 66
1
  0
VERTEX
  8
1
 10
-174.089992180513
 20
227.1499999999999
 30
0
 42
0.00639169494020936
  0
VERTEX
  8
1
 10
-174.3345362180677
 20
227.2648711871456
 30
0
 42
0.02050860408940314
  0
VERTEX
  8
1
 10
-174.5726231975632
 20
227.3614463359374
 30
0
 42
0.04202351214076227
  0
VERTEX
  8
1
 10
-174.7977960609407
 20
227.4214294080213
 30
0
 42
0.07594142473453243
  0
VERTEX
  8
1
 10
-175.003597750141
 20
227.4265243650434
 30
0
 42
0.1504722164956979
  0
VERTEX
  8
1
 10
-175.2276222031088
 20
227.3249878617184
 30
0
 42
0.006245214831525442
  0
VERTEX
  8
1
 10
-175.2705270466043
 20
227.2860678144929
 30
0
 42
0.01819448236648836
  0
VERTEX
  8
1
 10
-175.3135484894387
 20
227.2430279038681
 30
0
 42
4.403985743022832e-005
  0
VERTEX
  8
1
 10
-175.3579492834592
 20
227.1972210067389
 30
0
 42
-0.00674612645474029
  0
VERTEX
  8
1
 10
-175.404992180513
 20
227.1499999999999
 30
0
 42
-0.03493868999115407
  0
VERTEX
  8
1
 10
-175.6259194423588
 20
226.9645770662976
 30
0
 42
-0.03628568951842848
  0
VERTEX
  8
1
 10
-175.8800625748265
 20
226.8052538940444
 30
0
 42
-0.05179794694594666
  0
VERTEX
  8
1
 10
-176.1384624073477
 20
226.6991052224263
 30
0
 42
-0.09478077286707172
  0
VERTEX
  8
1
 10
-176.3721597693537
 20
226.6732057906292
 30
0
 42
-0.2438632038809353
  0
VERTEX
  8
1
 10
-176.5981764886383
 20
226.8134980390475
 30
0
 42
-0.03640546486173794
  0
VERTEX
  8
1
 10
-176.6358763801239
 20
226.8858365610717
 30
0
 42
-0.02221340004535833
  0
VERTEX
  8
1
 10
-176.6673654414522
 20
226.9682781987079
 30
0
 42
-0.01192835883179211
  0
VERTEX
  8
1
 10
-176.6947139493421
 20
227.0574552467519
 30
0
 42
-0.003758430224493538
  0
VERTEX
  8
1
 10
-176.719992180513
 20
227.1499999999999
 30
0
  0
SEQEND
  8
1
  0
TEXT
  8
1
 62
7
 10
-531.1927009193261
 20
270.19854024149
 30
0
 40
14
  1
DC4327
 41
0.9
  7
SIMPLEX
  0
TEXT
  8
1
 62
7
 10
-529.9800369435441
 20
294.474524096182
 30
0
 40
14
  1
MWC 80
 41
0.9
  7
SIMPLEX
  0
ENDSEC
  0
EOF
