  0
SECTION
  2
HEADER
  9
$ACADVER
  1
AC1009
  9
$INSBASE
 10
0
 20
0
  9
$EXTMIN
 10
-1490.157139728038
 20
-98.19006152964015
  9
$EXTMAX
 10
-135.1571397280379
 20
413.528586513685
  9
$LIMMIN
 10
-1490.157139728038
 20
-98.19006152964015
  9
$LIMMAX
 10
-135.1571397280379
 20
413.528586513685
  9
$VIEWCTR
 10
10
 20
10
  9
$VIEWSIZE
 40
10
  9
$SNAPMODE
 70
0
  9
$SNAPUNIT
 10
1
 20
1
  9
$SNAPBASE
 10
0
 20
0
  9
$SNAPANG
 50
0
  9
$SNAPSTYLE
 70
0
  9
$SNAPISOPAIR
 70
0
  9
$GRIDMODE
 70
0
  9
$GRIDUNIT
 10
0
 20
0
  9
$ORTHOMODE
 70
0
  9
$REGENMODE
 70
1
  9
$FILLMODE
 70
1
  9
$QTEXTMODE
 70
0
  9
$DRAGMODE
 70
2
  9
$LTSCALE
 40
1
  9
$OSMODE
 70
0
  9
$ATTMODE
 70
1
  9
$TEXTSIZE
 40
3.5
  9
$TRACEWID
 40
0.5
  9
$TEXTSTYLE
  7
STANDARD
  9
$CLAYER
  8
0
  9
$CELTYPE
  6
BYLAYER
  9
$CECOLOR
 62
256
  9
$DIMSCALE
 40
1
  9
$DIMASZ
 40
0.18
  9
$DIMEXO
 40
0.0625
  9
$DIMDLI
 40
0.38
  9
$DIMRND
 40
0
  9
$DIMDLE
 40
0
  9
$DIMEXE
 40
0.18
  9
$DIMTP
 40
0
  9
$DIMTM
 40
0
  9
$DIMTXT
 40
0.18
  9
$DIMCEN
 40
0.09
  9
$DIMTSZ
 40
0
  9
$DIMTOL
 70
0
  9
$DIMLIM
 70
0
  9
$DIMTIH
 70
1
  9
$DIMTOH
 70
1
  9
$DIMSE1
 70
0
  9
$DIMSE2
 70
0
  9
$DIMTAD
 70
0
  9
$DIMZIN
 70
0
  9
$DIMBLK
  1

  9
$DIMASO
 70
1
  9
$DIMSHO
 70
1
  9
$DIMPOST
  1

  9
$DIMAPOST
  1

  9
$DIMALT
 70
0
  9
$DIMALTD
 70
2
  9
$DIMALTF
 40
25.4
  9
$DIMLFAC
 40
1
  9
$DIMTOFL
 70
0
  9
$DIMTVP
 40
0
  9
$DIMTIX
 70
0
  9
$DIMSOXD
 70
0
  9
$DIMSAH
 70
0
  9
$DIMBLK1
  1

  9
$DIMBLK2
  1

  9
$DIMSTYLE
  2
*UNNAMED
  9
$DIMCLRD
 70
0
  9
$DIMCLRE
 70
0
  9
$DIMCLRT
 70
0
  9
$DIMTFAC
 40
1
  9
$DIMGAP
 40
0.09
  9
$LUNITS
 70
2
  9
$LUPREC
 70
4
  9
$AXISMODE
 70
0
  9
$AXISUNIT
 10
0
 20
0
  9
$SKETCHINC
 40
0.1
  9
$FILLETRAD
 40
2
  9
$AUNITS
 70
0
  9
$AUPREC
 70
0
  9
$MENU
  1
ACAD
  9
$ELEVATION
 40
0
  9
$THICKNESS
 40
0
  9
$VIEWDIR
 10
0
 20
0
 30
1
  9
$LIMCHECK
 70
0
  9
$BLIPMODE
 70
1
  9
$CHAMFERA
 40
0
  9
$CHAMFERB
 40
0
  9
$FASTZOOM
 70
1
  9
$SKPOLY
 70
0
  9
$ANGBASE
 50
0
  9
$ANGDIR
 70
0
  9
$PDMODE
 70
0
  9
$PDSIZE
 40
0
  9
$PLINEWID
 40
0
  9
$COORDS
 70
2
  0
ENDSEC
  0
SECTION
  2
TABLES
  0
TABLE
  2
DIMSTYLE
 70
0
  0
ENDTAB
  0
TABLE
  2
LTYPE
 70
9
  0
LTYPE
  2
CONTINUOUS
 70
64
  3
Solid line
 72
65
 73
0
 40
0
  0
LTYPE
  2
BORDER
 70
64
  3
__ __ . __ __ .
 72
65
 73
6
 40
62.40131578947368
 49
17.82894736842105
 49
-8.914473684210526
 49
17.82894736842105
 49
-8.914473684210526
 49
0
 49
-8.914473684210526
  0
LTYPE
  2
CENTER
 70
64
  3
____ _ ____ _
 72
65
 73
4
 40
71.31578947368421
 49
44.57236842105263
 49
-8.914473684210526
 49
8.914473684210526
 49
-8.914473684210526
  0
LTYPE
  2
DASHDOT
 70
64
  3
__ . __ . __ .
 72
65
 73
4
 40
35.6578947368421
 49
17.82894736842105
 49
-8.914473684210526
 49
0
 49
-8.914473684210526
  0
LTYPE
  2
DASHED
 70
64
  3
__ __ __ __ __
 72
65
 73
2
 40
26.74342105263158
 49
17.82894736842105
 49
-8.914473684210526
  0
LTYPE
  2
DIVIDE
 70
64
  3
__ . . __ . . 
 72
65
 73
6
 40
44.57236842105263
 49
17.82894736842105
 49
-8.914473684210526
 49
0
 49
-8.914473684210526
 49
0
 49
-8.914473684210526
  0
LTYPE
  2
DOT
 70
64
  3
..............
 72
65
 73
4
 40
17.82894736842105
 49
0
 49
-8.914473684210526
 49
0
 49
-8.914473684210526
  0
LTYPE
  2
HIDDEN
 70
64
  3
_ _ _ _ _ _ _
 72
65
 73
2
 40
13.37171052631579
 49
8.914473684210526
 49
-4.457236842105263
  0
LTYPE
  2
PHANTOM
 70
64
  3
_____ _ _ _____ _ _ 
 72
65
 73
6
 40
89.14473684210526
 49
44.57236842105263
 49
-8.914473684210526
 49
8.914473684210526
 49
-8.914473684210526
 49
8.914473684210526
 49
-8.914473684210526
  0
ENDTAB
  0
TABLE
  2
LAYER
 70
3
  0
LAYER
  2
1
 70
0
 62
7
  6
CONTINUOUS
  0
LAYER
  2
0
 70
0
 62
7
  6
CONTINUOUS
  0
ENDTAB
  0
TABLE
  2
STYLE
 70
4
  0
STYLE
  2
STANDARD
 70
0
 40
0
 41
1
 50
0
 71
0
 42
3.5
  3
txt
  4

  0
STYLE
  2
SIMPLEX
 70
0
 40
0
 41
1
 50
0
 71
0
 42
3.5
  3
simplex
  4

  0
STYLE
  2
COMPLEX
 70
0
 40
0
 41
1
 50
0
 71
0
 42
3.5
  3
complex
  4

  0
STYLE
  2
ITALIC
 70
0
 40
0
 41
1
 50
0
 71
0
 42
3.5
  3
italic
  4

  0
ENDTAB
  0
TABLE
  2
VIEW
 70
0
  0
ENDTAB
  0
ENDSEC
  0
SECTION
  2
BLOCKS
  0
ENDSEC
  0
SECTION
  2
ENTITIES
  0
LINE
  8
1
 62
7
 10
-639.1571397280379
 20
-64.44132049894597
 30
0
 11
-639.1571397280379
 21
-31.1413204989459
 31
0
  0
LINE
  8
1
 62
7
 10
-641.1571397280379
 20
-55.94132049894597
 30
0
 11
-641.1571397280379
 21
-31.94132049894597
 31
0
  0
LINE
  8
1
 62
7
 10
-1054.157139728038
 20
113.0586795010538
 30
0
 11
-1047.657139728038
 21
113.0586795010538
 31
0
  0
LINE
  8
1
 62
7
 10
-1054.157139728038
 20
113.0586795010538
 30
0
 11
-1055.157139728038
 21
112.0586795010538
 31
0
  0
LINE
  8
1
 62
7
 10
-885.1571397280379
 20
124.5586795010538
 30
0
 11
-886.1571397280379
 21
125.5586795010538
 31
0
  0
LINE
  8
1
 62
7
 10
-939.1571397280379
 20
184.0586795010538
 30
0
 11
-934.1571397280379
 21
184.0586795010538
 31
0
  0
LINE
  8
1
 62
7
 10
-1030.157139728038
 20
198.0586795010538
 30
0
 11
-946.1571397280379
 21
198.0586795010538
 31
0
  0
LINE
  8
1
 62
7
 10
-939.1571397280379
 20
191.0586795010538
 30
0
 11
-946.1571397280379
 21
198.0586795010538
 31
0
  0
LINE
  8
1
 62
7
 10
-904.7571397280379
 20
184.0586795010538
 30
0
 11
-892.7571397280379
 21
184.0586795010538
 31
0
  0
LINE
  8
1
 62
7
 10
-887.7571397280379
 20
179.0586795010538
 30
0
 11
-892.7571397280379
 21
184.0586795010538
 31
0
  0
LINE
  8
1
 62
7
 10
-904.7571397280379
 20
184.0586795010538
 30
0
 11
-905.7571397280379
 21
183.0586795010538
 31
0
  0
LINE
  8
1
 62
7
 10
-934.1571397280379
 20
198.0586795010538
 30
0
 11
-905.7571397280379
 21
198.0586795010538
 31
0
  0
LINE
  8
1
 62
7
 10
-887.7571397280378
 20
125.5586795010538
 30
0
 11
-886.1571397280379
 21
125.5586795010538
 31
0
  0
LINE
  8
1
 62
3
 10
-905.7571397280379
 20
53.05867950105403
 30
0
 11
-934.1571397280379
 21
198.0586795010538
 31
0
  0
LINE
  8
1
 62
3
 10
-905.7571397280379
 20
198.0586795010538
 30
0
 11
-934.1571397280379
 21
53.05867950105403
 31
0
  0
LINE
  8
1
 62
7
 10
-1047.657139728038
 20
162.0586795010538
 30
0
 11
-1033.357139728038
 21
162.058679501054
 31
0
  0
LINE
  8
1
 62
7
 10
-721.1571397280379
 20
-4.94132049894597
 30
0
 11
-721.1571397280379
 21
-41.69132049894597
 31
0
  0
LINE
  8
1
 62
7
 10
-693.1571397280379
 20
-6.94132049894597
 30
0
 11
-693.1571397280379
 21
-36.94132049894598
 31
0
  0
LINE
  8
1
 62
7
 10
-665.1571397280379
 20
-36.94132049894597
 30
0
 11
-721.1571397280379
 21
-36.94132049894597
 31
0
  0
LINE
  8
1
 62
3
 10
-661.1571397280379
 20
-31.1413204989459
 30
0
 11
-661.1571397280379
 21
-8.94132049894597
 31
0
  0
LINE
  8
1
 62
7
  6
DASHED
 10
-663.1571397280379
 20
-8.94132049894597
 30
0
 11
-663.1571397280379
 21
7.05867950105403
 31
0
  0
LINE
  8
1
 62
7
  6
DASHED
 10
-667.1571397280379
 20
-6.94132049894597
 30
0
 11
-667.1571397280379
 21
7.05867950105403
 31
0
  0
LINE
  8
1
 62
7
  6
DASHED
 10
-603.1571397280379
 20
-18.94132049894597
 30
0
 11
-603.1571397280379
 21
7.05867950105403
 31
0
  0
LINE
  8
1
 62
7
  6
DASHED
 10
-607.1571397280379
 20
-18.94132049894597
 30
0
 11
-607.1571397280379
 21
7.05867950105403
 31
0
  0
LINE
  8
1
 62
3
  6
CENTER
 10
-605.1571397280379
 20
-20.187721165521
 30
0
 11
-605.1571397280379
 21
9.87362256201709
 31
0
  0
LINE
  8
1
 62
3
  6
CENTER
 10
-665.1571397280379
 20
-6.94132049894597
 30
0
 11
-665.1571397280379
 21
9.87362256201709
 31
0
  0
LINE
  8
1
 62
7
 10
-732.6571397280379
 20
-36.94132049894597
 30
0
 11
-725.1571397280379
 21
-36.94132049894597
 31
0
  0
LINE
  8
1
 62
7
 10
-732.6571397280379
 20
-55.94132049894597
 30
0
 11
-732.6571397280379
 21
-13.40832406612697
 31
0
  0
LINE
  8
1
 62
7
 10
-715.1571397280379
 20
-91.94132049894597
 30
0
 11
-715.1571397280379
 21
-55.94132049894597
 31
0
  0
LINE
  8
1
 62
7
 10
-725.1571397280379
 20
-19.27603642492693
 30
0
 11
-725.1571397280379
 21
-41.69132049894597
 31
0
  0
LINE
  8
1
 62
7
 10
-721.1571397280379
 20
-28.69132049894597
 30
0
 11
-725.1571397280379
 21
-28.69132049894597
 31
0
  0
LINE
  8
1
 62
7
 10
-725.1571397280379
 20
-41.69132049894597
 30
0
 11
-721.1571397280379
 21
-41.69132049894597
 31
0
  0
LINE
  8
1
 62
7
 10
-739.1571397280379
 20
-6.94132049894597
 30
0
 11
-725.1571397280379
 21
-6.94132049894597
 31
0
  0
LINE
  8
1
 62
7
 10
-725.1571397280379
 20
-4.94132049894597
 30
0
 11
-725.1571397280379
 21
-15.24132049894593
 31
0
  0
LINE
  8
1
 62
7
 10
-721.1571397280379
 20
-4.94132049894597
 30
0
 11
-725.1571397280379
 21
-4.94132049894597
 31
0
  0
LINE
  8
1
 62
7
 10
-725.1571397280379
 20
-15.24132049894593
 30
0
 11
-721.1571397280379
 21
-15.24132049894593
 31
0
  0
LINE
  8
1
 62
3
 10
-707.1571397280379
 20
-32.19132049894597
 30
0
 11
-707.1571397280379
 21
-11.69132049894597
 31
0
  0
LINE
  8
1
 62
3
 10
-717.4071397280379
 20
-21.94132049894597
 30
0
 11
-696.9071397280379
 21
-21.94132049894597
 31
0
  0
LINE
  8
1
 62
7
 10
-711.8981839168216
 20
-29.59132049894595
 30
0
 11
-721.1571397280379
 21
-29.59132049894595
 31
0
  0
LINE
  8
1
 62
7
 10
-702.4160955392541
 20
-29.59132049894595
 30
0
 11
-693.1571397280379
 21
-29.59132049894595
 31
0
  0
LINE
  8
1
 62
7
 10
-711.8981839168216
 20
-14.29132049894599
 30
0
 11
-721.1571397280379
 21
-14.29132049894599
 31
0
  0
LINE
  8
1
 62
7
 10
-702.4160955392541
 20
-14.29132049894599
 30
0
 11
-693.1571397280379
 21
-14.29132049894599
 31
0
  0
LINE
  8
1
 62
7
 10
-571.1571397280379
 20
-19.44132049894597
 30
0
 11
-576.1571397280379
 21
-19.44132049894597
 31
0
  0
LINE
  8
1
 62
7
 10
-576.1571397280379
 20
-17.44132049894597
 30
0
 11
-580.3571397280379
 21
-17.44132049894597
 31
0
  0
LINE
  8
1
 62
7
 10
-580.3571397280379
 20
-17.44132049894597
 30
0
 11
-580.3571397280379
 21
-24.34132049894595
 31
0
  0
LINE
  8
1
 62
7
 10
-580.3571397280379
 20
-24.34132049894595
 30
0
 11
-618.1571397280379
 21
-24.34132049894595
 31
0
  0
LINE
  8
1
 62
7
 10
-664.1571397280379
 20
-8.94132049894597
 30
0
 11
-664.1571397280379
 21
-6.94132049894597
 31
0
  0
LINE
  8
1
 62
7
 10
-601.1571397280379
 20
8.05867950105403
 30
0
 11
-570.1571397280379
 21
8.058679501054144
 31
0
  0
LINE
  8
1
 62
7
 10
-580.3571397280379
 20
-18.94132049894597
 30
0
 11
-619.1571397280379
 21
-18.94132049894597
 31
0
  0
LINE
  8
1
 62
3
  6
DASHDOT
 10
-578.4161346726478
 20
-21.94132049894597
 30
0
 11
-621.0989015699498
 21
-21.94132049894597
 31
0
  0
LINE
  8
1
 62
7
 10
-619.1571397280379
 20
-23.34132049894595
 30
0
 11
-618.1571397280379
 21
-24.34132049894595
 31
0
  0
LINE
  8
1
 62
7
 10
-571.1571397280379
 20
-19.44132049894597
 30
0
 11
-570.1571397280379
 21
-18.44132049894597
 31
0
  0
LINE
  8
1
 62
7
 10
-601.1571397280379
 20
7.05867950105403
 30
0
 11
-609.1571397280379
 21
7.05867950105403
 31
0
  0
LINE
  8
1
 62
7
 10
-661.1571397280379
 20
7.05867950105403
 30
0
 11
-669.1571397280379
 21
7.058679501054012
 31
0
  0
LINE
  8
1
 62
7
 10
-669.1571397280379
 20
8.058679501054012
 30
0
 11
-740.1571397280379
 21
8.058679501054144
 31
0
  0
LINE
  8
1
 62
7
 10
-609.1571397280379
 20
8.05867950105403
 30
0
 11
-661.1571397280379
 21
8.05867950105403
 31
0
  0
LINE
  8
1
 62
7
 10
-619.1571397280379
 20
-77.94132049894597
 30
0
 11
-624.1571397280379
 21
-77.94132049894597
 31
0
  0
LINE
  8
1
 62
7
 10
-624.1571397280379
 20
-77.94132049894597
 30
0
 11
-624.1571397280379
 21
-81.1413204989459
 31
0
  0
LINE
  8
1
 62
7
 10
-624.1571397280379
 20
-81.1413204989459
 30
0
 11
-639.1571397280379
 21
-81.1413204989459
 31
0
  0
LINE
  8
1
 62
7
 10
-639.1571397280379
 20
-81.1413204989459
 30
0
 11
-639.1571397280379
 21
-64.44132049894597
 31
0
  0
LINE
  8
1
 62
7
 10
-639.1571397280379
 20
-31.1413204989459
 30
0
 11
-663.1571397280379
 21
-31.1413204989459
 31
0
  0
LINE
  8
1
 62
7
 10
-664.1571397280379
 20
-30.1413204989459
 30
0
 11
-664.1571397280379
 21
-15.94132049894597
 31
0
  0
LINE
  8
1
 62
7
 10
-664.1571397280379
 20
-15.94132049894597
 30
0
 11
-665.1571397280379
 21
-15.94132049894597
 31
0
  0
LINE
  8
1
 62
7
 10
-664.1571397280379
 20
-8.94132049894597
 30
0
 11
-619.1571397280379
 21
-8.94132049894597
 31
0
  0
LINE
  8
1
 62
7
 10
-665.1571397280379
 20
-31.94132049894597
 30
0
 11
-641.1571397280379
 21
-31.94132049894597
 31
0
  0
LINE
  8
1
 62
7
 10
-641.1571397280379
 20
-55.94132049894597
 30
0
 11
-641.1571397280379
 21
-81.94132049894597
 31
0
  0
LINE
  8
1
 62
7
 10
-641.1571397280379
 20
-81.94132049894597
 30
0
 11
-624.1571397280379
 21
-81.94132049894597
 31
0
  0
LINE
  8
1
 62
7
 10
-624.1571397280379
 20
-81.94132049894597
 30
0
 11
-624.1571397280379
 21
-84.94132049894597
 31
0
  0
LINE
  8
1
 62
7
 10
-631.1571397280379
 20
-91.94132049894597
 30
0
 11
-715.1571397280379
 21
-91.94132049894597
 31
0
  0
LINE
  8
1
 62
7
 10
-631.1571397280379
 20
-91.94132049894597
 30
0
 11
-624.1571397280379
 21
-84.94132049894597
 31
0
  0
LINE
  8
1
 62
7
 10
-715.1571397280379
 20
-55.94132049894597
 30
0
 11
-732.6571397280379
 21
-55.94132049894597
 31
0
  0
LINE
  8
1
 62
7
 10
-664.1571397280379
 20
-30.1413204989459
 30
0
 11
-663.1571397280379
 21
-31.1413204989459
 31
0
  0
LINE
  8
1
 62
7
 10
-619.1571397280379
 20
-9.94132049894597
 30
0
 11
-620.1571397280379
 21
-8.94132049894597
 31
0
  0
LINE
  8
1
 62
7
 10
-683.6571397280379
 20
-29.73554913300586
 30
0
 11
-693.1571397280379
 21
-29.73554913300586
 31
0
  0
LINE
  8
1
 62
7
 10
-674.6571397280379
 20
-29.73554913300586
 30
0
 11
-665.1571397280379
 21
-29.73554913300586
 31
0
  0
LINE
  8
1
 62
7
 10
-674.6571397280379
 20
-14.14709186488608
 30
0
 11
-665.1571397280379
 21
-14.14709186488608
 31
0
  0
LINE
  8
1
 62
7
 10
-683.6571397280379
 20
-14.14709186488608
 30
0
 11
-693.1571397280379
 21
-14.14709186488608
 31
0
  0
LINE
  8
1
 62
3
 10
-669.2571397280379
 20
-21.94132049894597
 30
0
 11
-689.0571397280378
 21
-21.94132049894597
 31
0
  0
LINE
  8
1
 62
3
 10
-679.1571397280379
 20
-31.84132049894595
 30
0
 11
-679.1571397280379
 21
-12.04132049894599
 31
0
  0
LINE
  8
1
 62
7
 10
-665.1571397280379
 20
-36.94132049894597
 30
0
 11
-665.1571397280379
 21
-6.94132049894597
 31
0
  0
LINE
  8
1
 62
7
 10
-721.1571397280379
 20
-6.94132049894597
 30
0
 11
-664.1571397280379
 21
-6.94132049894597
 31
0
  0
LINE
  8
1
 62
7
 10
-576.1571397280379
 20
-17.44132049894597
 30
0
 11
-576.1571397280379
 21
-29.04132049894599
 31
0
  0
LINE
  8
1
 62
7
 10
-580.1571397280379
 20
-32.44132049894597
 30
0
 11
-580.1571397280379
 21
-17.44132049894597
 31
0
  0
LINE
  8
1
 62
7
 10
-576.1571397280379
 20
-29.04132049894599
 30
0
 11
-580.1571397280379
 21
-29.04132049894599
 31
0
  0
LINE
  8
1
 62
7
 10
-580.1571397280379
 20
-32.44132049894597
 30
0
 11
-574.7571397280379
 21
-32.44132049894597
 31
0
  0
LINE
  8
1
 62
7
 10
-577.7571397280379
 20
-77.94132049894597
 30
0
 11
-589.7571397280379
 21
-77.94132049894597
 31
0
  0
LINE
  8
1
 62
7
 10
-577.7571397280379
 20
-77.94132049894597
 30
0
 11
-572.7571397280379
 21
-72.94132049894597
 31
0
  0
LINE
  8
1
 62
7
 10
-590.7571397280379
 20
-76.94132049894597
 30
0
 11
-589.7571397280379
 21
-77.94132049894597
 31
0
  0
LINE
  8
1
 62
7
 10
-572.7571397280379
 20
-34.44132049894597
 30
0
 11
-574.7571397280379
 21
-32.44132049894597
 31
0
  0
LINE
  8
1
 62
7
 10
-572.7571397280379
 20
-72.94132049894597
 30
0
 11
-572.7571397280379
 21
-24.94132049894597
 31
0
  0
LINE
  8
1
 62
7
 10
-574.7571397280379
 20
-32.44132049894597
 30
0
 11
-574.7571397280379
 21
-24.94132049894597
 31
0
  0
LINE
  8
1
 62
7
 10
-619.1571397280379
 20
-91.94132049894597
 30
0
 11
-619.1571397280379
 21
-8.94132049894597
 31
0
  0
LINE
  8
1
 62
7
 10
-590.7571397280379
 20
-91.94132049894597
 30
0
 11
-590.7571397280379
 21
-18.94132049894597
 31
0
  0
LINE
  8
1
 62
7
 10
-590.7571397280379
 20
-91.94132049894597
 30
0
 11
-619.1571397280379
 21
-91.94132049894597
 31
0
  0
LINE
  8
1
 62
3
 10
-590.7571397280379
 20
-91.94132049894597
 30
0
 11
-619.1571397280379
 21
-18.94132049894597
 31
0
  0
LINE
  8
1
 62
3
 10
-619.1571397280379
 20
-91.94132049894597
 30
0
 11
-590.7571397280379
 21
-18.94132049894597
 31
0
  0
LINE
  8
1
 62
7
 10
-740.1571397280379
 20
-5.94132049894597
 30
0
 11
-739.1571397280379
 21
-6.94132049894597
 31
0
  0
LINE
  8
1
 62
7
 10
-721.1571397280379
 20
147.808679501054
 30
0
 11
-721.1571397280379
 21
111.058679501054
 31
0
  0
LINE
  8
1
 62
7
 10
-693.1571397280379
 20
143.058679501054
 30
0
 11
-693.1571397280379
 21
113.058679501054
 31
0
  0
LINE
  8
1
 62
7
 10
-721.1571397280379
 20
143.058679501054
 30
0
 11
-665.1571397280379
 21
143.058679501054
 31
0
  0
LINE
  8
1
 62
7
 10
-885.1571397280379
 20
124.5586795010538
 30
0
 11
-885.1571397280379
 21
-18.44132049894598
 31
0
  0
LINE
  8
1
 62
7
 10
-1047.657139728038
 20
-6.94132049894597
 30
0
 11
-1054.157139728038
 21
-6.94132049894597
 31
0
  0
LINE
  8
1
 62
7
 10
-1055.157139728038
 20
-5.94132049894597
 30
0
 11
-1055.157139728038
 21
112.0586795010538
 31
0
  0
LINE
  8
1
 62
7
 10
-1055.157139728038
 20
-5.94132049894597
 30
0
 11
-1054.157139728038
 21
-6.94132049894597
 31
0
  0
LINE
  8
1
 62
7
 10
-886.1571397280379
 20
-19.44132049894597
 30
0
 11
-885.1571397280379
 21
-18.44132049894598
 31
0
  0
LINE
  8
1
 62
7
 10
-934.1571397280379
 20
-91.94132049894597
 30
0
 11
-934.1571397280379
 21
198.0586795010538
 31
0
  0
LINE
  8
1
 62
7
 10
-934.1571397280379
 20
-77.94132049894597
 30
0
 11
-939.1571397280379
 21
-77.94132049894597
 31
0
  0
LINE
  8
1
 62
7
 10
-946.1571397280379
 20
-91.94132049894597
 30
0
 11
-1030.157139728038
 21
-91.94132049894597
 31
0
  0
LINE
  8
1
 62
7
 10
-946.1571397280379
 20
-91.94132049894597
 30
0
 11
-939.1571397280379
 21
-84.94132049894597
 31
0
  0
LINE
  8
1
 62
7
 10
-892.7571397280379
 20
-77.94132049894597
 30
0
 11
-904.7571397280379
 21
-77.94132049894597
 31
0
  0
LINE
  8
1
 62
7
 10
-905.7571397280379
 20
-91.94132049894597
 30
0
 11
-905.7571397280379
 21
198.0586795010538
 31
0
  0
LINE
  8
1
 62
7
 10
-892.7571397280379
 20
-77.94132049894597
 30
0
 11
-887.7571397280379
 21
-72.94132049894597
 31
0
  0
LINE
  8
1
 62
7
 10
-905.7571397280379
 20
-76.94132049894597
 30
0
 11
-904.7571397280379
 21
-77.94132049894597
 31
0
  0
LINE
  8
1
 62
7
 10
-905.7571397280379
 20
-91.94132049894597
 30
0
 11
-934.1571397280379
 21
-91.94132049894597
 31
0
  0
LINE
  8
1
 62
7
 10
-886.1571397280379
 20
125.5586795010538
 30
0
 11
-886.1571397280379
 21
-19.44132049894597
 31
0
  0
LINE
  8
1
 62
7
 10
-887.7571397280379
 20
179.0586795010538
 30
0
 11
-887.7571397280379
 21
-72.94132049894597
 31
0
  0
LINE
  8
1
 62
7
 10
-886.1571397280379
 20
-19.44132049894597
 30
0
 11
-887.7571397280378
 21
-19.44132049894597
 31
0
  0
LINE
  8
1
 62
7
 10
-892.7571397280379
 20
184.0586795010538
 30
0
 11
-892.7571397280379
 21
-77.94132049894597
 31
0
  0
LINE
  8
1
 62
7
 10
-939.1571397280379
 20
-84.94132049894597
 30
0
 11
-939.1571397280379
 21
191.0586795010538
 31
0
  0
LINE
  8
1
 62
7
 10
-946.1571397280379
 20
198.0586795010538
 30
0
 11
-946.1571397280379
 21
-91.94132049894597
 31
0
  0
LINE
  8
1
 62
3
 10
-934.1571397280379
 20
-91.94132049894597
 30
0
 11
-905.7571397280379
 21
53.05867950105403
 31
0
  0
LINE
  8
1
 62
3
 10
-934.1571397280379
 20
53.05867950105403
 30
0
 11
-905.7571397280379
 21
-91.94132049894597
 31
0
  0
LINE
  8
1
 62
7
 10
-1054.157139728038
 20
113.0586795010538
 30
0
 11
-1054.157139728038
 21
-6.94132049894597
 31
0
  0
LINE
  8
1
 62
7
 10
-1030.157139728038
 20
-55.94132049894597
 30
0
 11
-1047.657139728038
 21
-55.94132049894597
 31
0
  0
LINE
  8
1
 62
7
 10
-1047.657139728038
 20
-55.94132049894597
 30
0
 11
-1047.657139728038
 21
162.0586795010538
 31
0
  0
LINE
  8
1
 62
7
 10
-1030.157139728038
 20
-91.94132049894597
 30
0
 11
-1030.157139728038
 21
198.0586795010538
 31
0
  0
LINE
  8
1
 62
3
 10
-661.1571397280379
 20
115.058679501054
 30
0
 11
-661.1571397280379
 21
137.258679501054
 31
0
  0
LINE
  8
1
 62
7
 10
-725.1571397280379
 20
143.058679501054
 30
0
 11
-732.6571397280379
 21
143.058679501054
 31
0
  0
LINE
  8
1
 62
7
 10
-732.6571397280379
 20
119.525683068235
 30
0
 11
-732.6571397280379
 21
162.058679501054
 31
0
  0
LINE
  8
1
 62
7
 10
-715.1571397280379
 20
162.058679501054
 30
0
 11
-715.1571397280379
 21
198.058679501054
 31
0
  0
LINE
  8
1
 62
7
 10
-725.1571397280379
 20
147.808679501054
 30
0
 11
-725.1571397280379
 21
125.393395427035
 31
0
  0
LINE
  8
1
 62
7
 10
-725.1571397280379
 20
134.808679501054
 30
0
 11
-721.1571397280379
 21
134.808679501054
 31
0
  0
LINE
  8
1
 62
7
 10
-721.1571397280379
 20
147.808679501054
 30
0
 11
-725.1571397280379
 21
147.808679501054
 31
0
  0
LINE
  8
1
 62
7
 10
-725.1571397280379
 20
113.058679501054
 30
0
 11
-739.1571397280379
 21
113.058679501054
 31
0
  0
LINE
  8
1
 62
7
 10
-725.1571397280379
 20
121.358679501054
 30
0
 11
-725.1571397280379
 21
111.058679501054
 31
0
  0
LINE
  8
1
 62
7
 10
-725.1571397280379
 20
111.058679501054
 30
0
 11
-721.1571397280379
 21
111.058679501054
 31
0
  0
LINE
  8
1
 62
7
 10
-721.1571397280379
 20
121.358679501054
 30
0
 11
-725.1571397280379
 21
121.358679501054
 31
0
  0
LINE
  8
1
 62
3
 10
-707.1571397280379
 20
117.808679501054
 30
0
 11
-707.1571397280379
 21
138.308679501054
 31
0
  0
LINE
  8
1
 62
3
 10
-696.9071397280379
 20
128.058679501054
 30
0
 11
-717.4071397280379
 21
128.058679501054
 31
0
  0
LINE
  8
1
 62
7
 10
-721.1571397280379
 20
135.708679501054
 30
0
 11
-711.8981839168216
 21
135.708679501054
 31
0
  0
LINE
  8
1
 62
7
 10
-693.1571397280379
 20
135.708679501054
 30
0
 11
-702.4160955392541
 21
135.708679501054
 31
0
  0
LINE
  8
1
 62
7
 10
-721.1571397280379
 20
120.4086795010541
 30
0
 11
-711.8981839168216
 21
120.4086795010541
 31
0
  0
LINE
  8
1
 62
7
 10
-693.1571397280379
 20
120.4086795010541
 30
0
 11
-702.4160955392541
 21
120.4086795010541
 31
0
  0
LINE
  8
1
 62
7
 10
-570.1571397280379
 20
103.058679501054
 30
0
 11
-740.1571397280379
 21
103.058679501054
 31
0
  0
LINE
  8
1
 62
7
 10
-570.1571397280379
 20
124.558679501054
 30
0
 11
-570.1571397280379
 21
-18.44132049894597
 31
0
  0
LINE
  8
1
 62
7
 10
-576.1571397280379
 20
125.558679501054
 30
0
 11
-571.1571397280379
 21
125.558679501054
 31
0
  0
LINE
  8
1
 62
7
 10
-580.3571397280379
 20
123.558679501054
 30
0
 11
-576.1571397280379
 21
123.558679501054
 31
0
  0
LINE
  8
1
 62
7
 10
-580.3571397280379
 20
130.458679501054
 30
0
 11
-580.3571397280379
 21
123.558679501054
 31
0
  0
LINE
  8
1
 62
7
 10
-618.1571397280379
 20
130.458679501054
 30
0
 11
-580.3571397280379
 21
130.458679501054
 31
0
  0
LINE
  8
1
 62
7
 10
-664.1571397280379
 20
113.058679501054
 30
0
 11
-664.1571397280379
 21
115.058679501054
 31
0
  0
LINE
  8
1
 62
7
 10
-740.1571397280379
 20
-5.94132049894597
 30
0
 11
-740.1571397280379
 21
112.058679501054
 31
0
  0
LINE
  8
1
 62
7
 10
-570.1571397280379
 20
98.05867950105392
 30
0
 11
-601.1571397280379
 21
98.05867950105403
 31
0
  0
LINE
  8
1
 62
7
 10
-619.1571397280379
 20
125.058679501054
 30
0
 11
-580.3571397280379
 21
125.058679501054
 31
0
  0
LINE
  8
1
 62
3
  6
DASHDOT
 10
-621.0989015699498
 20
128.058679501054
 30
0
 11
-578.4161346726478
 21
128.058679501054
 31
0
  0
LINE
  8
1
 62
7
 10
-618.1571397280379
 20
130.458679501054
 30
0
 11
-619.1571397280379
 21
129.458679501054
 31
0
  0
LINE
  8
1
 62
7
 10
-570.1571397280379
 20
124.558679501054
 30
0
 11
-571.1571397280379
 21
125.558679501054
 31
0
  0
LINE
  8
1
 62
7
 10
-601.1571397280379
 20
7.05867950105403
 30
0
 11
-601.1571397280379
 21
99.05867950105403
 31
0
  0
LINE
  8
1
 62
7
 10
-609.1571397280379
 20
7.05867950105403
 30
0
 11
-609.1571397280379
 21
99.05867950105403
 31
0
  0
LINE
  8
1
 62
7
 10
-661.1571397280379
 20
7.05867950105403
 30
0
 11
-661.1571397280379
 21
99.058679501054
 31
0
  0
LINE
  8
1
 62
7
 10
-669.1571397280379
 20
7.058679501054012
 30
0
 11
-669.1571397280379
 21
99.05867950105403
 31
0
  0
LINE
  8
1
 62
7
 10
-609.1571397280379
 20
99.05867950105403
 30
0
 11
-601.1571397280379
 21
99.05867950105403
 31
0
  0
LINE
  8
1
 62
7
 10
-669.1571397280379
 20
99.05867950105403
 30
0
 11
-661.1571397280379
 21
99.058679501054
 31
0
  0
LINE
  8
1
 62
7
 10
-740.1571397280379
 20
98.05867950105392
 30
0
 11
-669.1571397280379
 21
98.05867950105403
 31
0
  0
LINE
  8
1
 62
7
 10
-661.1571397280379
 20
98.058679501054
 30
0
 11
-609.1571397280379
 21
98.05867950105403
 31
0
  0
LINE
  8
1
 62
7
 10
-624.1571397280379
 20
184.058679501054
 30
0
 11
-619.1571397280379
 21
184.058679501054
 31
0
  0
LINE
  8
1
 62
7
 10
-624.1571397280379
 20
187.258679501054
 30
0
 11
-624.1571397280379
 21
184.058679501054
 31
0
  0
LINE
  8
1
 62
7
 10
-639.1571397280379
 20
187.258679501054
 30
0
 11
-624.1571397280379
 21
187.258679501054
 31
0
  0
LINE
  8
1
 62
7
 10
-639.1571397280379
 20
170.558679501054
 30
0
 11
-639.1571397280379
 21
187.258679501054
 31
0
  0
LINE
  8
1
 62
7
 10
-639.1571397280379
 20
137.258679501054
 30
0
 11
-639.1571397280379
 21
170.558679501054
 31
0
  0
LINE
  8
1
 62
7
 10
-663.1571397280379
 20
137.258679501054
 30
0
 11
-639.1571397280379
 21
137.258679501054
 31
0
  0
LINE
  8
1
 62
7
 10
-664.1571397280379
 20
122.058679501054
 30
0
 11
-664.1571397280379
 21
136.258679501054
 31
0
  0
LINE
  8
1
 62
7
 10
-665.1571397280379
 20
122.058679501054
 30
0
 11
-664.1571397280379
 21
122.058679501054
 31
0
  0
LINE
  8
1
 62
7
 10
-619.1571397280379
 20
115.058679501054
 30
0
 11
-664.1571397280379
 21
115.058679501054
 31
0
  0
LINE
  8
1
 62
7
 10
-641.1571397280379
 20
138.058679501054
 30
0
 11
-665.1571397280379
 21
138.058679501054
 31
0
  0
LINE
  8
1
 62
7
 10
-641.1571397280379
 20
162.058679501054
 30
0
 11
-641.1571397280379
 21
138.058679501054
 31
0
  0
LINE
  8
1
 62
7
 10
-641.1571397280379
 20
188.058679501054
 30
0
 11
-641.1571397280379
 21
162.058679501054
 31
0
  0
LINE
  8
1
 62
7
 10
-624.1571397280379
 20
188.058679501054
 30
0
 11
-641.1571397280379
 21
188.058679501054
 31
0
  0
LINE
  8
1
 62
7
 10
-624.1571397280379
 20
191.058679501054
 30
0
 11
-624.1571397280379
 21
188.058679501054
 31
0
  0
LINE
  8
1
 62
7
 10
-715.1571397280379
 20
198.058679501054
 30
0
 11
-631.1571397280379
 21
198.058679501054
 31
0
  0
LINE
  8
1
 62
7
 10
-624.1571397280379
 20
191.058679501054
 30
0
 11
-631.1571397280379
 21
198.058679501054
 31
0
  0
LINE
  8
1
 62
7
 10
-732.6571397280379
 20
162.058679501054
 30
0
 11
-715.1571397280379
 21
162.058679501054
 31
0
  0
LINE
  8
1
 62
7
 10
-663.1571397280379
 20
137.258679501054
 30
0
 11
-664.1571397280379
 21
136.258679501054
 31
0
  0
LINE
  8
1
 62
7
 10
-620.1571397280379
 20
115.058679501054
 30
0
 11
-619.1571397280379
 21
116.058679501054
 31
0
  0
LINE
  8
1
 62
7
 10
-693.1571397280379
 20
135.8529081351139
 30
0
 11
-683.6571397280379
 21
135.8529081351139
 31
0
  0
LINE
  8
1
 62
7
 10
-665.1571397280379
 20
135.8529081351139
 30
0
 11
-674.6571397280379
 21
135.8529081351139
 31
0
  0
LINE
  8
1
 62
7
 10
-665.1571397280379
 20
120.2644508669941
 30
0
 11
-674.6571397280379
 21
120.2644508669941
 31
0
  0
LINE
  8
1
 62
7
 10
-693.1571397280379
 20
120.2644508669941
 30
0
 11
-683.6571397280379
 21
120.2644508669941
 31
0
  0
LINE
  8
1
 62
3
 10
-689.0571397280378
 20
128.058679501054
 30
0
 11
-669.2571397280379
 21
128.058679501054
 31
0
  0
LINE
  8
1
 62
3
 10
-679.1571397280379
 20
118.1586795010541
 30
0
 11
-679.1571397280379
 21
137.958679501054
 31
0
  0
LINE
  8
1
 62
7
 10
-665.1571397280379
 20
113.058679501054
 30
0
 11
-665.1571397280379
 21
143.058679501054
 31
0
  0
LINE
  8
1
 62
7
 10
-664.1571397280379
 20
113.058679501054
 30
0
 11
-721.1571397280379
 21
113.058679501054
 31
0
  0
LINE
  8
1
 62
7
 10
-576.1571397280379
 20
135.1586795010541
 30
0
 11
-576.1571397280379
 21
123.558679501054
 31
0
  0
LINE
  8
1
 62
7
 10
-580.1571397280379
 20
123.558679501054
 30
0
 11
-580.1571397280379
 21
138.558679501054
 31
0
  0
LINE
  8
1
 62
7
 10
-580.1571397280379
 20
135.1586795010541
 30
0
 11
-576.1571397280379
 21
135.1586795010541
 31
0
  0
LINE
  8
1
 62
7
 10
-574.7571397280379
 20
138.558679501054
 30
0
 11
-580.1571397280379
 21
138.558679501054
 31
0
  0
LINE
  8
1
 62
7
 10
-589.7571397280379
 20
184.058679501054
 30
0
 11
-577.7571397280379
 21
184.058679501054
 31
0
  0
LINE
  8
1
 62
7
 10
-572.7571397280379
 20
179.058679501054
 30
0
 11
-577.7571397280379
 21
184.058679501054
 31
0
  0
LINE
  8
1
 62
7
 10
-589.7571397280379
 20
184.058679501054
 30
0
 11
-590.7571397280379
 21
183.058679501054
 31
0
  0
LINE
  8
1
 62
7
 10
-574.7571397280379
 20
138.558679501054
 30
0
 11
-572.7571397280379
 21
140.558679501054
 31
0
  0
LINE
  8
1
 62
7
 10
-572.7571397280379
 20
131.058679501054
 30
0
 11
-572.7571397280379
 21
179.058679501054
 31
0
  0
LINE
  8
1
 62
7
 10
-574.7571397280379
 20
131.058679501054
 30
0
 11
-574.7571397280379
 21
138.558679501054
 31
0
  0
LINE
  8
1
 62
7
 10
-619.1571397280379
 20
115.058679501054
 30
0
 11
-619.1571397280379
 21
198.058679501054
 31
0
  0
LINE
  8
1
 62
7
 10
-590.7571397280379
 20
125.058679501054
 30
0
 11
-590.7571397280379
 21
198.058679501054
 31
0
  0
LINE
  8
1
 62
7
 10
-619.1571397280379
 20
198.058679501054
 30
0
 11
-590.7571397280379
 21
198.058679501054
 31
0
  0
LINE
  8
1
 62
3
 10
-619.1571397280379
 20
125.058679501054
 30
0
 11
-590.7571397280379
 21
198.058679501054
 31
0
  0
LINE
  8
1
 62
3
 10
-590.7571397280379
 20
125.058679501054
 30
0
 11
-619.1571397280379
 21
198.058679501054
 31
0
  0
LINE
  8
1
 62
7
 10
-739.1571397280379
 20
113.058679501054
 30
0
 11
-740.1571397280379
 21
112.058679501054
 31
0
  0
LINE
  8
1
 62
7
 10
-1034.657139728038
 20
177.658679501054
 30
0
 11
-1034.657139728038
 21
168.458679501054
 31
0
  0
LINE
  8
1
 62
7
 10
-1033.357139728038
 20
192.1127912462958
 30
0
 11
-1033.357139728038
 21
161.1368121142628
 31
0
  0
LINE
  8
1
 62
7
 10
-1032.157139728038
 20
253.058679501054
 30
0
 11
-1032.157139728038
 21
192.1127912462958
 31
0
  0
LINE
  8
1
 62
7
 10
-1030.157139728038
 20
161.1368121142628
 30
0
 11
-1030.157139728038
 21
192.1127912462958
 31
0
  0
LINE
  8
1
 62
7
 10
-1030.157139728038
 20
192.1127912462958
 30
0
 11
-1033.357139728038
 21
192.1127912462958
 31
0
  0
LINE
  8
1
 62
7
 10
-1032.157139728038
 20
161.1368121142628
 30
0
 11
-1030.157139728038
 21
161.1368121142628
 31
0
  0
LINE
  8
1
 62
7
 10
-1030.157139728038
 20
161.1368121142628
 30
0
 11
-1030.157139728038
 21
173.058679501054
 31
0
  0
LINE
  8
1
 62
7
 10
-1030.157139728038
 20
161.1368121142628
 30
0
 11
-1033.357139728038
 21
161.1368121142628
 31
0
  0
LINE
  8
1
 62
7
 10
-1033.357139728038
 20
162.3395642406977
 30
0
 11
-1050.157139728038
 21
162.3395642406976
 31
0
  0
LINE
  8
1
 62
7
 10
-1050.157139728038
 20
162.3395642406976
 30
0
 11
-1050.157139728038
 21
253.058679501054
 31
0
  0
LINE
  8
1
 62
7
 10
-1050.157139728038
 20
253.058679501054
 30
0
 11
-1032.157139728038
 21
253.058679501054
 31
0
  0
LINE
  8
1
 62
7
 10
-1050.157139728038
 20
162.058679501054
 30
0
 11
-1033.357139728038
 21
162.058679501054
 31
0
  0
LINE
  8
1
 62
7
 10
-1038.438023312664
 20
276.161435740442
 30
0
 11
-1038.438023312664
 21
271.161435740442
 31
0
  0
LINE
  8
1
 62
7
 10
-1038.857541747977
 20
276.161435740442
 30
0
 11
-1038.857541747977
 21
271.161435740442
 31
0
  0
LINE
  8
1
 62
7
 10
-1039.82905812449
 20
276.161435740442
 30
0
 11
-1039.82905812449
 21
271.161435740442
 31
0
  0
LINE
  8
1
 62
7
 10
-1039.519939277417
 20
276.161435740442
 30
0
 11
-1039.519939277417
 21
271.161435740442
 31
0
  0
LINE
  8
1
 62
7
 10
-1039.157139728038
 20
276.161435740442
 30
0
 11
-1039.157139728038
 21
271.161435740442
 31
0
  0
LINE
  8
1
 62
7
 10
-1037.842139728038
 20
253.058679501054
 30
0
 11
-1037.842139728038
 21
271.161435740442
 31
0
  0
LINE
  8
1
 62
7
 10
-1040.472139728038
 20
271.161435740442
 30
0
 11
-1040.472139728038
 21
253.058679501054
 31
0
  0
LINE
  8
1
 62
7
 10
-1040.472139728038
 20
271.161435740442
 30
0
 11
-1037.842139728038
 21
271.161435740442
 31
0
  0
LINE
  8
1
 62
7
 10
-1033.357139728038
 20
173.058679501054
 30
0
 11
-1034.657139728038
 21
171.758679501054
 31
0
  0
LINE
  8
1
 62
7
 10
-1033.357139728038
 20
174.358679501054
 30
0
 11
-1034.657139728038
 21
173.058679501054
 31
0
  0
LINE
  8
1
 62
7
 10
-1033.357139728038
 20
168.458679501054
 30
0
 11
-1034.657139728038
 21
168.458679501054
 31
0
  0
LINE
  8
1
 62
7
 10
-1034.657139728038
 20
177.658679501054
 30
0
 11
-1033.357139728038
 21
177.658679501054
 31
0
  0
LINE
  8
1
 62
7
 10
-1034.657139728038
 20
168.808679501054
 30
0
 11
-1039.357139728038
 21
168.808679501054
 31
0
  0
LINE
  8
1
 62
7
 10
-1039.357139728038
 20
168.808679501054
 30
0
 11
-1039.657139728038
 21
169.3282947433247
 31
0
  0
LINE
  8
1
 62
7
 10
-1039.657139728038
 20
169.3282947433247
 30
0
 11
-1039.657139728038
 21
176.7890642587833
 31
0
  0
LINE
  8
1
 62
7
 10
-1039.657139728038
 20
176.7890642587833
 30
0
 11
-1039.357139728038
 21
177.308679501054
 31
0
  0
LINE
  8
1
 62
7
 10
-1039.357139728038
 20
177.308679501054
 30
0
 11
-1034.657139728038
 21
177.308679501054
 31
0
  0
LINE
  8
1
 62
7
 10
-1039.357139728038
 20
168.808679501054
 30
0
 11
-1039.357139728038
 21
177.308679501054
 31
0
  0
LINE
  8
1
 62
7
 10
-715.1571397280379
 20
165.339679501054
 30
0
 11
-715.1571397280379
 21
192.3937912462958
 31
0
  0
LINE
  8
1
 62
7
 10
-735.1571397280379
 20
253.0587947614104
 30
0
 11
-725.472139728038
 21
253.0587947614104
 31
0
  0
LINE
  8
1
 62
7
 10
-723.4380233126639
 20
276.1615510007983
 30
0
 11
-723.438023312664
 21
271.1615510007983
 31
0
  0
LINE
  8
1
 62
7
 10
-723.8575417479769
 20
276.1615510007983
 30
0
 11
-723.8575417479769
 21
271.1615510007983
 31
0
  0
LINE
  8
1
 62
7
 10
-724.8290581244899
 20
276.1615510007983
 30
0
 11
-724.8290581244901
 21
271.1615510007983
 31
0
  0
LINE
  8
1
 62
7
 10
-724.5199392774171
 20
276.1615510007983
 30
0
 11
-724.5199392774171
 21
271.1615510007983
 31
0
  0
LINE
  8
1
 62
7
 10
-724.1571397280379
 20
276.1615510007983
 30
0
 11
-724.1571397280379
 21
271.1615510007983
 31
0
  0
LINE
  8
1
 62
7
 10
-725.472139728038
 20
271.1615510007983
 30
0
 11
-725.472139728038
 21
185.0687947614104
 31
0
  0
LINE
  8
1
 62
7
 10
-725.472139728038
 20
271.1615510007983
 30
0
 11
-722.8421397280381
 21
271.1615510007983
 31
0
  0
LINE
  8
1
 62
7
 10
-735.1571397280379
 20
162.339679501054
 30
0
 11
-735.1571397280379
 21
253.0587947614104
 31
0
  0
LINE
  8
1
 62
7
 10
-715.1571397280379
 20
192.1129065066522
 30
0
 11
-717.1571397280379
 21
192.1129065066522
 31
0
  0
LINE
  8
1
 62
7
 10
-735.1571397280379
 20
162.339679501054
 30
0
 11
-715.1571397280379
 21
162.339679501054
 31
0
  0
LINE
  8
1
 62
7
 10
-717.1571397280379
 20
192.1129065066522
 30
0
 11
-717.1571397280379
 21
253.0587947614104
 31
0
  0
LINE
  8
1
 62
7
 10
-731.9571397280379
 20
162.339679501054
 30
0
 11
-731.9571397280379
 21
253.0587947614104
 31
0
  0
LINE
  8
1
 62
7
 10
-719.8421397280381
 20
182.3687947614103
 30
0
 11
-715.1571397280379
 21
182.3687947614103
 31
0
  0
LINE
  8
1
 62
7
 10
-720.1521397280379
 20
179.7487947614103
 30
0
 11
-715.1571397280379
 21
179.7487947614103
 31
0
  0
LINE
  8
1
 62
7
 10
-722.8421397280381
 20
185.3687947614103
 30
0
 11
-722.8421397280381
 21
271.1615510007983
 31
0
  0
LINE
  8
1
 62
7
 10
-722.8421397280381
 20
253.0587947614104
 30
0
 11
-717.1571397280379
 21
253.0587947614104
 31
0
  0
LINE
  8
1
 62
7
  6
DASHED
 10
-230.3256217608484
 20
105.7186245929896
 30
0
 11
-249.7829906399062
 21
86.26125571393175
 31
0
  0
LINE
  8
1
 62
7
  6
DASHED
 10
-227.4971946361023
 20
102.8901974682435
 30
0
 11
-246.9545635151601
 21
83.43282858918565
 31
0
  0
LINE
  8
1
 62
3
  6
DASHDOT
 10
-226.1141214989644
 20
107.1016977301275
 30
0
 11
-250.805085341714
 21
82.41073388737789
 31
0
  0
LINE
  8
1
 62
7
 10
-282.7871397280379
 20
198.0328690191208
 30
0
 11
-282.7871397280379
 21
271.161435740442
 31
0
  0
LINE
  8
1
 62
7
 10
-277.5271397280381
 20
198.0343654121029
 30
0
 11
-277.5271397280381
 21
271.161435740442
 31
0
  0
LINE
  8
1
 62
7
 10
-292.657139728038
 20
253.058679501054
 30
0
 11
-282.7871397280379
 21
253.058679501054
 31
0
  0
LINE
  8
1
 62
7
 10
-277.5271397280381
 20
253.058679501054
 30
0
 11
-267.657139728038
 21
253.058679501054
 31
0
  0
LINE
  8
1
 62
7
 10
-280.7530233126639
 20
276.161435740442
 30
0
 11
-280.7530233126639
 21
271.161435740442
 31
0
  0
LINE
  8
1
 62
7
 10
-281.1725417479768
 20
276.161435740442
 30
0
 11
-281.1725417479768
 21
271.161435740442
 31
0
  0
LINE
  8
1
 62
7
 10
-282.14405812449
 20
276.161435740442
 30
0
 11
-282.14405812449
 21
271.161435740442
 31
0
  0
LINE
  8
1
 62
7
 10
-281.8349392774169
 20
276.161435740442
 30
0
 11
-281.8349392774169
 21
271.161435740442
 31
0
  0
LINE
  8
1
 62
7
 10
-281.4721397280379
 20
276.161435740442
 30
0
 11
-281.4721397280379
 21
271.161435740442
 31
0
  0
LINE
  8
1
 62
7
 10
-278.123023312664
 20
276.161435740442
 30
0
 11
-278.123023312664
 21
271.161435740442
 31
0
  0
LINE
  8
1
 62
7
 10
-278.5425417479769
 20
276.161435740442
 30
0
 11
-278.5425417479769
 21
271.161435740442
 31
0
  0
LINE
  8
1
 62
7
 10
-279.5140581244901
 20
276.161435740442
 30
0
 11
-279.5140581244901
 21
271.161435740442
 31
0
  0
LINE
  8
1
 62
7
 10
-279.2049392774171
 20
276.161435740442
 30
0
 11
-279.2049392774171
 21
271.161435740442
 31
0
  0
LINE
  8
1
 62
7
 10
-278.842139728038
 20
276.161435740442
 30
0
 11
-278.842139728038
 21
271.161435740442
 31
0
  0
LINE
  8
1
 62
7
 10
-280.157139728038
 20
271.161435740442
 30
0
 11
-280.1571397280379
 21
198.058679501054
 31
0
  0
LINE
  8
1
 62
7
 10
-277.5271397280381
 20
271.161435740442
 30
0
 11
-282.7871397280379
 21
271.161435740442
 31
0
  0
LINE
  8
1
 62
7
 10
-289.4571397280379
 20
197.7601307722835
 30
0
 11
-289.4571397280379
 21
253.058679501054
 31
0
  0
LINE
  8
1
 62
7
 10
-270.857139728038
 20
197.7601307722835
 30
0
 11
-270.857139728038
 21
253.058679501054
 31
0
  0
LINE
  8
1
 62
7
 10
-292.657139728038
 20
197.5188816329907
 30
0
 11
-292.657139728038
 21
253.058679501054
 31
0
  0
LINE
  8
1
 62
7
 10
-267.657139728038
 20
197.5188816329907
 30
0
 11
-267.657139728038
 21
253.058679501054
 31
0
  0
LINE
  8
1
 62
3
  6
DASHDOT
 10
-390.9817302014951
 20
117.0432866437345
 30
0
 11
-411.1423917510327
 21
128.683050016401
 31
0
  0
LINE
  8
1
 62
7
 10
-402.4055057294761
 20
106.3182984442874
 30
0
 11
-387.4055057294761
 21
132.2990605578206
 31
0
  0
LINE
  8
1
 62
7
 10
-387.4055057294761
 20
132.2990605578206
 30
0
 11
-397.5570996960059
 21
138.1600860671004
 31
0
  0
LINE
  8
1
 62
7
 10
-402.4055057294761
 20
106.3182984442874
 30
0
 11
-412.5570996960059
 21
112.1793239535672
 31
0
  0
LINE
  8
1
 62
7
 10
-387.4055057294761
 20
-26.18170155571267
 30
0
 11
-402.4055057294761
 21
-0.2009394421795169
 31
0
  0
LINE
  8
1
 62
7
 10
-402.4055057294761
 20
-0.2009394421795169
 30
0
 11
-412.5570996960059
 21
-6.061964951459307
 31
0
  0
LINE
  8
1
 62
7
 10
-387.4055057294761
 20
-26.18170155571267
 30
0
 11
-397.5570996960059
 21
-32.04272706499246
 31
0
  0
LINE
  8
1
 62
7
 10
-265.1571397280377
 20
-79.44132049894603
 30
0
 11
-295.1571397280377
 21
-79.44132049894604
 31
0
  0
LINE
  8
1
 62
7
 10
-295.1571397280377
 20
-79.44132049894604
 30
0
 11
-295.1571397280377
 21
-91.16337151750561
 31
0
  0
LINE
  8
1
 62
7
 10
-265.1571397280377
 20
-79.44132049894603
 30
0
 11
-265.1571397280377
 21
-91.1633715175056
 31
0
  0
LINE
  8
1
 62
7
 10
-157.9087737265996
 20
-0.2009394421793618
 30
0
 11
-172.9087737265996
 21
-26.18170155571253
 31
0
  0
LINE
  8
1
 62
7
 10
-172.9087737265996
 20
-26.18170155571253
 30
0
 11
-162.7571797600697
 21
-32.04272706499231
 31
0
  0
LINE
  8
1
 62
7
 10
-157.9087737265996
 20
-0.2009394421793618
 30
0
 11
-147.7571797600697
 21
-6.061964951459143
 31
0
  0
LINE
  8
1
 62
7
 10
-172.9087737265997
 20
132.2990605578206
 30
0
 11
-157.9087737265997
 21
106.3182984442875
 31
0
  0
LINE
  8
1
 62
7
 10
-157.9087737265997
 20
106.3182984442875
 30
0
 11
-147.7571797600698
 21
112.1793239535672
 31
0
  0
LINE
  8
1
 62
7
 10
-172.9087737265997
 20
132.2990605578206
 30
0
 11
-162.7571797600698
 21
138.1600860671004
 31
0
  0
LINE
  8
1
 62
7
 10
-295.157139728038
 20
185.558679501054
 30
0
 11
-265.157139728038
 21
185.558679501054
 31
0
  0
LINE
  8
1
 62
7
 10
-265.157139728038
 20
185.558679501054
 30
0
 11
-265.157139728038
 21
197.2807305196136
 31
0
  0
LINE
  8
1
 62
7
 10
-295.157139728038
 20
185.558679501054
 30
0
 11
-295.1571397280381
 21
197.2807305196136
 31
0
  0
LINE
  8
1
 62
7
 10
-292.6571397280379
 20
96.28772066553046
 30
0
 11
-292.6571397280379
 21
103.058679501054
 31
0
  0
LINE
  8
1
 62
7
 10
-267.6571397280379
 20
96.28772066553046
 30
0
 11
-267.6571397280379
 21
103.058679501054
 31
0
  0
LINE
  8
1
 62
7
 10
-292.6571397280379
 20
103.058679501054
 30
0
 11
-267.6571397280379
 21
103.058679501054
 31
0
  0
LINE
  8
1
 62
3
  6
DASHDOT
 10
-390.9817302014951
 20
-10.92592764162662
 30
0
 11
-411.1423917510327
 21
-22.56569101429309
 31
0
  0
LINE
  8
1
 62
3
  6
DASHDOT
 10
-280.1571397280378
 20
-74.91053478430717
 30
0
 11
-280.1571397280379
 21
-98.19006152964015
 31
0
  0
LINE
  8
1
 62
3
  6
DASHDOT
 10
-169.3325492545807
 20
-10.92592764162657
 30
0
 11
-149.1718877050429
 21
-22.56569101429294
 31
0
  0
LINE
  8
1
 62
3
  6
DASHDOT
 10
-169.3325492545806
 20
117.0432866437345
 30
0
 11
-149.171887705043
 21
128.683050016401
 31
0
  0
LINE
  8
1
 62
3
  6
DASHDOT
 10
-280.1571397280378
 20
181.0278937864151
 30
0
 11
-280.1571397280379
 21
198.058679501054
 31
0
  0
LINE
  8
1
 62
3
  6
DASHDOT
 10
-262.395608689831
 20
53.058679501054
 30
0
 11
-297.9186707662447
 21
53.058679501054
 31
0
  0
LINE
  8
1
 62
3
  6
DASHDOT
 10
-280.1571397280379
 20
70.82021053926084
 30
0
 11
-280.1571397280379
 21
35.29714846284716
 31
0
  0
LINE
  8
1
 62
7
  6
DASHED
 10
-332.8170848199734
 20
102.8901974682435
 30
0
 11
-313.3597159409156
 21
83.43282858918559
 31
0
  0
LINE
  8
1
 62
7
  6
DASHED
 10
-329.9886576952273
 20
105.7186245929896
 30
0
 11
-310.5312888161695
 21
86.26125571393169
 31
0
  0
LINE
  8
1
 62
3
  6
DASHDOT
 10
-334.2001579571113
 20
107.1016977301275
 30
0
 11
-309.5091941143617
 21
82.41073388737783
 31
0
  0
LINE
  8
1
 62
7
  6
DASHED
 10
-329.9886576952273
 20
0.3987344091183902
 30
0
 11
-310.5312888161695
 21
19.85610328817624
 31
0
  0
LINE
  8
1
 62
7
  6
DASHED
 10
-332.8170848199734
 20
3.22716153386449
 30
0
 11
-313.3597159409156
 21
22.68453041292234
 31
0
  0
LINE
  8
1
 62
3
  6
DASHDOT
 10
-334.2001579571113
 20
-0.9843387280195081
 30
0
 11
-309.5091941143617
 21
23.7066251147301
 31
0
  0
LINE
  8
1
 62
7
  6
DASHED
 10
-227.4971946361023
 20
3.22716153386447
 30
0
 11
-246.9545635151601
 21
22.68453041292234
 31
0
  0
LINE
  8
1
 62
7
  6
DASHED
 10
-230.3256217608483
 20
0.3987344091183711
 30
0
 11
-249.7829906399062
 21
19.85610328817624
 31
0
  0
LINE
  8
1
 62
3
  6
DASHDOT
 10
-226.1141214989644
 20
-0.9843387280194601
 30
0
 11
-250.8050853417139
 21
23.7066251147301
 31
0
  0
LINE
  8
1
 62
7
 10
-1345.753023312664
 20
276.161435740442
 30
0
 11
-1345.753023312664
 21
271.161435740442
 31
0
  0
LINE
  8
1
 62
7
 10
-1346.172541747977
 20
276.161435740442
 30
0
 11
-1346.172541747977
 21
271.161435740442
 31
0
  0
LINE
  8
1
 62
7
 10
-1347.14405812449
 20
276.161435740442
 30
0
 11
-1347.14405812449
 21
271.161435740442
 31
0
  0
LINE
  8
1
 62
7
 10
-1346.834939277417
 20
276.161435740442
 30
0
 11
-1346.834939277417
 21
271.161435740442
 31
0
  0
LINE
  8
1
 62
7
 10
-1346.472139728038
 20
276.161435740442
 30
0
 11
-1346.472139728038
 21
271.161435740442
 31
0
  0
LINE
  8
1
 62
7
 10
-1347.787139728038
 20
253.058679501054
 30
0
 11
-1347.787139728038
 21
271.161435740442
 31
0
  0
LINE
  8
1
 62
7
 10
-1343.123023312664
 20
276.161435740442
 30
0
 11
-1343.123023312664
 21
271.161435740442
 31
0
  0
LINE
  8
1
 62
7
 10
-1343.542541747977
 20
276.161435740442
 30
0
 11
-1343.542541747977
 21
271.161435740442
 31
0
  0
LINE
  8
1
 62
7
 10
-1344.51405812449
 20
276.161435740442
 30
0
 11
-1344.51405812449
 21
271.161435740442
 31
0
  0
LINE
  8
1
 62
7
 10
-1344.204939277417
 20
276.161435740442
 30
0
 11
-1344.204939277417
 21
271.161435740442
 31
0
  0
LINE
  8
1
 62
7
 10
-1343.842139728038
 20
276.161435740442
 30
0
 11
-1343.842139728038
 21
271.161435740442
 31
0
  0
LINE
  8
1
 62
7
 10
-1345.157139728038
 20
271.161435740442
 30
0
 11
-1345.157139728038
 21
253.058679501054
 31
0
  0
LINE
  8
1
 62
7
 10
-1342.527139728038
 20
253.058679501054
 30
0
 11
-1342.527139728038
 21
271.161435740442
 31
0
  0
LINE
  8
1
 62
7
 10
-1342.527139728038
 20
271.161435740442
 30
0
 11
-1347.787139728038
 21
271.161435740442
 31
0
  0
LINE
  8
1
 62
7
 10
-1357.657139728038
 20
96.28772066553046
 30
0
 11
-1357.657139728038
 21
103.058679501054
 31
0
  0
LINE
  8
1
 62
7
 10
-1332.657139728038
 20
96.28772066553046
 30
0
 11
-1332.657139728038
 21
103.058679501054
 31
0
  0
LINE
  8
1
 62
7
 10
-1357.657139728038
 20
103.058679501054
 30
0
 11
-1332.657139728038
 21
103.058679501054
 31
0
  0
LINE
  8
1
 62
3
  6
DASHDOT
 10
-1327.395608689831
 20
53.058679501054
 30
0
 11
-1362.918670766245
 21
53.058679501054
 31
0
  0
LINE
  8
1
 62
3
  6
DASHDOT
 10
-1345.157139728038
 20
70.82021053926084
 30
0
 11
-1345.157139728038
 21
35.29714846284716
 31
0
  0
LINE
  8
1
 62
3
 10
-570.1571397280379
 20
53.058679501054
 30
0
 11
-567.1571397280379
 21
53.058679501054
 31
0
  0
LINE
  8
1
 62
3
 10
-743.1571397280379
 20
53.058679501054
 30
0
 11
-740.1571397280379
 21
53.058679501054
 31
0
  0
LINE
  8
1
 62
3
 10
-885.1571397280379
 20
53.058679501054
 30
0
 11
-882.1571397280379
 21
53.058679501054
 31
0
  0
LINE
  8
1
 62
3
 10
-1055.157139728038
 20
53.058679501054
 30
0
 11
-1058.157139728038
 21
53.058679501054
 31
0
  0
LINE
  8
1
 62
7
 10
-1372.657139728038
 20
182.0967597740728
 30
0
 11
-1372.657139728038
 21
167.0310212489348
 31
0
  0
LINE
  8
1
 62
7
 10
-1357.657139728038
 20
253.058679501054
 30
0
 11
-1357.657139728038
 21
162.3395642406976
 31
0
  0
LINE
  8
1
 62
7
 10
-1317.657139728038
 20
182.0967597740728
 30
0
 11
-1317.657139728038
 21
167.0310212489348
 31
0
  0
LINE
  8
1
 62
7
 10
-1357.657139728038
 20
253.058679501054
 30
0
 11
-1332.657139728038
 21
253.058679501054
 31
0
  0
LINE
  8
1
 62
7
 10
-1332.657139728038
 20
162.3395642406976
 30
0
 11
-1332.657139728038
 21
253.058679501054
 31
0
  0
LINE
  8
1
 62
7
 10
-1357.657139728038
 20
162.3395642406976
 30
0
 11
-1332.657139728038
 21
162.3395642406976
 31
0
  0
LINE
  8
1
 62
7
 10
-1255.624126099568
 20
142.5916931295237
 30
0
 11
-1260.08554638617
 21
143.7871270924144
 31
0
  0
LINE
  8
1
 62
7
 10
-1260.08554638617
 20
143.7871270924144
 30
0
 11
-1263.351532709881
 21
140.5211407687035
 31
0
  0
LINE
  8
1
 62
7
 10
-1263.351532709881
 20
140.5211407687035
 30
0
 11
-1262.15609874699
 21
136.0597204821019
 31
0
  0
LINE
  8
1
 62
7
 10
-1262.15609874699
 20
136.0597204821019
 30
0
 11
-1257.694678460388
 21
134.8642865192111
 31
0
  0
LINE
  8
1
 62
7
 10
-1257.694678460388
 20
134.8642865192111
 30
0
 11
-1254.428692136677
 21
138.130272842922
 31
0
  0
LINE
  8
1
 62
7
 10
-1254.428692136677
 20
138.130272842922
 30
0
 11
-1255.624126099568
 21
142.5916931295237
 31
0
  0
LINE
  8
1
 62
7
 10
-1434.690153356508
 20
142.5916931295237
 30
0
 11
-1435.885587319398
 21
138.1302728429221
 31
0
  0
LINE
  8
1
 62
7
 10
-1435.885587319398
 20
138.1302728429221
 30
0
 11
-1432.619600995688
 21
134.8642865192112
 31
0
  0
LINE
  8
1
 62
7
 10
-1432.619600995688
 20
134.8642865192112
 30
0
 11
-1428.158180709086
 21
136.059720482102
 31
0
  0
LINE
  8
1
 62
7
 10
-1428.158180709086
 20
136.059720482102
 30
0
 11
-1426.962746746195
 21
140.5211407687036
 31
0
  0
LINE
  8
1
 62
7
 10
-1426.962746746195
 20
140.5211407687036
 30
0
 11
-1430.228733069906
 21
143.7871270924145
 31
0
  0
LINE
  8
1
 62
7
 10
-1430.228733069906
 20
143.7871270924145
 30
0
 11
-1434.690153356508
 21
142.5916931295237
 31
0
  0
LINE
  8
1
 62
7
 10
-1434.690153356508
 20
-36.4743341274157
 30
0
 11
-1430.228733069906
 21
-37.66976809030645
 31
0
  0
LINE
  8
1
 62
7
 10
-1430.228733069906
 20
-37.66976809030645
 30
0
 11
-1426.962746746195
 21
-34.40378176659554
 31
0
  0
LINE
  8
1
 62
7
 10
-1426.962746746195
 20
-34.40378176659554
 30
0
 11
-1428.158180709086
 21
-29.94236147999389
 31
0
  0
LINE
  8
1
 62
7
 10
-1428.158180709086
 20
-29.94236147999389
 30
0
 11
-1432.619600995688
 21
-28.74692751710314
 31
0
  0
LINE
  8
1
 62
7
 10
-1432.619600995688
 20
-28.74692751710314
 30
0
 11
-1435.885587319398
 21
-32.01291384081405
 31
0
  0
LINE
  8
1
 62
7
 10
-1435.885587319398
 20
-32.01291384081405
 30
0
 11
-1434.690153356508
 21
-36.4743341274157
 31
0
  0
LINE
  8
1
 62
7
 10
-1255.624126099568
 20
-36.47433412741569
 30
0
 11
-1254.428692136677
 21
-32.01291384081404
 31
0
  0
LINE
  8
1
 62
7
 10
-1254.428692136677
 20
-32.01291384081404
 30
0
 11
-1257.694678460388
 21
-28.74692751710316
 31
0
  0
LINE
  8
1
 62
7
 10
-1257.694678460388
 20
-28.74692751710316
 30
0
 11
-1262.15609874699
 21
-29.94236147999393
 31
0
  0
LINE
  8
1
 62
7
 10
-1262.15609874699
 20
-29.94236147999393
 30
0
 11
-1263.351532709881
 21
-34.40378176659558
 31
0
  0
LINE
  8
1
 62
7
 10
-1263.351532709881
 20
-34.40378176659558
 30
0
 11
-1260.08554638617
 21
-37.66976809030646
 31
0
  0
LINE
  8
1
 62
7
 10
-1260.08554638617
 20
-37.66976809030646
 30
0
 11
-1255.624126099568
 21
-36.47433412741569
 31
0
  0
LINE
  8
1
 62
7
 10
-1365.157139728038
 20
175.3680805778125
 30
0
 11
-1367.157139728038
 21
174.2133800394332
 31
0
  0
LINE
  8
1
 62
7
 10
-1367.157139728038
 20
174.2133800394332
 30
0
 11
-1367.157139728038
 21
171.9039789626748
 31
0
  0
LINE
  8
1
 62
7
 10
-1367.157139728038
 20
171.9039789626748
 30
0
 11
-1365.157139728038
 21
170.7492784242955
 31
0
  0
LINE
  8
1
 62
7
 10
-1365.157139728038
 20
170.7492784242955
 30
0
 11
-1363.157139728038
 21
171.9039789626748
 31
0
  0
LINE
  8
1
 62
7
 10
-1363.157139728038
 20
171.9039789626748
 30
0
 11
-1363.157139728038
 21
174.2133800394332
 31
0
  0
LINE
  8
1
 62
7
 10
-1363.157139728038
 20
174.2133800394332
 30
0
 11
-1365.157139728038
 21
175.3680805778125
 31
0
  0
LINE
  8
1
 62
7
 10
-1325.157139728038
 20
175.3680805778125
 30
0
 11
-1327.157139728038
 21
174.2133800394332
 31
0
  0
LINE
  8
1
 62
7
 10
-1327.157139728038
 20
174.2133800394332
 30
0
 11
-1327.157139728038
 21
171.9039789626748
 31
0
  0
LINE
  8
1
 62
7
 10
-1327.157139728038
 20
171.9039789626748
 30
0
 11
-1325.157139728038
 21
170.7492784242955
 31
0
  0
LINE
  8
1
 62
7
 10
-1325.157139728038
 20
170.7492784242955
 30
0
 11
-1323.157139728038
 21
171.9039789626748
 31
0
  0
LINE
  8
1
 62
7
 10
-1323.157139728038
 20
171.9039789626748
 30
0
 11
-1323.157139728038
 21
174.2133800394332
 31
0
  0
LINE
  8
1
 62
7
 10
-1323.157139728038
 20
174.2133800394332
 30
0
 11
-1325.157139728038
 21
175.3680805778125
 31
0
  0
ARC
  8
1
 62
7
 10
-719.8421397280381
 20
185.3687947614103
 30
0
 40
3
 50
180
 51
270
  0
ARC
  8
1
 62
7
 10
-720.1521397280379
 20
185.0687947614104
 30
0
 40
5.32000000000005
 50
180
 51
270
  0
ARC
  8
1
 62
7
 10
-280.1571397280379
 20
53.058679501054
 30
0
 40
45
 50
106.1276202131608
 51
73.87237978683925
  0
ARC
  8
1
 62
7
 10
-1345.157139728038
 20
53.058679501054
 30
0
 40
45
 50
106.1276202131608
 51
73.87237978683925
  0
ARC
  8
1
 62
7
 10
-1345.157139728038
 20
54.05867950105389
 30
0
 40
109.0000000000001
 50
79.22477669763821
 51
83.4148952075254
  0
ARC
  8
1
 62
7
 10
-1345.157139728038
 20
54.05867950105389
 30
0
 40
109
 50
96.58510479247458
 51
100.7752233023619
  0
ARC
  8
1
 62
7
 10
-1345.157139728038
 20
54.05867950105389
 30
0
 40
135.0000000000001
 50
80.03323369975516
 51
82.81924421854173
  0
ARC
  8
1
 62
7
 10
-1345.157139728038
 20
54.05867950105389
 30
0
 40
135.0000000000001
 50
97.18075578145827
 51
99.96676630024484
  0
ARC
  8
1
 62
7
 10
-1345.157139728038
 20
53.058679501054
 30
0
 40
145
 50
94.94542971788331
 51
85.05457028211667
  0
ARC
  8
1
 62
7
 10
-1345.157139728038
 20
53.058679501054
 30
0
 40
142
 50
95.05017921154035
 51
84.94982078845965
  0
ARC
  8
1
 62
7
 10
-1345.157139728038
 20
53.058679501054
 30
0
 40
135.0000000000001
 50
101.175042068666
 51
78.82495793133408
  0
ARC
  8
1
 62
7
 10
-1367.657139728038
 20
182.0967597740728
 30
0
 40
5.000000000000001
 50
99.96676630024895
 51
180
  0
ARC
  8
1
 62
7
 10
-1322.657139728038
 20
182.0967597740728
 30
0
 40
5
 50
0
 51
80.03323369975105
  0
ARC
  8
1
 62
7
 10
-1366.657139728038
 20
167.0310212489348
 30
0
 40
6
 50
180
 51
280.7752233023631
  0
ARC
  8
1
 62
7
 10
-1323.657139728038
 20
167.0310212489348
 30
0
 40
5.9999999999999
 50
259.2247766976346
 51
0
  0
ARC
  8
1
 62
7
 10
-1362.657139728038
 20
192.960623331945
 30
0
 40
4.999999999999976
 50
277.1807557814583
 51
0
  0
ARC
  8
1
 62
7
 10
-1327.657139728038
 20
192.960623331945
 30
0
 40
5
 50
180
 51
262.8192442185417
  0
CIRCLE
  8
1
 62
7
 10
-707.1571397280379
 20
-21.94132049894597
 30
0
 40
9
  0
CIRCLE
  8
1
 62
7
 10
-679.1571397280379
 20
-21.94132049894597
 30
0
 40
9
  0
CIRCLE
  8
1
 62
7
 10
-707.1571397280379
 20
128.058679501054
 30
0
 40
9
  0
CIRCLE
  8
1
 62
7
 10
-679.1571397280379
 20
128.058679501054
 30
0
 40
9
  0
CIRCLE
  8
1
 62
7
 10
-280.1571397280379
 20
53.058679501054
 30
0
 40
145
  0
CIRCLE
  8
1
 62
7
 10
-280.1571397280379
 20
53.058679501054
 30
0
 40
131
  0
CIRCLE
  8
1
 62
7
 10
-280.1571397280379
 20
53.058679501054
 30
0
 40
126
  0
CIRCLE
  8
1
 62
7
 10
-280.1571397280379
 20
53.058679501054
 30
0
 40
85.50000000000003
  0
CIRCLE
  8
1
 62
7
 10
-280.1571397280379
 20
53.058679501054
 30
0
 40
72.50000000000003
  0
CIRCLE
  8
1
 62
7
 10
-1345.157139728038
 20
53.058679501054
 30
0
 40
109
  0
CIRCLE
  8
1
 62
7
 10
-1345.157139728038
 20
53.058679501054
 30
0
 40
106
  0
CIRCLE
  8
1
 62
7
 10
-1345.157139728038
 20
53.058679501054
 30
0
 40
90
  0
CIRCLE
  8
1
 62
7
 10
-1345.157139728038
 20
53.058679501054
 30
0
 40
55
  0
CIRCLE
  8
1
 62
7
 10
-1258.890112423279
 20
139.3257068058128
 30
0
 40
9.200000000000046
  0
CIRCLE
  8
1
 62
7
 10
-1258.890112423279
 20
139.3257068058128
 30
0
 40
8
  0
CIRCLE
  8
1
 62
7
 10
-1431.424167032797
 20
139.3257068058128
 30
0
 40
9.200000000000046
  0
CIRCLE
  8
1
 62
7
 10
-1431.424167032797
 20
139.3257068058128
 30
0
 40
8
  0
CIRCLE
  8
1
 62
7
 10
-1431.424167032797
 20
-33.2083478037048
 30
0
 40
9.200000000000046
  0
CIRCLE
  8
1
 62
7
 10
-1431.424167032797
 20
-33.2083478037048
 30
0
 40
8
  0
CIRCLE
  8
1
 62
7
 10
-1258.890112423279
 20
-33.20834780370481
 30
0
 40
9.200000000000046
  0
CIRCLE
  8
1
 62
7
 10
-1258.890112423279
 20
-33.20834780370481
 30
0
 40
8
  0
CIRCLE
  8
1
 62
7
 10
-1365.157139728038
 20
173.058679501054
 30
0
 40
4.25
  0
CIRCLE
  8
1
 62
7
 10
-1325.157139728038
 20
173.058679501054
 30
0
 40
4.25
  0
TEXT
  8
1
 62
7
 10
-1488.36157759786
 20
397.528586513685
 30
0
 40
16
  1
MWC 160
 41
0.9
  7
SIMPLEX
  0
TEXT
  8
1
 62
7
 10
-1488.36157759786
 20
370.328586513685
 30
0
 40
16
  1
DC4328
 41
0.9
  7
SIMPLEX
  0
ENDSEC
  0
EOF
