  0
SECTION
  2
HEADER
  9
$ACADVER
  1
AC1009
  9
$INSBASE
 10
0
 20
0
  9
$EXTMIN
 10
-1355.205369135939
 20
-186.8694257125852
  9
$EXTMAX
 10
176.0572503484048
 20
392.475986386272
  9
$LIMMIN
 10
-1355.205369135939
 20
-186.8694257125852
  9
$LIMMAX
 10
176.0572503484048
 20
392.475986386272
  9
$VIEWCTR
 10
10
 20
10
  9
$VIEWSIZE
 40
10
  9
$SNAPMODE
 70
0
  9
$SNAPUNIT
 10
1
 20
1
  9
$SNAPBASE
 10
0
 20
0
  9
$SNAPANG
 50
0
  9
$SNAPSTYLE
 70
0
  9
$SNAPISOPAIR
 70
0
  9
$GRIDMODE
 70
0
  9
$GRIDUNIT
 10
0
 20
0
  9
$ORTHOMODE
 70
0
  9
$REGENMODE
 70
1
  9
$FILLMODE
 70
1
  9
$QTEXTMODE
 70
0
  9
$DRAGMODE
 70
2
  9
$LTSCALE
 40
1
  9
$OSMODE
 70
0
  9
$ATTMODE
 70
1
  9
$TEXTSIZE
 40
3.5
  9
$TRACEWID
 40
0.5
  9
$TEXTSTYLE
  7
STANDARD
  9
$CLAYER
  8
0
  9
$CELTYPE
  6
BYLAYER
  9
$CECOLOR
 62
256
  9
$DIMSCALE
 40
1
  9
$DIMASZ
 40
0.18
  9
$DIMEXO
 40
0.0625
  9
$DIMDLI
 40
0.38
  9
$DIMRND
 40
0
  9
$DIMDLE
 40
0
  9
$DIMEXE
 40
0.18
  9
$DIMTP
 40
0
  9
$DIMTM
 40
0
  9
$DIMTXT
 40
0.18
  9
$DIMCEN
 40
0.09
  9
$DIMTSZ
 40
0
  9
$DIMTOL
 70
0
  9
$DIMLIM
 70
0
  9
$DIMTIH
 70
1
  9
$DIMTOH
 70
1
  9
$DIMSE1
 70
0
  9
$DIMSE2
 70
0
  9
$DIMTAD
 70
0
  9
$DIMZIN
 70
0
  9
$DIMBLK
  1

  9
$DIMASO
 70
1
  9
$DIMSHO
 70
1
  9
$DIMPOST
  1

  9
$DIMAPOST
  1

  9
$DIMALT
 70
0
  9
$DIMALTD
 70
2
  9
$DIMALTF
 40
25.4
  9
$DIMLFAC
 40
1
  9
$DIMTOFL
 70
0
  9
$DIMTVP
 40
0
  9
$DIMTIX
 70
0
  9
$DIMSOXD
 70
0
  9
$DIMSAH
 70
0
  9
$DIMBLK1
  1

  9
$DIMBLK2
  1

  9
$DIMSTYLE
  2
*UNNAMED
  9
$DIMCLRD
 70
0
  9
$DIMCLRE
 70
0
  9
$DIMCLRT
 70
0
  9
$DIMTFAC
 40
1
  9
$DIMGAP
 40
0.09
  9
$LUNITS
 70
2
  9
$LUPREC
 70
4
  9
$AXISMODE
 70
0
  9
$AXISUNIT
 10
0
 20
0
  9
$SKETCHINC
 40
0.1
  9
$FILLETRAD
 40
2
  9
$AUNITS
 70
0
  9
$AUPREC
 70
0
  9
$MENU
  1
ACAD
  9
$ELEVATION
 40
0
  9
$THICKNESS
 40
0
  9
$VIEWDIR
 10
0
 20
0
 30
1
  9
$LIMCHECK
 70
0
  9
$BLIPMODE
 70
1
  9
$CHAMFERA
 40
0
  9
$CHAMFERB
 40
0
  9
$FASTZOOM
 70
1
  9
$SKPOLY
 70
0
  9
$ANGBASE
 50
0
  9
$ANGDIR
 70
0
  9
$PDMODE
 70
0
  9
$PDSIZE
 40
0
  9
$PLINEWID
 40
0
  9
$COORDS
 70
2
  0
ENDSEC
  0
SECTION
  2
TABLES
  0
TABLE
  2
DIMSTYLE
 70
0
  0
ENDTAB
  0
TABLE
  2
LTYPE
 70
9
  0
LTYPE
  2
CONTINUOUS
 70
64
  3
Solid line
 72
65
 73
0
 40
0
  0
LTYPE
  2
BORDER
 70
64
  3
__ __ . __ __ .
 72
65
 73
6
 40
70.51867326572636
 49
20.1481923616361
 49
-10.07409618081805
 49
20.1481923616361
 49
-10.07409618081805
 49
0
 49
-10.07409618081805
  0
LTYPE
  2
CENTER
 70
64
  3
____ _ ____ _
 72
65
 73
4
 40
80.59276944654441
 49
50.37048090409026
 49
-10.07409618081805
 49
10.07409618081805
 49
-10.07409618081805
  0
LTYPE
  2
DASHDOT
 70
64
  3
__ . __ . __ .
 72
65
 73
4
 40
40.29638472327221
 49
20.1481923616361
 49
-10.07409618081805
 49
0
 49
-10.07409618081805
  0
LTYPE
  2
DASHED
 70
64
  3
__ __ __ __ __
 72
65
 73
2
 40
30.22228854245415
 49
20.1481923616361
 49
-10.07409618081805
  0
LTYPE
  2
DIVIDE
 70
64
  3
__ . . __ . . 
 72
65
 73
6
 40
50.37048090409026
 49
20.1481923616361
 49
-10.07409618081805
 49
0
 49
-10.07409618081805
 49
0
 49
-10.07409618081805
  0
LTYPE
  2
DOT
 70
64
  3
..............
 72
65
 73
4
 40
20.1481923616361
 49
0
 49
-10.07409618081805
 49
0
 49
-10.07409618081805
  0
LTYPE
  2
HIDDEN
 70
64
  3
_ _ _ _ _ _ _
 72
65
 73
2
 40
15.11114427122708
 49
10.07409618081805
 49
-5.037048090409026
  0
LTYPE
  2
PHANTOM
 70
64
  3
_____ _ _ _____ _ _ 
 72
65
 73
6
 40
100.7409618081805
 49
50.37048090409026
 49
-10.07409618081805
 49
10.07409618081805
 49
-10.07409618081805
 49
10.07409618081805
 49
-10.07409618081805
  0
ENDTAB
  0
TABLE
  2
LAYER
 70
3
  0
LAYER
  2
1
 70
0
 62
7
  6
CONTINUOUS
  0
LAYER
  2
0
 70
0
 62
7
  6
CONTINUOUS
  0
ENDTAB
  0
TABLE
  2
STYLE
 70
4
  0
STYLE
  2
STANDARD
 70
0
 40
0
 41
1
 50
0
 71
0
 42
3.5
  3
txt
  4

  0
STYLE
  2
SIMPLEX
 70
0
 40
0
 41
1
 50
0
 71
0
 42
3.5
  3
simplex
  4

  0
STYLE
  2
COMPLEX
 70
0
 40
0
 41
1
 50
0
 71
0
 42
3.5
  3
complex
  4

  0
STYLE
  2
ITALIC
 70
0
 40
0
 41
1
 50
0
 71
0
 42
3.5
  3
italic
  4

  0
ENDTAB
  0
TABLE
  2
VIEW
 70
0
  0
ENDTAB
  0
ENDSEC
  0
SECTION
  2
BLOCKS
  0
ENDSEC
  0
SECTION
  2
ENTITIES
  0
LINE
  8
1
 62
7
 10
-415.2053691359392
 20
133.8211489992558
 30
0
 11
-396.2053691359392
 21
133.8211489992558
 31
0
  0
LINE
  8
1
 62
7
  6
DASHED
 10
47.1006006250027
 20
-52.55773518327442
 30
0
 11
71.86755759892776
 21
-77.32469215720018
 31
0
  0
LINE
  8
1
 62
7
  6
DASHED
 10
-23.52163383412517
 20
-49.02220127734161
 30
0
 11
-48.28859080805114
 21
-73.78915825126735
 31
0
  0
LINE
  8
1
 62
7
  6
DASHED
 10
-19.98609992819229
 20
21.60003318178588
 30
0
 11
-44.75305690211826
 21
46.36699015571162
 31
0
  0
LINE
  8
1
 62
3
  6
DASHDOT
 10
46.12076237845281
 20
-48.04236303079256
 30
0
 11
76.56044950425371
 21
-78.48205015659302
 31
0
  0
LINE
  8
1
 62
3
  6
DASHDOT
 10
-19.00626168164331
 20
-48.04236303079253
 30
0
 11
-49.44594880744421
 21
-78.48205015659296
 31
0
  0
LINE
  8
1
 62
3
  6
DASHDOT
 10
-19.00626168164331
 20
17.08466102930402
 30
0
 11
-49.44594880744421
 21
47.52434815510446
 31
0
  0
LINE
  8
1
 62
7
  6
DASHED
 10
50.63613453093581
 20
-49.02220127734177
 30
0
 11
75.40309150486087
 21
-73.78915825126752
 31
0
  0
LINE
  8
1
 62
7
  6
DASHED
 10
-19.98609992819229
 20
-52.55773518327442
 30
0
 11
-44.75305690211826
 21
-77.32469215720016
 31
0
  0
LINE
  8
1
 62
7
  6
DASHED
 10
-23.52163383412517
 20
18.06449927585322
 30
0
 11
-48.28859080805114
 21
42.83145624977897
 31
0
  0
LINE
  8
1
 62
7
  6
DASHED
 10
50.6361345309349
 20
18.06449927585323
 30
0
 11
75.40309150486087
 21
42.83145624977897
 31
0
  0
LINE
  8
1
 62
7
  6
DASHED
 10
47.1006006250027
 20
21.60003318178603
 30
0
 11
71.86755759892776
 21
46.36699015571178
 31
0
  0
LINE
  8
1
 62
3
  6
DASHDOT
 10
46.12076237845281
 20
17.08466102930414
 30
0
 11
76.56044950425371
 21
47.52434815510458
 31
0
  0
LINE
  8
1
 62
7
 10
-0.4427496515952498
 20
41.0211489992558
 30
0
 11
-0.4427496515952498
 21
32.5211489992558
 31
0
  0
LINE
  8
1
 62
7
 10
27.55725034840475
 20
41.0211489992558
 30
0
 11
27.55725034840475
 21
32.5211489992558
 31
0
  0
LINE
  8
1
 62
7
 10
-0.4427496515952498
 20
41.0211489992558
 30
0
 11
27.55725034840475
 21
41.0211489992558
 31
0
  0
LINE
  8
1
 62
7
 10
-6.44274965159525
 20
145.7856832279572
 30
0
 11
-6.44274965159525
 21
134.5211489992558
 31
0
  0
LINE
  8
1
 62
7
 10
33.55725034840475
 20
145.7856832279572
 30
0
 11
33.55725034840475
 21
134.5211489992558
 31
0
  0
LINE
  8
1
 62
7
 10
-6.44274965159525
 20
134.5211489992558
 30
0
 11
33.55725034840475
 21
134.5211489992558
 31
0
  0
LINE
  8
1
 62
3
  6
DASHDOT
 10
-134.8713413212643
 20
70.21643635517641
 30
0
 11
-107.9064845304813
 21
54.64826902835791
 31
0
  0
LINE
  8
1
 62
7
 10
-136.1019330231152
 20
47.83290803791773
 30
0
 11
-126.3465602192612
 21
42.20064092356703
 31
0
  0
LINE
  8
1
 62
7
 10
-116.1019330231152
 20
82.47392418929528
 30
0
 11
-106.3465602192612
 21
76.84165707494458
 31
0
  0
LINE
  8
1
 62
7
 10
-126.3465602192612
 20
42.20064092356703
 30
0
 11
-106.3465602192612
 21
76.84165707494458
 31
0
  0
LINE
  8
1
 62
3
  6
DASHDOT
 10
-134.8713413212643
 20
-101.1741383566648
 30
0
 11
-107.9064845304813
 21
-85.60597102984626
 31
0
  0
LINE
  8
1
 62
7
 10
-116.1019330231152
 20
-113.4316261907836
 30
0
 11
-106.3465602192612
 21
-107.7993590764329
 31
0
  0
LINE
  8
1
 62
7
 10
-136.1019330231152
 20
-78.79061003940608
 30
0
 11
-126.3465602192612
 21
-73.15834292505538
 31
0
  0
LINE
  8
1
 62
7
 10
-106.3465602192612
 20
-107.7993590764329
 30
0
 11
-126.3465602192612
 21
-73.15834292505538
 31
0
  0
LINE
  8
1
 62
7
 10
33.55725034840475
 20
-176.7433852294455
 30
0
 11
33.55725034840475
 21
-165.4788510007441
 31
0
  0
LINE
  8
1
 62
7
 10
-6.44274965159525
 20
-176.7433852294454
 30
0
 11
-6.44274965159525
 21
-165.478851000744
 31
0
  0
LINE
  8
1
 62
7
 10
33.55725034840475
 20
-165.4788510007441
 30
0
 11
-6.44274965159525
 21
-165.478851000744
 31
0
  0
LINE
  8
1
 62
3
  6
DASHDOT
 10
161.9858420180738
 20
-101.1741383566648
 30
0
 11
135.0209852272908
 21
-85.60597102984629
 31
0
  0
LINE
  8
1
 62
7
 10
163.2164337199258
 20
-78.79061003940612
 30
0
 11
153.4610609160709
 21
-73.15834292505542
 31
0
  0
LINE
  8
1
 62
7
 10
143.2164337199249
 20
-113.4316261907837
 30
0
 11
133.4610609160709
 21
-107.7993590764329
 31
0
  0
LINE
  8
1
 62
7
 10
153.4610609160709
 20
-73.15834292505542
 30
0
 11
133.4610609160709
 21
-107.7993590764329
 31
0
  0
LINE
  8
1
 62
3
  6
DASHDOT
 10
161.9858420180738
 20
70.21643635517617
 30
0
 11
135.0209852272908
 21
54.64826902835769
 31
0
  0
LINE
  8
1
 62
7
 10
143.2164337199258
 20
82.47392418929505
 30
0
 11
133.4610609160709
 21
76.84165707494435
 31
0
  0
LINE
  8
1
 62
7
 10
163.2164337199258
 20
47.83290803791749
 30
0
 11
153.4610609160709
 21
42.2006409235668
 31
0
  0
LINE
  8
1
 62
7
 10
133.4610609160709
 20
76.84165707494435
 30
0
 11
153.4610609160709
 21
42.2006409235668
 31
0
  0
LINE
  8
1
 62
7
 10
-1.44274965159525
 20
204.5211489992558
 30
0
 11
11.23725034840481
 21
204.5211489992558
 31
0
  0
LINE
  8
1
 62
7
 10
-1.44274965159525
 20
204.5211489992558
 30
0
 11
-1.44274965159525
 21
146.3273602520999
 31
0
  0
LINE
  8
1
 62
7
 10
1.757250348404796
 20
204.5211489992558
 30
0
 11
1.757250348404796
 21
146.5921519578357
 31
0
  0
LINE
  8
1
 62
7
 10
25.3572503484047
 20
204.5211489992558
 30
0
 11
25.3572503484047
 21
146.5921519578357
 31
0
  0
LINE
  8
1
 62
7
 10
28.55725034840475
 20
204.5211489992558
 30
0
 11
28.55725034840475
 21
146.3273602520999
 31
0
  0
LINE
  8
1
 62
7
 10
13.55725034840475
 20
147.0211489992558
 30
0
 11
13.55725034840475
 21
233.0096753602
 31
0
  0
LINE
  8
1
 62
7
 10
11.23725034840481
 20
233.0096753602
 30
0
 11
11.23725034840481
 21
147.0045869244794
 31
0
  0
LINE
  8
1
 62
7
 10
14.66655367702469
 20
233.0096753602
 30
0
 11
14.66655367702469
 21
238.0096753602
 31
0
  0
LINE
  8
1
 62
7
 10
15.11522282879491
 20
233.0096753602
 30
0
 11
15.11522282879491
 21
238.0096753602
 31
0
  0
LINE
  8
1
 62
7
 10
15.35878608261487
 20
233.0096753602
 30
0
 11
15.35878608261487
 21
238.0096753602
 31
0
  0
LINE
  8
1
 62
7
 10
14.43580954183471
 20
233.0096753602
 30
0
 11
14.43580954183471
 21
238.0096753602
 31
0
  0
LINE
  8
1
 62
7
 10
14.15378893214483
 20
233.0096753602
 30
0
 11
14.15378893214483
 21
238.0096753602
 31
0
  0
LINE
  8
1
 62
7
 10
12.30783585059476
 20
233.0096753602
 30
0
 11
12.30783585059476
 21
238.0096753602
 31
0
  0
LINE
  8
1
 62
7
 10
12.56421822303491
 20
233.0096753602
 30
0
 11
12.56421822303491
 21
238.0096753602
 31
0
  0
LINE
  8
1
 62
7
 10
12.87187706995473
 20
233.0096753602
 30
0
 11
12.87187706995473
 21
238.0096753602
 31
0
  0
LINE
  8
1
 62
7
 10
12.0642725967748
 20
233.0096753602
 30
0
 11
12.0642725967748
 21
238.0096753602
 31
0
  0
LINE
  8
1
 62
7
 10
11.74379463122477
 20
233.0096753602
 30
0
 11
11.74379463122477
 21
238.0096753602
 31
0
  0
LINE
  8
1
 62
7
 10
11.23725034840481
 20
233.0096753602
 30
0
 11
15.87725034840491
 21
233.0096753602
 31
0
  0
LINE
  8
1
 62
7
 10
15.87725034840491
 20
204.5211489992558
 30
0
 11
28.55725034840475
 21
204.5211489992558
 31
0
  0
LINE
  8
1
 62
3
 10
-524.2053691359392
 20
-15.4788510007442
 30
0
 11
-521.2053691359392
 21
-15.4788510007442
 31
0
  0
LINE
  8
1
 62
3
 10
-336.2053691359392
 20
-15.4788510007442
 30
0
 11
-333.2053691359392
 21
-15.4788510007442
 31
0
  0
LINE
  8
1
 62
3
 10
-871.705369135939
 20
-15.4788510007442
 30
0
 11
-868.705369135939
 21
-15.4788510007442
 31
0
  0
LINE
  8
1
 62
3
 10
-683.7053691359392
 20
-15.4788510007442
 30
0
 11
-680.705369135939
 21
-15.4788510007442
 31
0
  0
LINE
  8
1
 62
7
 10
15.87725034840491
 20
233.0096753602
 30
0
 11
15.87725034840491
 21
147.0045869244794
 31
0
  0
LINE
  8
1
 62
3
  6
DASHDOT
 10
32.93958054278482
 20
-15.4788510007442
 30
0
 11
-5.825079845975324
 21
-15.4788510007442
 31
0
  0
LINE
  8
1
 62
3
  6
DASHDOT
 10
13.55725034840475
 20
3.903479193635874
 30
0
 11
13.55725034840475
 21
-34.86118119512427
 31
0
  0
LINE
  8
1
 62
3
  6
DASHDOT
 10
13.55725034840498
 20
-186.8694257125852
 30
0
 11
13.55725034840475
 21
-155.7330910589485
 31
0
  0
LINE
  8
1
 62
3
  6
DASHDOT
 10
13.55725034840475
 20
147.0211489992558
 30
0
 11
13.55725034840498
 21
124.77538905746
 31
0
  0
LINE
  8
1
 62
7
 10
-1163.205369135939
 20
114.1321053262577
 30
0
 11
-1163.205369135939
 21
126.1544784100976
 31
0
  0
LINE
  8
1
 62
7
 10
-1223.205369135939
 20
114.1321053262577
 30
0
 11
-1223.205369135939
 21
126.1544784100976
 31
0
  0
LINE
  8
1
 62
7
 10
-1178.205369135939
 20
204.5211489992558
 30
0
 11
-1178.205369135939
 21
110.6274920678945
 31
0
  0
LINE
  8
1
 62
7
 10
-1208.205369135939
 20
204.5211489992558
 30
0
 11
-1208.205369135939
 21
110.6785000145323
 31
0
  0
LINE
  8
1
 62
7
 10
-1208.205369135939
 20
204.5211489992558
 30
0
 11
-1178.205369135939
 21
204.5211489992558
 31
0
  0
LINE
  8
1
 62
7
 10
-1215.205369135939
 20
122.8305500760143
 30
0
 11
-1217.205369135939
 21
121.6758495376351
 31
0
  0
LINE
  8
1
 62
7
 10
-1217.205369135939
 20
121.6758495376351
 30
0
 11
-1217.205369135939
 21
119.3664484608766
 31
0
  0
LINE
  8
1
 62
7
 10
-1217.205369135939
 20
119.3664484608766
 30
0
 11
-1215.205369135939
 21
118.2117479224973
 31
0
  0
LINE
  8
1
 62
7
 10
-1215.205369135939
 20
118.2117479224973
 30
0
 11
-1213.205369135939
 21
119.3664484608766
 31
0
  0
LINE
  8
1
 62
7
 10
-1213.205369135939
 20
119.3664484608766
 30
0
 11
-1213.205369135939
 21
121.6758495376351
 31
0
  0
LINE
  8
1
 62
7
 10
-1213.205369135939
 20
121.6758495376351
 30
0
 11
-1215.205369135939
 21
122.8305500760143
 31
0
  0
LINE
  8
1
 62
7
 10
-1169.205369135939
 20
121.6758495376351
 30
0
 11
-1171.205369135939
 21
122.8305500760143
 31
0
  0
LINE
  8
1
 62
7
 10
-1169.205369135939
 20
119.3664484608766
 30
0
 11
-1169.205369135939
 21
121.6758495376351
 31
0
  0
LINE
  8
1
 62
7
 10
-1171.205369135939
 20
118.2117479224973
 30
0
 11
-1169.205369135939
 21
119.3664484608766
 31
0
  0
LINE
  8
1
 62
7
 10
-1173.205369135939
 20
119.3664484608766
 30
0
 11
-1171.205369135939
 21
118.2117479224973
 31
0
  0
LINE
  8
1
 62
7
 10
-1173.205369135939
 20
121.6758495376351
 30
0
 11
-1173.205369135939
 21
119.3664484608766
 31
0
  0
LINE
  8
1
 62
7
 10
-1171.205369135939
 20
122.8305500760143
 30
0
 11
-1173.205369135939
 21
121.6758495376351
 31
0
  0
LINE
  8
1
 62
7
 10
-1195.525369135939
 20
233.0096753602
 30
0
 11
-1195.525369135939
 21
204.5211489992558
 31
0
  0
LINE
  8
1
 62
7
 10
-1192.096065807319
 20
233.0096753602
 30
0
 11
-1192.096065807319
 21
238.0096753602
 31
0
  0
LINE
  8
1
 62
7
 10
-1191.647396655549
 20
233.0096753602
 30
0
 11
-1191.647396655549
 21
238.0096753602
 31
0
  0
LINE
  8
1
 62
7
 10
-1191.403833401729
 20
233.0096753602
 30
0
 11
-1191.403833401729
 21
238.0096753602
 31
0
  0
LINE
  8
1
 62
7
 10
-1192.326809942509
 20
233.0096753602
 30
0
 11
-1192.326809942509
 21
238.0096753602
 31
0
  0
LINE
  8
1
 62
7
 10
-1192.608830552199
 20
233.0096753602
 30
0
 11
-1192.608830552199
 21
238.0096753602
 31
0
  0
LINE
  8
1
 62
7
 10
-1194.454783633749
 20
233.0096753602
 30
0
 11
-1194.454783633749
 21
238.0096753602
 31
0
  0
LINE
  8
1
 62
7
 10
-1194.198401261309
 20
233.0096753602
 30
0
 11
-1194.198401261309
 21
238.0096753602
 31
0
  0
LINE
  8
1
 62
7
 10
-1193.890742414389
 20
233.0096753602
 30
0
 11
-1193.890742414389
 21
238.0096753602
 31
0
  0
LINE
  8
1
 62
7
 10
-1194.698346887569
 20
233.0096753602
 30
0
 11
-1194.698346887569
 21
238.0096753602
 31
0
  0
LINE
  8
1
 62
7
 10
-1195.018824853119
 20
233.0096753602
 30
0
 11
-1195.018824853119
 21
238.0096753602
 31
0
  0
LINE
  8
1
 62
7
 10
-1195.525369135939
 20
233.0096753602
 30
0
 11
-1190.885369135939
 21
233.0096753602
 31
0
  0
LINE
  8
1
 62
7
 10
-1190.885369135939
 20
233.0096753602
 30
0
 11
-1190.885369135939
 21
204.5211489992558
 31
0
  0
LINE
  8
1
 62
7
 10
-1193.205369135939
 20
204.5211489992558
 30
0
 11
-1193.205369135939
 21
233.0096753602
 31
0
  0
LINE
  8
1
 62
3
  6
DASHDOT
 10
-1193.205369135939
 20
3.903479193635874
 30
0
 11
-1193.205369135939
 21
-34.86118119512427
 31
0
  0
LINE
  8
1
 62
3
  6
DASHDOT
 10
-1173.823038941559
 20
-15.4788510007442
 30
0
 11
-1212.587699330319
 21
-15.4788510007442
 31
0
  0
LINE
  8
1
 62
7
 10
-1207.205369135939
 20
41.0211489992558
 30
0
 11
-1207.205369135939
 21
32.5211489992558
 31
0
  0
LINE
  8
1
 62
7
 10
-1179.205369135939
 20
41.0211489992558
 30
0
 11
-1179.205369135939
 21
32.5211489992558
 31
0
  0
LINE
  8
1
 62
7
 10
-1207.205369135939
 20
41.0211489992558
 30
0
 11
-1179.205369135939
 21
41.0211489992558
 31
0
  0
LINE
  8
1
 62
7
 10
-521.2053691359392
 20
49.52114899925579
 30
0
 11
-521.2053691359392
 21
-15.4788510007442
 31
0
  0
LINE
  8
1
 62
7
 10
-347.2053691359392
 20
79.92114899925582
 30
0
 11
-343.2053691359392
 21
79.92114899925582
 31
0
  0
LINE
  8
1
 62
7
 10
-343.2053691359392
 20
79.92114899925582
 30
0
 11
-343.2053691359392
 21
67.0211489992558
 31
0
  0
LINE
  8
1
 62
7
 10
-339.2053691359392
 20
86.02114899925579
 30
0
 11
-342.2053691359392
 21
83.02114899925579
 31
0
  0
LINE
  8
1
 62
7
 10
-433.2053691359392
 20
34.5211489992558
 30
0
 11
-379.2053691359392
 21
34.5211489992558
 31
0
  0
LINE
  8
1
 62
7
 10
-379.2053691359392
 20
-15.47885100074427
 30
0
 11
-379.2053691359392
 21
35.0211489992558
 31
0
  0
LINE
  8
1
 62
7
 10
-379.2053691359392
 20
35.0211489992558
 30
0
 11
-371.2053691359392
 21
35.02114899925573
 31
0
  0
LINE
  8
1
 62
7
 10
-371.2053691359392
 20
35.02114899925573
 30
0
 11
-371.2053691359392
 21
-15.47885100074427
 31
0
  0
LINE
  8
1
 62
7
 10
-337.2053691359392
 20
69.52114899925579
 30
0
 11
-336.2053691359392
 21
68.52114899925579
 31
0
  0
LINE
  8
1
 62
3
 10
-391.2053691359392
 20
147.0211489992558
 30
0
 11
-359.2053691359392
 21
65.72114899925577
 31
0
  0
LINE
  8
1
 62
3
 10
-391.2053691359392
 20
65.72114899925577
 30
0
 11
-359.2053691359392
 21
147.0211489992558
 31
0
  0
LINE
  8
1
 62
7
 10
-391.2053691359392
 20
71.2711489992558
 30
0
 11
-347.2053691359392
 21
71.2711489992558
 31
0
  0
LINE
  8
1
 62
7
 10
-347.2053691359392
 20
67.0211489992558
 30
0
 11
-343.2053691359392
 21
67.0211489992558
 31
0
  0
LINE
  8
1
 62
7
 10
-337.2053691359392
 20
69.52114899925579
 30
0
 11
-343.2053691359392
 21
69.5211489992558
 31
0
  0
LINE
  8
1
 62
7
 10
-391.2053691359392
 20
65.72114899925577
 30
0
 11
-336.2053691359392
 21
65.72114899925577
 31
0
  0
LINE
  8
1
 62
7
 10
-359.2053691359392
 20
65.72114899925577
 30
0
 11
-359.2053691359392
 21
147.0211489992558
 31
0
  0
LINE
  8
1
 62
7
 10
-344.2053691359392
 20
133.0211489992558
 30
0
 11
-339.2053691359392
 21
128.0211489992558
 31
0
  0
LINE
  8
1
 62
7
 10
-347.2053691359392
 20
65.72114899925577
 30
0
 11
-347.2053691359392
 21
80.0211489992558
 31
0
  0
LINE
  8
1
 62
7
 10
-344.2053691359392
 20
83.0211489992558
 30
0
 11
-342.2053691359392
 21
83.02114899925579
 31
0
  0
LINE
  8
1
 62
7
 10
-339.2053691359392
 20
76.08439924328479
 30
0
 11
-339.2053691359392
 21
128.0211489992558
 31
0
  0
LINE
  8
1
 62
7
 10
-359.2053691359392
 20
133.0211489992558
 30
0
 11
-344.2053691359392
 21
133.0211489992558
 31
0
  0
LINE
  8
1
 62
7
 10
-359.2053691359392
 20
147.0211489992558
 30
0
 11
-391.2053691359392
 21
147.0211489992558
 31
0
  0
LINE
  8
1
 62
7
 10
-391.2053691359392
 20
147.0211489992558
 30
0
 11
-391.2053691359392
 21
52.5211489992558
 31
0
  0
LINE
  8
1
 62
7
 10
-415.2053691359392
 20
79.52114899925579
 30
0
 11
-415.2053691359392
 21
133.8211489992558
 31
0
  0
LINE
  8
1
 62
7
 10
-521.2053691359392
 20
34.5211489992558
 30
0
 11
-441.2053691359392
 21
34.5211489992558
 31
0
  0
LINE
  8
1
 62
7
 10
-433.2053691359392
 20
-15.47885100074427
 30
0
 11
-433.2053691359392
 21
35.02114899925573
 31
0
  0
LINE
  8
1
 62
7
 10
-441.2053691359392
 20
-15.47885100074427
 30
0
 11
-441.2053691359392
 21
35.0211489992558
 31
0
  0
LINE
  8
1
 62
7
 10
-441.2053691359392
 20
35.0211489992558
 30
0
 11
-433.2053691359392
 21
35.02114899925573
 31
0
  0
LINE
  8
1
 62
7
 10
-521.2053691359392
 20
49.52114899925579
 30
0
 11
-509.2053691359392
 21
49.52114899925573
 31
0
  0
LINE
  8
1
 62
7
 10
-505.2053691359392
 20
49.52114899925573
 30
0
 11
-438.2053691359392
 21
49.52114899925573
 31
0
  0
LINE
  8
1
 62
7
 10
-438.2053691359392
 20
49.52114899925573
 30
0
 11
-438.2053691359392
 21
52.52114899925579
 31
0
  0
LINE
  8
1
 62
7
 10
-391.2053691359392
 20
52.5211489992558
 30
0
 11
-439.2053691359392
 21
52.5211489992558
 31
0
  0
LINE
  8
1
 62
7
 10
-439.2053691359392
 20
60.5211489992558
 30
0
 11
-437.2053691359392
 21
60.5211489992558
 31
0
  0
LINE
  8
1
 62
7
 10
-437.2053691359392
 20
60.5211489992558
 30
0
 11
-437.2053691359392
 21
78.72114899925577
 31
0
  0
LINE
  8
1
 62
7
 10
-437.2053691359392
 20
78.72114899925577
 30
0
 11
-413.2053691359392
 21
78.72114899925577
 31
0
  0
LINE
  8
1
 62
7
 10
-413.2053691359392
 20
78.72114899925577
 30
0
 11
-413.2053691359392
 21
133.0211489992558
 31
0
  0
LINE
  8
1
 62
7
 10
-413.2053691359392
 20
133.0211489992558
 30
0
 11
-391.2053691359392
 21
133.0211489992558
 31
0
  0
LINE
  8
1
 62
7
 10
-439.2053691359392
 20
84.52114899925579
 30
0
 11
-505.2053691359392
 21
84.52114899925579
 31
0
  0
LINE
  8
1
 62
7
 10
-439.2053691359392
 20
49.52114899925579
 30
0
 11
-439.2053691359392
 21
84.52114899925579
 31
0
  0
LINE
  8
1
 62
7
 10
-509.2053691359392
 20
65.32962801850977
 30
0
 11
-509.2053691359392
 21
87.02114899925579
 31
0
  0
LINE
  8
1
 62
7
 10
-514.2053691359392
 20
55.87757776391078
 30
0
 11
-514.2053691359392
 21
109.5211489992558
 31
0
  0
LINE
  8
1
 62
7
 10
-514.2053691359392
 20
109.5211489992558
 30
0
 11
-495.2053691359392
 21
109.5211489992558
 31
0
  0
LINE
  8
1
 62
7
 10
-514.2053691359392
 20
84.52114899925579
 30
0
 11
-509.2053691359392
 21
84.52114899925579
 31
0
  0
LINE
  8
1
 62
7
 10
-509.2053691359392
 20
73.02114899925579
 30
0
 11
-505.2053691359392
 21
73.02114899925579
 31
0
  0
LINE
  8
1
 62
7
 10
-509.2053691359392
 20
87.02114899925579
 30
0
 11
-505.2053691359392
 21
87.02114899925579
 31
0
  0
LINE
  8
1
 62
7
 10
-509.2053691359392
 20
58.52114899925579
 30
0
 11
-509.2053691359392
 21
47.52114899925573
 31
0
  0
LINE
  8
1
 62
7
 10
-509.2053691359392
 20
47.52114899925573
 30
0
 11
-505.2053691359392
 21
47.52114899925573
 31
0
  0
LINE
  8
1
 62
7
 10
-505.2053691359392
 20
58.52114899925579
 30
0
 11
-509.2053691359392
 21
58.52114899925579
 31
0
  0
LINE
  8
1
 62
7
 10
-404.2053691359392
 20
146.5211489992558
 30
0
 11
-396.2053691359392
 21
138.5211489992558
 31
0
  0
LINE
  8
1
 62
3
 10
-488.7053691359392
 20
55.02114899925579
 30
0
 11
-488.7053691359392
 21
79.02114899925579
 31
0
  0
LINE
  8
1
 62
3
 10
-476.7053691359392
 20
67.02114899925579
 30
0
 11
-500.7053691359392
 21
67.02114899925579
 31
0
  0
LINE
  8
1
 62
7
 10
-505.2053691359392
 20
75.9461489992558
 30
0
 11
-494.2365873561869
 21
75.9461489992558
 31
0
  0
LINE
  8
1
 62
7
 10
-461.2365873561869
 20
75.9461489992558
 30
0
 11
-483.1741509156915
 21
75.9461489992558
 31
0
  0
LINE
  8
1
 62
7
 10
-505.2053691359392
 20
58.09614899925577
 30
0
 11
-494.2365873561869
 21
58.09614899925577
 31
0
  0
LINE
  8
1
 62
7
 10
-461.2365873561869
 20
58.09614899925577
 30
0
 11
-483.1741509156915
 21
58.09614899925577
 31
0
  0
LINE
  8
1
 62
3
 10
-455.7053691359392
 20
55.02114899925579
 30
0
 11
-455.7053691359392
 21
79.02114899925579
 31
0
  0
LINE
  8
1
 62
3
 10
-443.7053691359392
 20
67.02114899925579
 30
0
 11
-467.7053691359392
 21
67.02114899925579
 31
0
  0
LINE
  8
1
 62
7
 10
-439.2053691359392
 20
75.9461489992558
 30
0
 11
-450.1741509156915
 21
75.9461489992558
 31
0
  0
LINE
  8
1
 62
7
 10
-439.2053691359392
 20
58.09614899925577
 30
0
 11
-450.1741509156915
 21
58.09614899925577
 31
0
  0
LINE
  8
1
 62
7
 10
-439.2053691359392
 20
79.52114899925579
 30
0
 11
-415.2053691359392
 21
79.52114899925579
 31
0
  0
LINE
  8
1
 62
7
 10
-396.2053691359392
 20
133.8211489992558
 30
0
 11
-396.2053691359392
 21
138.5211489992558
 31
0
  0
LINE
  8
1
 62
7
 10
-495.2053691359392
 20
146.5211489992558
 30
0
 11
-404.2053691359392
 21
146.5211489992558
 31
0
  0
LINE
  8
1
 62
7
 10
-521.2053691359392
 20
41.02114899925573
 30
0
 11
-336.2053691359392
 21
41.0211489992558
 31
0
  0
LINE
  8
1
 62
7
 10
-371.2053691359392
 20
34.5211489992558
 30
0
 11
-336.2053691359392
 21
34.5211489992558
 31
0
  0
LINE
  8
1
 62
7
 10
-342.2053691359392
 20
76.08439924328479
 30
0
 11
-342.2053691359392
 21
83.02114899925579
 31
0
  0
LINE
  8
1
 62
7
 10
-505.2053691359392
 20
87.02114899925579
 30
0
 11
-505.2053691359392
 21
47.52114899925573
 31
0
  0
LINE
  8
1
 62
7
 10
-472.2053691359392
 20
84.52114899925579
 30
0
 11
-472.2053691359392
 21
49.52114899925573
 31
0
  0
LINE
  8
1
 62
7
 10
-501.7347317323614
 20
204.5211489992558
 30
0
 11
-495.2053691359393
 21
204.5211489992558
 31
0
  0
LINE
  8
1
 62
7
 10
-495.2053691359393
 20
112.5211489992558
 30
0
 11
-495.2053691359393
 21
204.5211489992558
 31
0
  0
LINE
  8
1
 62
7
 10
-510.2053691359393
 20
111.5211489992557
 30
0
 11
-510.2053691359393
 21
204.5211489992558
 31
0
  0
LINE
  8
1
 62
7
 10
-502.8440350609813
 20
238.0096753602
 30
0
 11
-502.8440350609813
 21
233.0096753602
 31
0
  0
LINE
  8
1
 62
7
 10
-503.2927042127513
 20
238.0096753602
 30
0
 11
-503.2927042127513
 21
233.0096753602
 31
0
  0
LINE
  8
1
 62
7
 10
-503.5362674665712
 20
238.0096753602
 30
0
 11
-503.5362674665712
 21
233.0096753602
 31
0
  0
LINE
  8
1
 62
7
 10
-502.6132909257913
 20
238.0096753602
 30
0
 11
-502.6132909257913
 21
233.0096753602
 31
0
  0
LINE
  8
1
 62
7
 10
-502.3312703161012
 20
238.0096753602
 30
0
 11
-502.3312703161012
 21
233.0096753602
 31
0
  0
LINE
  8
1
 62
7
 10
-504.0547317323613
 20
233.0096753602
 30
0
 11
-501.7347317323614
 21
233.0096753602
 31
0
  0
LINE
  8
1
 62
7
 10
-495.3769420111931
 20
111.5211489992557
 30
0
 11
-510.2053691359393
 21
111.5211489992557
 31
0
  0
LINE
  8
1
 62
7
 10
-496.7347317323614
 20
129.6711489992558
 30
0
 11
-495.2053691359393
 21
129.6711489992558
 31
0
  0
LINE
  8
1
 62
7
 10
-496.7547317323613
 20
127.3711489992558
 30
0
 11
-495.2053691359393
 21
127.3711489992558
 31
0
  0
LINE
  8
1
 62
7
 10
-501.7347317323614
 20
233.0096753602
 30
0
 11
-501.7347317323614
 21
134.6711489992557
 31
0
  0
LINE
  8
1
 62
7
 10
-504.0547317323613
 20
134.6711489992558
 30
0
 11
-504.0547317323613
 21
233.0096753602
 31
0
  0
LINE
  8
1
 62
7
 10
-510.2053691359393
 20
204.5211489992558
 30
0
 11
-504.0547317323613
 21
204.5211489992558
 31
0
  0
LINE
  8
1
 62
7
 10
-507.0053691359393
 20
204.5211489992558
 30
0
 11
-507.0053691359393
 21
111.5211489992558
 31
0
  0
LINE
  8
1
 62
7
 10
-495.2053691359393
 20
204.5211489992558
 30
0
 11
-495.2053691359392
 21
109.5211489992558
 31
0
  0
LINE
  8
1
 62
7
 10
-336.2053691359392
 20
-15.4788510007442
 30
0
 11
-336.2053691359392
 21
68.52114899925579
 31
0
  0
LINE
  8
1
 62
7
 10
-521.2053691359392
 20
-15.4788510007442
 30
0
 11
-521.2053691359392
 21
-80.47885100074419
 31
0
  0
LINE
  8
1
 62
7
 10
-343.2053691359392
 20
-110.8788510007444
 30
0
 11
-347.2053691359392
 21
-110.8788510007444
 31
0
  0
LINE
  8
1
 62
7
 10
-343.2053691359392
 20
-97.9788510007442
 30
0
 11
-343.2053691359392
 21
-110.8788510007444
 31
0
  0
LINE
  8
1
 62
7
 10
-342.2053691359392
 20
-113.9788510007443
 30
0
 11
-339.2053691359392
 21
-116.9788510007443
 31
0
  0
LINE
  8
1
 62
3
  6
CENTER
 10
-437.2053691359392
 20
-87.07932430261735
 30
0
 11
-437.2053691359392
 21
-62.79822525758129
 31
0
  0
LINE
  8
1
 62
3
  6
DASHDOT
 10
-375.2053691359392
 20
-62.97885100074427
 30
0
 11
-375.2053691359392
 21
-98.97885100074427
 31
0
  0
LINE
  8
1
 62
7
 10
-377.7053691359392
 20
-95.9788510007442
 30
0
 11
-377.7053691359392
 21
-65.9788510007442
 31
0
  0
LINE
  8
1
 62
7
 10
-372.7053691359392
 20
-65.9788510007442
 30
0
 11
-372.7053691359392
 21
-95.9788510007442
 31
0
  0
LINE
  8
1
 62
7
 10
-379.2053691359392
 20
-65.4788510007442
 30
0
 11
-433.2053691359392
 21
-65.4788510007442
 31
0
  0
LINE
  8
1
 62
7
 10
-379.2053691359392
 20
-65.9788510007442
 30
0
 11
-379.2053691359392
 21
-15.47885100074427
 31
0
  0
LINE
  8
1
 62
7
 10
-371.2053691359392
 20
-65.9788510007442
 30
0
 11
-379.2053691359392
 21
-65.9788510007442
 31
0
  0
LINE
  8
1
 62
7
 10
-371.2053691359392
 20
-15.47885100074427
 30
0
 11
-371.2053691359392
 21
-65.9788510007442
 31
0
  0
LINE
  8
1
 62
7
 10
-336.2053691359392
 20
-99.47885100074427
 30
0
 11
-337.2053691359392
 21
-100.4788510007443
 31
0
  0
LINE
  8
1
 62
3
 10
-359.2053691359392
 20
-96.67885100074432
 30
0
 11
-391.2053691359392
 21
-177.9788510007442
 31
0
  0
LINE
  8
1
 62
3
 10
-359.2053691359392
 20
-177.9788510007442
 30
0
 11
-391.2053691359392
 21
-96.67885100074432
 31
0
  0
LINE
  8
1
 62
7
 10
-347.2053691359392
 20
-102.2288510007442
 30
0
 11
-391.2053691359392
 21
-102.2288510007442
 31
0
  0
LINE
  8
1
 62
7
 10
-343.2053691359392
 20
-97.9788510007442
 30
0
 11
-347.2053691359392
 21
-97.9788510007442
 31
0
  0
LINE
  8
1
 62
7
 10
-343.2053691359392
 20
-100.4788510007442
 30
0
 11
-337.2053691359392
 21
-100.4788510007443
 31
0
  0
LINE
  8
1
 62
7
 10
-336.2053691359392
 20
-96.67885100074432
 30
0
 11
-391.2053691359392
 21
-96.67885100074432
 31
0
  0
LINE
  8
1
 62
7
 10
-359.2053691359392
 20
-177.9788510007442
 30
0
 11
-359.2053691359392
 21
-96.67885100074432
 31
0
  0
LINE
  8
1
 62
7
 10
-339.2053691359392
 20
-158.9788510007442
 30
0
 11
-344.2053691359392
 21
-163.9788510007442
 31
0
  0
LINE
  8
1
 62
7
 10
-347.2053691359392
 20
-110.9788510007442
 30
0
 11
-347.2053691359392
 21
-96.67885100074432
 31
0
  0
LINE
  8
1
 62
7
 10
-342.2053691359392
 20
-113.9788510007443
 30
0
 11
-344.2053691359392
 21
-113.9788510007442
 31
0
  0
LINE
  8
1
 62
7
 10
-339.2053691359392
 20
-158.9788510007442
 30
0
 11
-339.2053691359392
 21
-107.0421012447733
 31
0
  0
LINE
  8
1
 62
7
 10
-344.2053691359392
 20
-163.9788510007442
 30
0
 11
-359.2053691359392
 21
-163.9788510007443
 31
0
  0
LINE
  8
1
 62
7
 10
-391.2053691359392
 20
-177.9788510007442
 30
0
 11
-359.2053691359392
 21
-177.9788510007442
 31
0
  0
LINE
  8
1
 62
7
 10
-391.2053691359392
 20
-83.47885100074427
 30
0
 11
-391.2053691359392
 21
-177.9788510007442
 31
0
  0
LINE
  8
1
 62
7
 10
-415.2053691359392
 20
-164.7788510007442
 30
0
 11
-415.2053691359392
 21
-110.4788510007442
 31
0
  0
LINE
  8
1
 62
7
 10
-434.7053691359392
 20
-83.4788510007442
 30
0
 11
-434.7053691359392
 21
-65.9788510007442
 31
0
  0
LINE
  8
1
 62
7
 10
-439.7053691359392
 20
-80.47885100074419
 30
0
 11
-439.7053691359392
 21
-65.9788510007442
 31
0
  0
LINE
  8
1
 62
7
 10
-441.2053691359392
 20
-65.4788510007442
 30
0
 11
-521.2053691359392
 21
-65.4788510007442
 31
0
  0
LINE
  8
1
 62
7
 10
-433.2053691359392
 20
-65.9788510007442
 30
0
 11
-433.2053691359392
 21
-15.47885100074427
 31
0
  0
LINE
  8
1
 62
7
 10
-441.2053691359392
 20
-65.9788510007442
 30
0
 11
-441.2053691359392
 21
-15.47885100074427
 31
0
  0
LINE
  8
1
 62
7
 10
-433.2053691359392
 20
-65.9788510007442
 30
0
 11
-441.2053691359392
 21
-65.9788510007442
 31
0
  0
LINE
  8
1
 62
7
 10
-509.2053691359392
 20
-80.47885100074427
 30
0
 11
-521.2053691359392
 21
-80.47885100074419
 31
0
  0
LINE
  8
1
 62
7
 10
-438.2053691359392
 20
-80.47885100074427
 30
0
 11
-505.2053691359392
 21
-80.47885100074427
 31
0
  0
LINE
  8
1
 62
7
 10
-438.2053691359392
 20
-83.47885100074427
 30
0
 11
-438.2053691359392
 21
-80.47885100074427
 31
0
  0
LINE
  8
1
 62
7
 10
-413.2053691359392
 20
-163.9788510007443
 30
0
 11
-413.2053691359392
 21
-109.6788510007443
 31
0
  0
LINE
  8
1
 62
7
 10
-439.2053691359392
 20
-83.4788510007442
 30
0
 11
-391.2053691359392
 21
-83.47885100074427
 31
0
  0
LINE
  8
1
 62
7
 10
-437.2053691359392
 20
-91.4788510007442
 30
0
 11
-439.2053691359392
 21
-91.4788510007442
 31
0
  0
LINE
  8
1
 62
7
 10
-437.2053691359392
 20
-109.6788510007443
 30
0
 11
-437.2053691359392
 21
-91.4788510007442
 31
0
  0
LINE
  8
1
 62
7
 10
-413.2053691359392
 20
-109.6788510007443
 30
0
 11
-437.2053691359392
 21
-109.6788510007443
 31
0
  0
LINE
  8
1
 62
7
 10
-391.2053691359392
 20
-163.9788510007443
 30
0
 11
-413.2053691359392
 21
-163.9788510007443
 31
0
  0
LINE
  8
1
 62
7
 10
-505.2053691359392
 20
-115.4788510007443
 30
0
 11
-439.2053691359392
 21
-115.4788510007442
 31
0
  0
LINE
  8
1
 62
7
 10
-439.2053691359392
 20
-115.4788510007442
 30
0
 11
-439.2053691359392
 21
-80.47885100074419
 31
0
  0
LINE
  8
1
 62
7
 10
-509.2053691359392
 20
-117.9788510007443
 30
0
 11
-509.2053691359392
 21
-96.28733001999831
 31
0
  0
LINE
  8
1
 62
7
 10
-514.2053691359392
 20
-140.4788510007443
 30
0
 11
-514.2053691359392
 21
-86.83527976539926
 31
0
  0
LINE
  8
1
 62
7
 10
-495.2053691359392
 20
-140.4788510007443
 30
0
 11
-514.2053691359392
 21
-140.4788510007443
 31
0
  0
LINE
  8
1
 62
7
 10
-509.2053691359392
 20
-115.4788510007443
 30
0
 11
-514.2053691359392
 21
-115.4788510007443
 31
0
  0
LINE
  8
1
 62
7
 10
-505.2053691359392
 20
-103.9788510007443
 30
0
 11
-509.2053691359392
 21
-103.9788510007443
 31
0
  0
LINE
  8
1
 62
7
 10
-505.2053691359392
 20
-117.9788510007443
 30
0
 11
-509.2053691359392
 21
-117.9788510007443
 31
0
  0
LINE
  8
1
 62
7
 10
-509.2053691359392
 20
-78.47885100074427
 30
0
 11
-509.2053691359392
 21
-89.47885100074427
 31
0
  0
LINE
  8
1
 62
7
 10
-505.2053691359392
 20
-78.47885100074427
 30
0
 11
-509.2053691359392
 21
-78.47885100074427
 31
0
  0
LINE
  8
1
 62
7
 10
-509.2053691359392
 20
-89.47885100074427
 30
0
 11
-505.2053691359392
 21
-89.47885100074427
 31
0
  0
LINE
  8
1
 62
7
 10
-396.2053691359392
 20
-169.4788510007443
 30
0
 11
-404.2053691359392
 21
-177.4788510007443
 31
0
  0
LINE
  8
1
 62
3
 10
-488.7053691359392
 20
-109.9788510007443
 30
0
 11
-488.7053691359392
 21
-85.97885100074427
 31
0
  0
LINE
  8
1
 62
3
 10
-500.7053691359392
 20
-97.97885100074427
 30
0
 11
-476.7053691359392
 21
-97.97885100074427
 31
0
  0
LINE
  8
1
 62
7
 10
-494.2365873561869
 20
-106.9038510007443
 30
0
 11
-505.2053691359392
 21
-106.9038510007443
 31
0
  0
LINE
  8
1
 62
7
 10
-483.1741509156915
 20
-106.9038510007443
 30
0
 11
-461.2365873561869
 21
-106.9038510007443
 31
0
  0
LINE
  8
1
 62
7
 10
-494.2365873561869
 20
-89.05385100074432
 30
0
 11
-505.2053691359392
 21
-89.05385100074432
 31
0
  0
LINE
  8
1
 62
7
 10
-483.1741509156915
 20
-89.05385100074432
 30
0
 11
-461.2365873561869
 21
-89.05385100074432
 31
0
  0
LINE
  8
1
 62
3
 10
-455.7053691359392
 20
-109.9788510007443
 30
0
 11
-455.7053691359392
 21
-85.97885100074427
 31
0
  0
LINE
  8
1
 62
3
 10
-467.7053691359392
 20
-97.97885100074427
 30
0
 11
-443.7053691359392
 21
-97.97885100074427
 31
0
  0
LINE
  8
1
 62
7
 10
-450.1741509156915
 20
-106.9038510007443
 30
0
 11
-439.2053691359392
 21
-106.9038510007443
 31
0
  0
LINE
  8
1
 62
7
 10
-450.1741509156915
 20
-89.05385100074432
 30
0
 11
-439.2053691359392
 21
-89.05385100074432
 31
0
  0
LINE
  8
1
 62
7
 10
-415.2053691359392
 20
-110.4788510007442
 30
0
 11
-439.2053691359392
 21
-110.4788510007442
 31
0
  0
LINE
  8
1
 62
7
 10
-396.2053691359392
 20
-169.4788510007443
 30
0
 11
-396.2053691359392
 21
-164.7788510007443
 31
0
  0
LINE
  8
1
 62
7
 10
-396.2053691359392
 20
-164.7788510007443
 30
0
 11
-415.2053691359392
 21
-164.7788510007442
 31
0
  0
LINE
  8
1
 62
7
 10
-404.2053691359392
 20
-177.4788510007443
 30
0
 11
-495.2053691359392
 21
-177.4788510007443
 31
0
  0
LINE
  8
1
 62
7
 10
-336.2053691359392
 20
-65.47885100074427
 30
0
 11
-371.2053691359392
 21
-65.4788510007442
 31
0
  0
LINE
  8
1
 62
7
 10
-342.2053691359392
 20
-113.9788510007443
 30
0
 11
-342.2053691359392
 21
-107.0421012447733
 31
0
  0
LINE
  8
1
 62
7
 10
-505.2053691359392
 20
-78.47885100074427
 30
0
 11
-505.2053691359392
 21
-117.9788510007443
 31
0
  0
LINE
  8
1
 62
7
 10
-472.2053691359392
 20
-80.47885100074427
 30
0
 11
-472.2053691359392
 21
-115.4788510007442
 31
0
  0
LINE
  8
1
 62
7
 10
-495.2053691359392
 20
-140.4788510007443
 30
0
 11
-495.2053691359392
 21
-177.4788510007443
 31
0
  0
LINE
  8
1
 62
7
 10
-336.2053691359392
 20
-99.47885100074427
 30
0
 11
-336.2053691359392
 21
-15.4788510007442
 31
0
  0
LINE
  8
1
 62
7
 10
-684.705369135939
 20
-15.47885100074427
 30
0
 11
-684.705369135939
 21
-100.4788510007443
 31
0
  0
LINE
  8
1
 62
7
 10
-686.705369135939
 20
-100.4788510007443
 30
0
 11
-684.705369135939
 21
-100.4788510007443
 31
0
  0
LINE
  8
1
 62
7
 10
-684.705369135939
 20
-100.4788510007443
 30
0
 11
-683.705369135939
 21
-99.47885100074427
 31
0
  0
LINE
  8
1
 62
7
 10
-683.705369135939
 20
-99.47885100074427
 30
0
 11
-683.7053691359392
 21
-15.4788510007442
 31
0
  0
LINE
  8
1
 62
7
 10
-691.705369135939
 20
-15.47885100074427
 30
0
 11
-691.705369135939
 21
-163.9788510007442
 31
0
  0
LINE
  8
1
 62
7
 10
-686.705369135939
 20
-158.9788510007442
 30
0
 11
-686.705369135939
 21
-15.47885100074427
 31
0
  0
LINE
  8
1
 62
7
 10
-691.705369135939
 20
-163.9788510007442
 30
0
 11
-686.705369135939
 21
-158.9788510007442
 31
0
  0
LINE
  8
1
 62
7
 10
-706.705369135939
 20
-163.9788510007443
 30
0
 11
-691.705369135939
 21
-163.9788510007442
 31
0
  0
LINE
  8
1
 62
3
 10
-738.705369135939
 20
-15.47885100074427
 30
0
 11
-706.705369135939
 21
-177.9788510007442
 31
0
  0
LINE
  8
1
 62
3
 10
-738.705369135939
 20
-177.9788510007442
 30
0
 11
-706.705369135939
 21
-15.47885100074427
 31
0
  0
LINE
  8
1
 62
7
 10
-738.705369135939
 20
-177.9788510007442
 30
0
 11
-706.705369135939
 21
-177.9788510007442
 31
0
  0
LINE
  8
1
 62
7
 10
-706.705369135939
 20
-177.9788510007442
 30
0
 11
-706.705369135939
 21
-15.47885100074427
 31
0
  0
LINE
  8
1
 62
7
 10
-738.705369135939
 20
-177.9788510007442
 30
0
 11
-738.705369135939
 21
-15.47885100074427
 31
0
  0
LINE
  8
1
 62
7
 10
-743.705369135939
 20
-163.9788510007443
 30
0
 11
-738.705369135939
 21
-163.9788510007443
 31
0
  0
LINE
  8
1
 62
7
 10
-743.705369135939
 20
-169.4788510007442
 30
0
 11
-743.705369135939
 21
-15.47885100074427
 31
0
  0
LINE
  8
1
 62
7
 10
-751.705369135939
 20
-15.47885100074427
 30
0
 11
-751.705369135939
 21
-177.4788510007442
 31
0
  0
LINE
  8
1
 62
7
 10
-751.705369135939
 20
-177.4788510007442
 30
0
 11
-743.705369135939
 21
-169.4788510007442
 31
0
  0
LINE
  8
1
 62
7
 10
-842.705369135939
 20
-177.4788510007443
 30
0
 11
-751.705369135939
 21
-177.4788510007442
 31
0
  0
LINE
  8
1
 62
7
 10
-861.705369135939
 20
-140.4788510007443
 30
0
 11
-842.705369135939
 21
-140.4788510007443
 31
0
  0
LINE
  8
1
 62
7
 10
-842.705369135939
 20
-177.4788510007443
 30
0
 11
-842.705369135939
 21
-15.47885100074427
 31
0
  0
LINE
  8
1
 62
7
 10
-861.705369135939
 20
-140.4788510007443
 30
0
 11
-861.705369135939
 21
-15.47885100074427
 31
0
  0
LINE
  8
1
 62
7
 10
-861.705369135939
 20
-80.47885100074416
 30
0
 11
-867.605369135939
 21
-80.47885100074416
 31
0
  0
LINE
  8
1
 62
7
 10
-868.705369135939
 20
-79.37885100074425
 30
0
 11
-867.605369135939
 21
-80.47885100074416
 31
0
  0
LINE
  8
1
 62
7
 10
-867.605369135939
 20
-80.47885100074416
 30
0
 11
-867.605369135939
 21
-15.47885100074427
 31
0
  0
LINE
  8
1
 62
7
 10
-868.705369135939
 20
-79.37885100074425
 30
0
 11
-868.705369135939
 21
-15.4788510007442
 31
0
  0
LINE
  8
1
 62
7
 10
-684.705369135939
 20
69.52114899925579
 30
0
 11
-684.705369135939
 21
-15.47885100074427
 31
0
  0
LINE
  8
1
 62
7
 10
-684.705369135939
 20
69.52114899925579
 30
0
 11
-686.705369135939
 21
69.5211489992558
 31
0
  0
LINE
  8
1
 62
7
 10
-683.705369135939
 20
68.52114899925579
 30
0
 11
-684.705369135939
 21
69.52114899925579
 31
0
  0
LINE
  8
1
 62
7
 10
-683.7053691359392
 20
-15.4788510007442
 30
0
 11
-683.705369135939
 21
68.52114899925579
 31
0
  0
LINE
  8
1
 62
7
 10
-691.705369135939
 20
133.0211489992558
 30
0
 11
-691.705369135939
 21
-15.47885100074427
 31
0
  0
LINE
  8
1
 62
7
 10
-686.705369135939
 20
-15.47885100074427
 30
0
 11
-686.705369135939
 21
128.0211489992558
 31
0
  0
LINE
  8
1
 62
7
 10
-686.705369135939
 20
128.0211489992558
 30
0
 11
-691.705369135939
 21
133.0211489992558
 31
0
  0
LINE
  8
1
 62
7
 10
-691.705369135939
 20
133.0211489992558
 30
0
 11
-706.705369135939
 21
133.0211489992555
 31
0
  0
LINE
  8
1
 62
3
 10
-706.705369135939
 20
147.0211489992555
 30
0
 11
-738.705369135939
 21
-15.47885100074427
 31
0
  0
LINE
  8
1
 62
3
 10
-706.705369135939
 20
-15.47885100074427
 30
0
 11
-738.705369135939
 21
147.0211489992554
 31
0
  0
LINE
  8
1
 62
7
 10
-706.705369135939
 20
147.0211489992555
 30
0
 11
-738.705369135939
 21
147.0211489992554
 31
0
  0
LINE
  8
1
 62
7
 10
-706.705369135939
 20
-15.47885100074427
 30
0
 11
-706.705369135939
 21
147.0211489992555
 31
0
  0
LINE
  8
1
 62
7
 10
-738.705369135939
 20
-15.47885100074427
 30
0
 11
-738.705369135939
 21
147.0211489992554
 31
0
  0
LINE
  8
1
 62
7
 10
-738.705369135939
 20
133.0211489992558
 30
0
 11
-743.705369135939
 21
133.0211489992555
 31
0
  0
LINE
  8
1
 62
7
 10
-743.705369135939
 20
-15.47885100074427
 30
0
 11
-743.705369135939
 21
138.5211489992558
 31
0
  0
LINE
  8
1
 62
7
 10
-751.705369135939
 20
146.5211489992558
 30
0
 11
-751.705369135939
 21
-15.47885100074427
 31
0
  0
LINE
  8
1
 62
7
 10
-743.705369135939
 20
138.5211489992558
 30
0
 11
-751.705369135939
 21
146.5211489992558
 31
0
  0
LINE
  8
1
 62
7
 10
-751.705369135939
 20
146.5211489992558
 30
0
 11
-842.705369135939
 21
146.5211489992555
 31
0
  0
LINE
  8
1
 62
7
 10
-845.9053691359391
 20
109.5211489992558
 30
0
 11
-861.705369135939
 21
109.5211489992558
 31
0
  0
LINE
  8
1
 62
7
 10
-842.705369135939
 20
-15.47885100074427
 30
0
 11
-842.705369135939
 21
146.5211489992555
 31
0
  0
LINE
  8
1
 62
7
 10
-861.705369135939
 20
-15.47885100074427
 30
0
 11
-861.705369135939
 21
109.5211489992558
 31
0
  0
LINE
  8
1
 62
7
 10
-867.605369135939
 20
49.52114899925539
 30
0
 11
-861.705369135939
 21
49.52114899925539
 31
0
  0
LINE
  8
1
 62
7
 10
-867.605369135939
 20
49.52114899925539
 30
0
 11
-868.705369135939
 21
48.42114899925548
 31
0
  0
LINE
  8
1
 62
7
 10
-867.605369135939
 20
-15.47885100074427
 30
0
 11
-867.605369135939
 21
49.52114899925539
 31
0
  0
LINE
  8
1
 62
7
 10
-868.705369135939
 20
-15.4788510007442
 30
0
 11
-868.705369135939
 21
48.42114899925548
 31
0
  0
LINE
  8
1
 62
7
 10
-842.705369135939
 20
133.2711489992557
 30
0
 11
-842.705369135939
 21
204.5211489992558
 31
0
  0
LINE
  8
1
 62
7
 10
-857.705369135939
 20
204.5211489992557
 30
0
 11
-842.705369135939
 21
204.5211489992558
 31
0
  0
LINE
  8
1
 62
7
 10
-851.554731732361
 20
204.5211489992558
 30
0
 11
-851.554731732361
 21
233.0096753602
 31
0
  0
LINE
  8
1
 62
7
 10
-850.344035060981
 20
238.0096753602
 30
0
 11
-850.344035060981
 21
233.0096753602
 31
0
  0
LINE
  8
1
 62
7
 10
-850.792704212751
 20
238.0096753602
 30
0
 11
-850.792704212751
 21
233.0096753602
 31
0
  0
LINE
  8
1
 62
7
 10
-851.036267466571
 20
238.0096753602
 30
0
 11
-851.036267466571
 21
233.0096753602
 31
0
  0
LINE
  8
1
 62
7
 10
-850.113290925791
 20
238.0096753602
 30
0
 11
-850.113290925791
 21
233.0096753602
 31
0
  0
LINE
  8
1
 62
7
 10
-849.8312703161009
 20
238.0096753601999
 30
0
 11
-849.8312703161009
 21
233.0096753602
 31
0
  0
LINE
  8
1
 62
7
 10
-851.554731732361
 20
233.0096753602
 30
0
 11
-849.2347317323611
 21
233.0096753601999
 31
0
  0
LINE
  8
1
 62
7
 10
-849.2347317323611
 20
233.0096753601999
 30
0
 11
-849.2347317323611
 21
204.5211489992558
 31
0
  0
LINE
  8
1
 62
7
 10
-857.705369135939
 20
111.5211489992558
 30
0
 11
-857.705369135939
 21
204.5211489992557
 31
0
  0
LINE
  8
1
 62
7
 10
-842.705369135939
 20
132.5211489992558
 30
0
 11
-845.9053691359391
 21
132.5211489992558
 31
0
  0
LINE
  8
1
 62
7
 10
-845.9053691359391
 20
111.5211489992558
 30
0
 11
-857.705369135939
 21
111.5211489992558
 31
0
  0
LINE
  8
1
 62
7
 10
-842.705369135939
 20
107.9269835452771
 30
0
 11
-845.9053691359391
 21
107.9269835452771
 31
0
  0
LINE
  8
1
 62
7
 10
-847.205369135939
 20
121.8211489992558
 30
0
 11
-845.9053691359391
 21
120.5211489992558
 31
0
  0
LINE
  8
1
 62
7
 10
-847.205369135939
 20
120.5211489992558
 30
0
 11
-845.9053691359391
 21
119.2211489992558
 31
0
  0
LINE
  8
1
 62
7
 10
-847.205369135939
 20
125.1211489992558
 30
0
 11
-845.9053691359391
 21
125.1211489992558
 31
0
  0
LINE
  8
1
 62
7
 10
-845.9053691359391
 20
115.9211489992558
 30
0
 11
-847.205369135939
 21
115.9211489992558
 31
0
  0
LINE
  8
1
 62
7
 10
-851.9053691359391
 20
124.7711489992558
 30
0
 11
-847.205369135939
 21
124.7711489992558
 31
0
  0
LINE
  8
1
 62
7
 10
-852.205369135939
 20
124.2515337569851
 30
0
 11
-851.9053691359391
 21
124.7711489992558
 31
0
  0
LINE
  8
1
 62
7
 10
-852.205369135939
 20
116.7907642415264
 30
0
 11
-852.205369135939
 21
124.2515337569851
 31
0
  0
LINE
  8
1
 62
7
 10
-851.9053691359391
 20
116.2711489992558
 30
0
 11
-852.205369135939
 21
116.7907642415264
 31
0
  0
LINE
  8
1
 62
7
 10
-847.205369135939
 20
116.2711489992558
 30
0
 11
-851.9053691359391
 21
116.2711489992558
 31
0
  0
LINE
  8
1
 62
7
 10
-851.9053691359391
 20
116.2711489992558
 30
0
 11
-851.9053691359391
 21
124.7711489992558
 31
0
  0
LINE
  8
1
 62
7
 10
-845.9053691359391
 20
107.9269835452771
 30
0
 11
-845.9053691359391
 21
132.5211489992558
 31
0
  0
LINE
  8
1
 62
7
 10
-847.205369135939
 20
115.9211489992558
 30
0
 11
-847.205369135939
 21
125.1211489992558
 31
0
  0
ARC
  8
1
 62
7
 10
-1167.205369135939
 20
126.1544784100976
 30
0
 40
4
 50
0
 51
79.59787899105169
  0
ARC
  8
1
 62
7
 10
-1219.205369135939
 20
126.1544784100976
 30
0
 40
3.999999999999811
 50
100.4021210089483
 51
180
  0
ARC
  8
1
 62
7
 10
-1168.205369135939
 20
114.1321053262577
 30
0
 40
5.00000000000011
 50
259.0825826841831
 51
0
  0
ARC
  8
1
 62
7
 10
-1218.205369135939
 20
114.1321053262577
 30
0
 40
5
 50
180
 51
280.9174173158173
  0
ARC
  8
1
 62
7
 10
13.55725034840475
 20
-15.4788510007442
 30
0
 40
50
 50
106.260204708312
 51
73.73979529168804
  0
ARC
  8
1
 62
7
 10
-1174.652880847256
 20
137.7609505750021
 30
0
 40
6.385003960923332
 50
236.1941838747465
 51
268.3857540678392
  0
ARC
  8
1
 62
7
 10
-1211.757857424622
 20
137.7609505750021
 30
0
 40
6.38500396092353
 50
271.6142459321608
 51
303.8058161252525
  0
ARC
  8
1
 62
7
 10
-1193.205369135939
 20
-15.47885100074416
 30
0
 40
147.9999999999998
 50
79.59787899104823
 51
82.81924421854171
  0
ARC
  8
1
 62
7
 10
-1193.205369135939
 20
-15.47885100074416
 30
0
 40
126.9999999999998
 50
79.08258268418622
 51
100.9174173158138
  0
ARC
  8
1
 62
7
 10
-1193.205369135939
 20
-15.47885100074416
 30
0
 40
147.9999999999999
 50
97.18075578145829
 51
100.4021210089518
  0
ARC
  8
1
 62
7
 10
-1193.205369135939
 20
-15.47885100074416
 30
0
 40
149.9999999999999
 50
95.73917047726677
 51
84.26082952273322
  0
ARC
  8
1
 62
7
 10
-1193.205369135939
 20
-15.47885100074416
 30
0
 40
152
 50
95.66340650932392
 51
84.31979594027494
  0
ARC
  8
1
 62
7
 10
-1193.205369135939
 20
-15.47885100074416
 30
0
 40
158.9999999999999
 50
95.41331227397114
 51
84.58668772602886
  0
ARC
  8
1
 62
7
 10
-1193.205369135939
 20
-15.47885100074416
 30
0
 40
162
 50
95.31277470527137
 51
84.68722529472863
  0
ARC
  8
1
 62
7
 10
-1193.205369135939
 20
-15.47885100074416
 30
0
 40
49.99999999999996
 50
106.260204708312
 51
73.73979529168803
  0
ARC
  8
1
 62
7
 10
-496.7347317323614
 20
134.6711489992558
 30
0
 40
5
 50
180
 51
270
  0
ARC
  8
1
 62
7
 10
-496.7547317323613
 20
134.6711489992558
 30
0
 40
7.300000000000011
 50
180
 51
270
  0
CIRCLE
  8
1
 62
7
 10
-1193.205369135939
 20
-15.47885100074416
 30
0
 40
100
  0
CIRCLE
  8
1
 62
7
 10
13.55725034840475
 20
-15.4788510007442
 30
0
 40
143.5000000000001
  0
CIRCLE
  8
1
 62
7
 10
13.55725034840475
 20
-15.4788510007442
 30
0
 40
148.5000000000001
  0
CIRCLE
  8
1
 62
7
 10
13.55725034840475
 20
-15.4788510007442
 30
0
 40
162.5000000000001
  0
CIRCLE
  8
1
 62
7
 10
13.55725034840475
 20
-15.4788510007442
 30
0
 40
85
  0
CIRCLE
  8
1
 62
7
 10
13.55725034840475
 20
-15.4788510007442
 30
0
 40
101.5000000000001
  0
CIRCLE
  8
1
 62
7
 10
-1215.205369135939
 20
120.5211489992558
 30
0
 40
4.25
  0
CIRCLE
  8
1
 62
7
 10
-1171.205369135939
 20
120.5211489992558
 30
0
 40
4.25
  0
CIRCLE
  8
1
 62
7
 10
-1193.205369135939
 20
-15.47885100074416
 30
0
 40
65
  0
CIRCLE
  8
1
 62
7
 10
-1193.205369135939
 20
-15.47885100074416
 30
0
 40
122
  0
CIRCLE
  8
1
 62
7
 10
-1193.205369135939
 20
-15.47885100074416
 30
0
 40
125
  0
CIRCLE
  8
1
 62
7
 10
-488.7053691359392
 20
67.02114899925579
 30
0
 40
10.5
  0
CIRCLE
  8
1
 62
7
 10
-455.7053691359392
 20
67.02114899925579
 30
0
 40
10.5
  0
CIRCLE
  8
1
 62
7
 10
-488.7053691359392
 20
-97.97885100074427
 30
0
 40
10.5
  0
CIRCLE
  8
1
 62
7
 10
-455.7053691359392
 20
-97.97885100074419
 30
0
 40
10.5
  0
ARC
  8
1
 62
7
 10
-344.2053691359392
 20
80.0211489992558
 30
0
 40
3
 50
90
 51
180
  0
ARC
  8
1
 62
7
 10
-344.2053691359392
 20
-110.9788510007442
 30
0
 40
3
 50
180
 51
270
  0
TEXT
  8
1
 62
7
 10
-1317.81769241789
 20
340.078183994719
 30
0
 40
18
  1
DC4329
 41
0.9
  7
SIMPLEX
  0
TEXT
  8
1
 62
7
 10
-1316.11800636195
 20
374.475986386272
 30
0
 40
18
  1
MWC 250
 41
0.9
  7
SIMPLEX
  0
ENDSEC
  0
EOF
