  0
SECTION
  2
HEADER
  9
$ACADVER
  1
AC1009
  9
$INSBASE
 10
0
 20
0
  9
$EXTMIN
 10
-1855.232662721893
 20
-166.1759004709879
  9
$EXTMAX
 10
-210.2326627218928
 20
397.936640649496
  9
$LIMMIN
 10
-1855.232662721893
 20
-166.1759004709879
  9
$LIMMAX
 10
-210.2326627218928
 20
397.936640649496
  9
$VIEWCTR
 10
10
 20
10
  9
$VIEWSIZE
 40
10
  9
$SNAPMODE
 70
0
  9
$SNAPUNIT
 10
1
 20
1
  9
$SNAPBASE
 10
0
 20
0
  9
$SNAPANG
 50
0
  9
$SNAPSTYLE
 70
0
  9
$SNAPISOPAIR
 70
0
  9
$GRIDMODE
 70
0
  9
$GRIDUNIT
 10
0
 20
0
  9
$ORTHOMODE
 70
0
  9
$REGENMODE
 70
1
  9
$FILLMODE
 70
1
  9
$QTEXTMODE
 70
0
  9
$DRAGMODE
 70
2
  9
$LTSCALE
 40
1
  9
$OSMODE
 70
0
  9
$ATTMODE
 70
1
  9
$TEXTSIZE
 40
3.5
  9
$TRACEWID
 40
0.5
  9
$TEXTSTYLE
  7
STANDARD
  9
$CLAYER
  8
0
  9
$CELTYPE
  6
BYLAYER
  9
$CECOLOR
 62
256
  9
$DIMSCALE
 40
1
  9
$DIMASZ
 40
0.18
  9
$DIMEXO
 40
0.0625
  9
$DIMDLI
 40
0.38
  9
$DIMRND
 40
0
  9
$DIMDLE
 40
0
  9
$DIMEXE
 40
0.18
  9
$DIMTP
 40
0
  9
$DIMTM
 40
0
  9
$DIMTXT
 40
0.18
  9
$DIMCEN
 40
0.09
  9
$DIMTSZ
 40
0
  9
$DIMTOL
 70
0
  9
$DIMLIM
 70
0
  9
$DIMTIH
 70
1
  9
$DIMTOH
 70
1
  9
$DIMSE1
 70
0
  9
$DIMSE2
 70
0
  9
$DIMTAD
 70
0
  9
$DIMZIN
 70
0
  9
$DIMBLK
  1

  9
$DIMASO
 70
1
  9
$DIMSHO
 70
1
  9
$DIMPOST
  1

  9
$DIMAPOST
  1

  9
$DIMALT
 70
0
  9
$DIMALTD
 70
2
  9
$DIMALTF
 40
25.4
  9
$DIMLFAC
 40
1
  9
$DIMTOFL
 70
0
  9
$DIMTVP
 40
0
  9
$DIMTIX
 70
0
  9
$DIMSOXD
 70
0
  9
$DIMSAH
 70
0
  9
$DIMBLK1
  1

  9
$DIMBLK2
  1

  9
$DIMSTYLE
  2
*UNNAMED
  9
$DIMCLRD
 70
0
  9
$DIMCLRE
 70
0
  9
$DIMCLRT
 70
0
  9
$DIMTFAC
 40
1
  9
$DIMGAP
 40
0.09
  9
$LUNITS
 70
2
  9
$LUPREC
 70
4
  9
$AXISMODE
 70
0
  9
$AXISUNIT
 10
0
 20
0
  9
$SKETCHINC
 40
0.1
  9
$FILLETRAD
 40
2
  9
$AUNITS
 70
0
  9
$AUPREC
 70
0
  9
$MENU
  1
ACAD
  9
$ELEVATION
 40
0
  9
$THICKNESS
 40
0
  9
$VIEWDIR
 10
0
 20
0
 30
1
  9
$LIMCHECK
 70
0
  9
$BLIPMODE
 70
1
  9
$CHAMFERA
 40
0
  9
$CHAMFERB
 40
0
  9
$FASTZOOM
 70
1
  9
$SKPOLY
 70
0
  9
$ANGBASE
 50
0
  9
$ANGDIR
 70
0
  9
$PDMODE
 70
0
  9
$PDSIZE
 40
0
  9
$PLINEWID
 40
0
  9
$COORDS
 70
2
  0
ENDSEC
  0
SECTION
  2
TABLES
  0
TABLE
  2
DIMSTYLE
 70
0
  0
ENDTAB
  0
TABLE
  2
LTYPE
 70
9
  0
LTYPE
  2
CONTINUOUS
 70
64
  3
Solid line
 72
65
 73
0
 40
0
  0
LTYPE
  2
BORDER
 70
64
  3
__ __ . __ __ .
 72
65
 73
6
 40
75.75657894736843
 49
21.64473684210526
 49
-10.82236842105263
 49
21.64473684210526
 49
-10.82236842105263
 49
0
 49
-10.82236842105263
  0
LTYPE
  2
CENTER
 70
64
  3
____ _ ____ _
 72
65
 73
4
 40
86.57894736842106
 49
54.11184210526316
 49
-10.82236842105263
 49
10.82236842105263
 49
-10.82236842105263
  0
LTYPE
  2
DASHDOT
 70
64
  3
__ . __ . __ .
 72
65
 73
4
 40
43.28947368421053
 49
21.64473684210526
 49
-10.82236842105263
 49
0
 49
-10.82236842105263
  0
LTYPE
  2
DASHED
 70
64
  3
__ __ __ __ __
 72
65
 73
2
 40
32.4671052631579
 49
21.64473684210526
 49
-10.82236842105263
  0
LTYPE
  2
DIVIDE
 70
64
  3
__ . . __ . . 
 72
65
 73
6
 40
54.11184210526316
 49
21.64473684210526
 49
-10.82236842105263
 49
0
 49
-10.82236842105263
 49
0
 49
-10.82236842105263
  0
LTYPE
  2
DOT
 70
64
  3
..............
 72
65
 73
4
 40
21.64473684210526
 49
0
 49
-10.82236842105263
 49
0
 49
-10.82236842105263
  0
LTYPE
  2
HIDDEN
 70
64
  3
_ _ _ _ _ _ _
 72
65
 73
2
 40
16.23355263157895
 49
10.82236842105263
 49
-5.411184210526316
  0
LTYPE
  2
PHANTOM
 70
64
  3
_____ _ _ _____ _ _ 
 72
65
 73
6
 40
108.2236842105263
 49
54.11184210526316
 49
-10.82236842105263
 49
10.82236842105263
 49
-10.82236842105263
 49
10.82236842105263
 49
-10.82236842105263
  0
ENDTAB
  0
TABLE
  2
LAYER
 70
3
  0
LAYER
  2
1
 70
0
 62
7
  6
CONTINUOUS
  0
LAYER
  2
0
 70
0
 62
7
  6
CONTINUOUS
  0
ENDTAB
  0
TABLE
  2
STYLE
 70
4
  0
STYLE
  2
STANDARD
 70
0
 40
0
 41
1
 50
0
 71
0
 42
3.5
  3
txt
  4

  0
STYLE
  2
SIMPLEX
 70
0
 40
0
 41
1
 50
0
 71
0
 42
3.5
  3
simplex
  4

  0
STYLE
  2
COMPLEX
 70
0
 40
0
 41
1
 50
0
 71
0
 42
3.5
  3
complex
  4

  0
STYLE
  2
ITALIC
 70
0
 40
0
 41
1
 50
0
 71
0
 42
3.5
  3
italic
  4

  0
ENDTAB
  0
TABLE
  2
VIEW
 70
0
  0
ENDTAB
  0
ENDSEC
  0
SECTION
  2
BLOCKS
  0
ENDSEC
  0
SECTION
  2
ENTITIES
  0
LINE
  8
1
 62
7
 10
-824.2326627218929
 20
175.6691128537541
 30
0
 11
-806.2326627218927
 21
175.6691128537541
 31
0
  0
LINE
  8
1
 62
7
 10
-1308.432662721893
 20
149.2749473997754
 30
0
 11
-1305.232662721893
 21
149.2749473997754
 31
0
  0
LINE
  8
1
 62
7
 10
-1309.732662721893
 20
157.2691128537541
 30
0
 11
-1309.732662721893
 21
166.469112853754
 31
0
  0
LINE
  8
1
 62
7
 10
-1308.432662721893
 20
149.2749473997754
 30
0
 11
-1308.432662721893
 21
173.869112853754
 31
0
  0
LINE
  8
1
 62
7
 10
-1314.432662721893
 20
157.6191128537541
 30
0
 11
-1314.432662721893
 21
166.1191128537541
 31
0
  0
LINE
  8
1
 62
7
 10
-1309.732662721893
 20
157.6191128537541
 30
0
 11
-1314.432662721893
 21
157.6191128537541
 31
0
  0
LINE
  8
1
 62
7
 10
-1314.432662721893
 20
157.6191128537541
 30
0
 11
-1314.732662721893
 21
158.1387280960247
 31
0
  0
LINE
  8
1
 62
7
 10
-1314.732662721893
 20
158.1387280960247
 30
0
 11
-1314.732662721893
 21
165.5994976114833
 31
0
  0
LINE
  8
1
 62
7
 10
-1314.732662721893
 20
165.5994976114833
 30
0
 11
-1314.432662721893
 21
166.1191128537541
 31
0
  0
LINE
  8
1
 62
7
 10
-1314.432662721893
 20
166.1191128537541
 30
0
 11
-1309.732662721893
 21
166.1191128537541
 31
0
  0
LINE
  8
1
 62
7
 10
-1308.432662721893
 20
157.2691128537541
 30
0
 11
-1309.732662721893
 21
157.2691128537541
 31
0
  0
LINE
  8
1
 62
7
 10
-1309.732662721893
 20
166.469112853754
 30
0
 11
-1308.432662721893
 21
166.469112853754
 31
0
  0
LINE
  8
1
 62
7
 10
-1309.732662721893
 20
161.8691128537541
 30
0
 11
-1308.432662721893
 21
160.5691128537541
 31
0
  0
LINE
  8
1
 62
7
 10
-1309.732662721893
 20
163.1691128537541
 30
0
 11
-1308.432662721893
 21
161.8691128537541
 31
0
  0
LINE
  8
1
 62
7
 10
-1308.432662721893
 20
152.8691128537541
 30
0
 11
-1320.232662721893
 21
152.8691128537541
 31
0
  0
LINE
  8
1
 62
7
 10
-1305.232662721893
 20
173.869112853754
 30
0
 11
-1308.432662721893
 21
173.869112853754
 31
0
  0
LINE
  8
1
 62
7
 10
-1320.232662721893
 20
152.8691128537541
 30
0
 11
-1320.232662721893
 21
245.869112853754
 31
0
  0
LINE
  8
1
 62
7
 10
-1320.232662721893
 20
245.869112853754
 30
0
 11
-1305.232662721893
 21
245.869112853754
 31
0
  0
LINE
  8
1
 62
7
 10
-1314.402662721893
 20
245.8691128537541
 30
0
 11
-1314.402662721893
 21
270.753272058764
 31
0
  0
LINE
  8
1
 62
7
 10
-1317.032662721893
 20
245.8691128537541
 30
0
 11
-1317.032662721893
 21
270.753272058764
 31
0
  0
LINE
  8
1
 62
7
 10
-1316.070399631576
 20
275.753272058764
 30
0
 11
-1316.070399631576
 21
270.753272058764
 31
0
  0
LINE
  8
1
 62
7
 10
-1316.475528718742
 20
275.753272058764
 30
0
 11
-1316.475528718742
 21
270.753272058764
 31
0
  0
LINE
  8
1
 62
7
 10
-1315.332485937095
 20
275.753272058764
 30
0
 11
-1315.332485937095
 21
270.753272058764
 31
0
  0
LINE
  8
1
 62
7
 10
-1314.95629464187
 20
275.753272058764
 30
0
 11
-1314.95629464187
 21
270.753272058764
 31
0
  0
LINE
  8
1
 62
7
 10
-1317.032662721893
 20
270.753272058764
 30
0
 11
-1314.402662721893
 21
270.753272058764
 31
0
  0
LINE
  8
1
 62
7
 10
-1315.717662721893
 20
275.753272058764
 30
0
 11
-1315.717662721893
 21
270.753272058764
 31
0
  0
LINE
  8
1
 62
7
 10
-1328.232662721893
 20
90.86911285375436
 30
0
 11
-1317.232662721893
 21
90.86911285375436
 31
0
  0
LINE
  8
1
 62
7
 10
-1328.232662721893
 20
90.86911285375436
 30
0
 11
-1330.232662721893
 21
88.86911285375436
 31
0
  0
LINE
  8
1
 62
7
 10
-1317.232662721893
 20
150.8691128537544
 30
0
 11
-1308.432662721893
 21
150.8691128537541
 31
0
  0
LINE
  8
1
 62
7
 10
-1191.232662721893
 20
180.8691128537541
 30
0
 11
-1201.232662721893
 21
190.8691128537544
 31
0
  0
LINE
  8
1
 62
7
 10
-1201.232662721893
 20
190.8691128537544
 30
0
 11
-1305.232662721893
 21
190.8691128537544
 31
0
  0
LINE
  8
1
 62
7
 10
-1191.232662721893
 20
174.8691128537541
 30
0
 11
-1181.132662721893
 21
174.8691128537541
 31
0
  0
LINE
  8
1
 62
7
 10
-1145.032662721893
 20
190.8691128537541
 30
0
 11
-1181.132662721893
 21
190.8691128537544
 31
0
  0
LINE
  8
1
 62
3
 10
-1145.032662721893
 20
15.86911285375413
 30
0
 11
-1181.132662721893
 21
190.8691128537544
 31
0
  0
LINE
  8
1
 62
3
 10
-1145.032662721893
 20
190.8691128537541
 30
0
 11
-1181.132662721893
 21
15.86911285375413
 31
0
  0
LINE
  8
1
 62
7
 10
-1123.032662721893
 20
164.8691128537541
 30
0
 11
-1133.032662721893
 21
174.8691128537544
 31
0
  0
LINE
  8
1
 62
7
 10
-1133.032662721893
 20
174.8691128537544
 30
0
 11
-1145.032662721893
 21
174.8691128537544
 31
0
  0
LINE
  8
1
 62
7
 10
-1120.232662721893
 20
102.8691128537541
 30
0
 11
-1123.032662721893
 21
105.6691128537541
 31
0
  0
LINE
  8
1
 62
7
 10
-920.2326627218929
 20
-119.1308871462459
 30
0
 11
-920.2326627218929
 21
-159.1308871462459
 31
0
  0
LINE
  8
1
 62
7
 10
-945.2326627218929
 20
-57.13088714624587
 30
0
 11
-945.2326627218929
 21
15.8691128537541
 31
0
  0
LINE
  8
1
 62
7
 10
-735.2326627218929
 20
-71.13088714624587
 30
0
 11
-735.2326627218928
 21
15.8691128537541
 31
0
  0
LINE
  8
1
 62
7
 10
-745.0326627218927
 20
-71.6308871462459
 30
0
 11
-749.0326627218927
 21
-71.6308871462459
 31
0
  0
LINE
  8
1
 62
7
 10
-796.132662721893
 20
-63.13088714624587
 30
0
 11
-796.132662721893
 21
-72.33088714624591
 31
0
  0
LINE
  8
1
 62
7
 10
-920.2326627218929
 20
-56.63088714624587
 30
0
 11
-920.2326627218929
 21
-102.1308871462459
 31
0
  0
LINE
  8
1
 62
7
 10
-885.2326627218928
 20
-59.1308871462459
 30
0
 11
-885.2326627218928
 21
-96.6308871462459
 31
0
  0
LINE
  8
1
 62
7
 10
-932.2326627218929
 20
-119.1308871462459
 30
0
 11
-932.2326627218929
 21
-71.63088714624587
 31
0
  0
LINE
  8
1
 62
7
 10
-920.2326627218929
 20
-119.1308871462459
 30
0
 11
-932.2326627218929
 21
-119.1308871462459
 31
0
  0
LINE
  8
1
 62
7
 10
-735.2326627218929
 20
-39.13088714624587
 30
0
 11
-768.2326627218929
 21
-39.13088714624587
 31
0
  0
LINE
  8
1
 62
7
 10
-858.2326627218928
 20
-39.1308871462459
 30
0
 11
-945.2326627218929
 21
-39.1308871462459
 31
0
  0
LINE
  8
1
 62
7
 10
-838.232662721893
 20
-39.6308871462459
 30
0
 11
-838.2326627218929
 21
15.86911285375413
 31
0
  0
LINE
  8
1
 62
7
 10
-858.2326627218928
 20
-39.6308871462459
 30
0
 11
-858.2326627218929
 21
15.86911285375413
 31
0
  0
LINE
  8
1
 62
7
 10
-858.2326627218928
 20
-39.6308871462459
 30
0
 11
-838.232662721893
 21
-39.6308871462459
 31
0
  0
LINE
  8
1
 62
7
 10
-848.2326627218928
 20
-70.1308871462459
 30
0
 11
-850.2326627218928
 21
-70.1308871462459
 31
0
  0
LINE
  8
1
 62
7
 10
-848.2326627218929
 20
-87.13088714624587
 30
0
 11
-848.2326627218928
 21
-70.1308871462459
 31
0
  0
LINE
  8
1
 62
7
 10
-822.2326627218929
 20
-87.13088714624587
 30
0
 11
-848.2326627218929
 21
-87.13088714624587
 31
0
  0
LINE
  8
1
 62
7
 10
-822.2326627218929
 20
-142.9308871462458
 30
0
 11
-822.2326627218929
 21
-87.13088714624587
 31
0
  0
LINE
  8
1
 62
7
 10
-796.132662721893
 20
-142.9308871462458
 30
0
 11
-822.2326627218929
 21
-142.9308871462458
 31
0
  0
LINE
  8
1
 62
7
 10
-925.2326627218929
 20
-99.13088714624587
 30
0
 11
-932.2326627218929
 21
-99.13088714624587
 31
0
  0
LINE
  8
1
 62
7
 10
-925.2326627218929
 20
-88.13088714624587
 30
0
 11
-920.2326627218929
 21
-88.13088714624587
 31
0
  0
LINE
  8
1
 62
7
 10
-925.2326627218929
 20
-102.1308871462459
 30
0
 11
-925.2326627218929
 21
-73.89127447835585
 31
0
  0
LINE
  8
1
 62
7
 10
-925.2326627218929
 20
-102.1308871462459
 30
0
 11
-920.2326627218929
 21
-102.1308871462459
 31
0
  0
LINE
  8
1
 62
7
 10
-924.2326627218929
 20
-56.63088714624587
 30
0
 11
-924.2326627218929
 21
-68.23088714624578
 31
0
  0
LINE
  8
1
 62
7
 10
-920.2326627218929
 20
-56.63088714624587
 30
0
 11
-924.2326627218929
 21
-56.63088714624587
 31
0
  0
LINE
  8
1
 62
7
 10
-924.2326627218929
 20
-68.23088714624578
 30
0
 11
-920.2326627218929
 21
-68.23088714624578
 31
0
  0
LINE
  8
1
 62
3
 10
-902.7326627218929
 20
-90.69338714624587
 30
0
 11
-902.7326627218929
 21
-65.06838714624587
 31
0
  0
LINE
  8
1
 62
3
 10
-915.5451627218929
 20
-77.88088714624587
 30
0
 11
-889.9201627218929
 21
-77.88088714624587
 31
0
  0
LINE
  8
1
 62
7
 10
-908.6589679578726
 20
-87.44338714624587
 30
0
 11
-920.2326627218929
 21
-87.44338714624587
 31
0
  0
LINE
  8
1
 62
7
 10
-908.6589679578726
 20
-68.31838714624587
 30
0
 11
-920.2326627218929
 21
-68.31838714624587
 31
0
  0
LINE
  8
1
 62
7
 10
-885.2326627218929
 20
-62.63088714624587
 30
0
 11
-885.2326627218929
 21
-93.13088714624587
 31
0
  0
LINE
  8
1
 62
3
 10
-867.7326627218929
 20
-90.69338714624587
 30
0
 11
-867.7326627218929
 21
-65.06838714624587
 31
0
  0
LINE
  8
1
 62
3
 10
-880.5451627218929
 20
-77.88088714624587
 30
0
 11
-854.9201627218929
 21
-77.88088714624587
 31
0
  0
LINE
  8
1
 62
7
 10
-873.6589679578726
 20
-87.44338714624587
 30
0
 11
-896.8063574859134
 21
-87.44338714624587
 31
0
  0
LINE
  8
1
 62
7
 10
-861.8063574859133
 20
-87.44338714624587
 30
0
 11
-850.2326627218929
 21
-87.44338714624587
 31
0
  0
LINE
  8
1
 62
7
 10
-873.6589679578726
 20
-68.31838714624587
 30
0
 11
-896.8063574859134
 21
-68.31838714624587
 31
0
  0
LINE
  8
1
 62
7
 10
-861.8063574859133
 20
-68.31838714624587
 30
0
 11
-850.2326627218929
 21
-68.31838714624587
 31
0
  0
LINE
  8
1
 62
7
 10
-920.2326627218929
 20
-59.13088714624587
 30
0
 11
-845.2326627218929
 21
-59.13088714624587
 31
0
  0
LINE
  8
1
 62
7
 10
-850.2326627218929
 20
-96.63088714624587
 30
0
 11
-920.2326627218929
 21
-96.63088714624587
 31
0
  0
LINE
  8
1
 62
7
 10
-850.2326627218929
 20
-59.13088714624587
 30
0
 11
-850.2326627218929
 21
-96.63088714624587
 31
0
  0
LINE
  8
1
 62
7
 10
-816.2326627218929
 20
-159.1308871462459
 30
0
 11
-806.2326627218929
 21
-149.1308871462459
 31
0
  0
LINE
  8
1
 62
7
 10
-816.2326627218929
 20
-159.1308871462459
 30
0
 11
-920.2326627218929
 21
-159.1308871462459
 31
0
  0
LINE
  8
1
 62
7
 10
-806.2326627218929
 20
-143.9308871462458
 30
0
 11
-824.2326627218929
 21
-143.9308871462458
 31
0
  0
LINE
  8
1
 62
7
 10
-824.2326627218929
 20
-88.43088714624582
 30
0
 11
-850.2326627218929
 21
-88.43088714624582
 31
0
  0
LINE
  8
1
 62
7
 10
-824.2326627218929
 20
-143.9308871462458
 30
0
 11
-824.2326627218929
 21
-88.43088714624582
 31
0
  0
LINE
  8
1
 62
7
 10
-806.2326627218929
 20
-149.1308871462459
 30
0
 11
-806.2326627218929
 21
-143.9308871462458
 31
0
  0
LINE
  8
1
 62
7
 10
-796.2326627218929
 20
-63.13088714624587
 30
0
 11
-850.2326627218928
 21
-63.1308871462459
 31
0
  0
LINE
  8
1
 62
7
 10
-845.2326627218928
 20
-63.1308871462459
 30
0
 11
-845.2326627218929
 21
-59.13088714624587
 31
0
  0
LINE
  8
1
 62
7
 10
-924.2326627218929
 20
-59.13088714624587
 30
0
 11
-943.2326627218929
 21
-59.13088714624587
 31
0
  0
LINE
  8
1
 62
7
 10
-760.0326627218929
 20
-159.1308871462459
 30
0
 11
-760.0326627218929
 21
-72.33088714624591
 31
0
  0
LINE
  8
1
 62
7
 10
-760.0326627218929
 20
-159.1308871462459
 30
0
 11
-796.132662721893
 21
-159.1308871462459
 31
0
  0
LINE
  8
1
 62
7
 10
-796.132662721893
 20
-159.1308871462459
 30
0
 11
-796.132662721893
 21
-72.33088714624591
 31
0
  0
LINE
  8
1
 62
7
 10
-760.0326627218929
 20
-143.1308871462459
 30
0
 11
-748.0326627218929
 21
-143.1308871462459
 31
0
  0
LINE
  8
1
 62
7
 10
-738.0326627218927
 20
-94.1308871462459
 30
0
 11
-744.0326627218927
 21
-88.1308871462459
 31
0
  0
LINE
  8
1
 62
7
 10
-744.0326627218927
 20
-88.1308871462459
 30
0
 11
-746.0326627218927
 21
-88.1308871462459
 31
0
  0
LINE
  8
1
 62
7
 10
-749.0326627218927
 20
-85.1308871462459
 30
0
 11
-749.0326627218927
 21
-71.6308871462459
 31
0
  0
LINE
  8
1
 62
7
 10
-749.0326627218929
 20
-72.33088714624591
 30
0
 11
-796.132662721893
 21
-72.33088714624591
 31
0
  0
LINE
  8
1
 62
7
 10
-749.0326627218929
 20
-77.93088714624582
 30
0
 11
-796.132662721893
 21
-77.93088714624582
 31
0
  0
LINE
  8
1
 62
7
 10
-738.0326627218929
 20
-133.1308871462459
 30
0
 11
-748.0326627218929
 21
-143.1308871462459
 31
0
  0
LINE
  8
1
 62
7
 10
-738.2326627218928
 20
-74.1308871462459
 30
0
 11
-745.0326627218927
 21
-74.1308871462459
 31
0
  0
LINE
  8
1
 62
7
 10
-768.2326627218929
 20
-39.63088714624587
 30
0
 11
-788.2326627218929
 21
-39.63088714624587
 31
0
  0
LINE
  8
1
 62
7
 10
-788.2326627218929
 20
-39.63088714624587
 30
0
 11
-788.2326627218929
 21
15.86911285375413
 31
0
  0
LINE
  8
1
 62
7
 10
-768.2326627218929
 20
-39.63088714624587
 30
0
 11
-768.2326627218929
 21
15.86911285375413
 31
0
  0
LINE
  8
1
 62
7
 10
-788.2326627218929
 20
-39.13088714624587
 30
0
 11
-838.232662721893
 21
-39.1308871462459
 31
0
  0
LINE
  8
1
 62
3
 10
-760.0326627218929
 20
-72.33088714624591
 30
0
 11
-796.132662721893
 21
-159.1308871462459
 31
0
  0
LINE
  8
1
 62
3
 10
-760.0326627218929
 20
-159.1308871462459
 30
0
 11
-796.132662721893
 21
-72.33088714624591
 31
0
  0
LINE
  8
1
 62
7
 10
-745.0326627218931
 20
-82.03088714624596
 30
0
 11
-749.0326627218929
 21
-82.03088714624596
 31
0
  0
LINE
  8
1
 62
7
 10
-745.0326627218931
 20
-82.03088714624596
 30
0
 11
-745.0326627218927
 21
-71.6308871462459
 31
0
  0
LINE
  8
1
 62
7
 10
-744.0326627218927
 20
-88.1308871462459
 30
0
 11
-744.0326627218929
 21
-80.21135310938576
 31
0
  0
LINE
  8
1
 62
7
 10
-738.0326627218929
 20
-133.1308871462459
 30
0
 11
-738.0326627218929
 21
-80.21135310938576
 31
0
  0
LINE
  8
1
 62
7
 10
-945.2326627218929
 20
-57.13088714624587
 30
0
 11
-943.2326627218929
 21
-59.13088714624587
 31
0
  0
LINE
  8
1
 62
7
 10
-735.2326627218929
 20
-71.13088714624587
 30
0
 11
-738.2326627218928
 21
-74.1308871462459
 31
0
  0
LINE
  8
1
 62
7
 10
-775.7326627218928
 20
-39.6308871462459
 30
0
 11
-775.7326627218929
 21
-71.93088714624582
 31
0
  0
LINE
  8
1
 62
7
 10
-780.7326627218929
 20
-71.93088714624582
 30
0
 11
-780.7326627218928
 21
-39.6308871462459
 31
0
  0
LINE
  8
1
 62
3
  6
DASHDOT
 10
-778.2326627218929
 20
-36.63088714624587
 30
0
 11
-778.2326627218929
 21
-74.93088714624582
 31
0
  0
LINE
  8
1
 62
7
 10
-845.7326627218928
 20
-39.6308871462459
 30
0
 11
-845.7326627218929
 21
-59.13088714624587
 31
0
  0
LINE
  8
1
 62
7
 10
-850.7326627218928
 20
-59.1308871462459
 30
0
 11
-850.7326627218928
 21
-39.6308871462459
 31
0
  0
LINE
  8
1
 62
3
  6
DASHDOT
 10
-848.2326627218929
 20
-36.63088714624587
 30
0
 11
-848.2326627218929
 21
-62.13088714624587
 31
0
  0
LINE
  8
1
 62
7
 10
-945.2326627218929
 20
15.8691128537541
 30
0
 11
-945.2326627218929
 21
88.86911285375413
 31
0
  0
LINE
  8
1
 62
7
 10
-735.2326627218928
 20
15.8691128537541
 30
0
 11
-735.2326627218929
 21
102.8691128537541
 31
0
  0
LINE
  8
1
 62
7
 10
-749.0326627218927
 20
103.3691128537541
 30
0
 11
-745.0326627218927
 21
103.3691128537541
 31
0
  0
LINE
  8
1
 62
7
 10
-796.132662721893
 20
104.0691128537542
 30
0
 11
-796.132662721893
 21
94.86911285375413
 31
0
  0
LINE
  8
1
 62
7
 10
-920.2326627218929
 20
133.8691128537541
 30
0
 11
-920.2326627218929
 21
88.36911285375413
 31
0
  0
LINE
  8
1
 62
7
 10
-885.2326627218928
 20
128.3691128537541
 30
0
 11
-885.2326627218928
 21
90.8691128537541
 31
0
  0
LINE
  8
1
 62
7
 10
-1330.232662721893
 20
-57.13088714624587
 30
0
 11
-1330.232662721893
 21
88.86911285375436
 31
0
  0
LINE
  8
1
 62
7
 10
-1317.232662721893
 20
-59.13088714624587
 30
0
 11
-1328.232662721893
 21
-59.13088714624587
 31
0
  0
LINE
  8
1
 62
7
 10
-1317.232662721893
 20
150.8691128537544
 30
0
 11
-1317.232662721893
 21
-119.1308871462459
 31
0
  0
LINE
  8
1
 62
7
 10
-1330.232662721893
 20
-57.13088714624587
 30
0
 11
-1328.232662721893
 21
-59.13088714624587
 31
0
  0
LINE
  8
1
 62
7
 10
-1328.232662721893
 20
90.86911285375436
 30
0
 11
-1328.232662721893
 21
-59.13088714624587
 31
0
  0
LINE
  8
1
 62
7
 10
-1305.232662721893
 20
-159.1308871462459
 30
0
 11
-1305.232662721893
 21
245.869112853754
 31
0
  0
LINE
  8
1
 62
7
 10
-1305.232662721893
 20
-119.1308871462459
 30
0
 11
-1317.232662721893
 21
-119.1308871462459
 31
0
  0
LINE
  8
1
 62
7
 10
-1201.232662721893
 20
-159.1308871462459
 30
0
 11
-1191.232662721893
 21
-149.1308871462459
 31
0
  0
LINE
  8
1
 62
7
 10
-1305.232662721893
 20
-159.1308871462459
 30
0
 11
-1201.232662721893
 21
-159.1308871462459
 31
0
  0
LINE
  8
1
 62
7
 10
-1201.232662721893
 20
-159.1308871462459
 30
0
 11
-1201.232662721893
 21
190.8691128537544
 31
0
  0
LINE
  8
1
 62
7
 10
-1191.232662721893
 20
180.8691128537541
 30
0
 11
-1191.232662721893
 21
-149.1308871462459
 31
0
  0
LINE
  8
1
 62
7
 10
-1181.132662721893
 20
-143.1308871462459
 30
0
 11
-1191.232662721893
 21
-143.1308871462459
 31
0
  0
LINE
  8
1
 62
7
 10
-1181.132662721893
 20
190.8691128537544
 30
0
 11
-1181.132662721893
 21
-159.1308871462459
 31
0
  0
LINE
  8
1
 62
7
 10
-1145.032662721893
 20
-159.1308871462459
 30
0
 11
-1145.032662721893
 21
190.8691128537541
 31
0
  0
LINE
  8
1
 62
7
 10
-1181.132662721893
 20
-159.1308871462459
 30
0
 11
-1145.032662721893
 21
-159.1308871462459
 31
0
  0
LINE
  8
1
 62
3
 10
-1181.132662721893
 20
-159.1308871462459
 30
0
 11
-1145.032662721893
 21
15.86911285375413
 31
0
  0
LINE
  8
1
 62
3
 10
-1181.132662721893
 20
15.86911285375413
 30
0
 11
-1145.032662721893
 21
-159.1308871462459
 31
0
  0
LINE
  8
1
 62
7
 10
-1123.032662721893
 20
-133.1308871462459
 30
0
 11
-1123.032662721893
 21
164.8691128537541
 31
0
  0
LINE
  8
1
 62
7
 10
-1133.032662721893
 20
-143.130887146246
 30
0
 11
-1123.032662721893
 21
-133.1308871462459
 31
0
  0
LINE
  8
1
 62
7
 10
-1133.032662721893
 20
174.8691128537544
 30
0
 11
-1133.032662721893
 21
-143.130887146246
 31
0
  0
LINE
  8
1
 62
7
 10
-1145.032662721893
 20
-143.1308871462459
 30
0
 11
-1133.032662721893
 21
-143.130887146246
 31
0
  0
LINE
  8
1
 62
7
 10
-1120.232662721893
 20
-71.13088714624587
 30
0
 11
-1120.232662721893
 21
102.8691128537541
 31
0
  0
LINE
  8
1
 62
7
 10
-1123.032662721893
 20
-73.93088714624582
 30
0
 11
-1120.232662721893
 21
-71.13088714624587
 31
0
  0
LINE
  8
1
 62
7
 10
-920.2326627218929
 20
150.8691128537541
 30
0
 11
-920.2326627218929
 21
245.8691128537541
 31
0
  0
LINE
  8
1
 62
7
 10
-932.2326627218929
 20
103.3691128537541
 30
0
 11
-932.2326627218929
 21
150.8691128537541
 31
0
  0
LINE
  8
1
 62
7
 10
-932.2326627218929
 20
150.8691128537541
 30
0
 11
-920.2326627218929
 21
150.8691128537541
 31
0
  0
LINE
  8
1
 62
7
  6
DASHED
 10
-932.0326627218929
 20
152.8691128537541
 30
0
 11
-932.0326627218929
 21
245.8691128537541
 31
0
  0
LINE
  8
1
 62
7
 10
-935.2326627218929
 20
152.8691128537541
 30
0
 11
-935.2326627218929
 21
245.8691128537541
 31
0
  0
LINE
  8
1
 62
7
 10
-935.2326627218929
 20
152.8691128537541
 30
0
 11
-920.2326627218929
 21
152.8691128537541
 31
0
  0
LINE
  8
1
 62
7
 10
-935.2326627218929
 20
245.8691128537541
 30
0
 11
-920.2326627218929
 21
245.8691128537541
 31
0
  0
LINE
  8
1
 62
7
 10
-768.2326627218928
 20
70.8691128537541
 30
0
 11
-735.2326627218928
 21
70.8691128537541
 31
0
  0
LINE
  8
1
 62
7
 10
-945.2326627218929
 20
79.8691128537541
 30
0
 11
-735.2326627218928
 21
79.8691128537541
 31
0
  0
LINE
  8
1
 62
7
 10
-945.2326627218929
 20
70.8691128537541
 30
0
 11
-858.2326627218928
 21
70.8691128537541
 31
0
  0
LINE
  8
1
 62
7
 10
-838.2326627218929
 20
15.86911285375413
 30
0
 11
-838.232662721893
 21
71.3691128537541
 31
0
  0
LINE
  8
1
 62
7
 10
-858.2326627218929
 20
15.86911285375413
 30
0
 11
-858.2326627218928
 21
71.3691128537541
 31
0
  0
LINE
  8
1
 62
7
 10
-838.232662721893
 20
71.3691128537541
 30
0
 11
-858.2326627218928
 21
71.3691128537541
 31
0
  0
LINE
  8
1
 62
7
 10
-850.2326627218928
 20
101.8691128537541
 30
0
 11
-848.2326627218928
 21
101.8691128537541
 31
0
  0
LINE
  8
1
 62
7
 10
-848.2326627218928
 20
101.8691128537541
 30
0
 11
-848.2326627218929
 21
118.8691128537541
 31
0
  0
LINE
  8
1
 62
7
 10
-848.2326627218929
 20
118.8691128537541
 30
0
 11
-822.2326627218929
 21
118.8691128537541
 31
0
  0
LINE
  8
1
 62
7
 10
-822.2326627218929
 20
118.8691128537541
 30
0
 11
-822.2326627218929
 21
174.6691128537541
 31
0
  0
LINE
  8
1
 62
7
 10
-822.2326627218929
 20
174.6691128537541
 30
0
 11
-796.132662721893
 21
174.6691128537541
 31
0
  0
LINE
  8
1
 62
7
 10
-932.2326627218929
 20
130.8691128537541
 30
0
 11
-925.2326627218929
 21
130.8691128537541
 31
0
  0
LINE
  8
1
 62
7
 10
-920.2326627218929
 20
119.8691128537541
 30
0
 11
-925.2326627218929
 21
119.8691128537541
 31
0
  0
LINE
  8
1
 62
7
 10
-925.2326627218929
 20
105.6295001858641
 30
0
 11
-925.2326627218929
 21
133.8691128537541
 31
0
  0
LINE
  8
1
 62
7
 10
-920.2326627218929
 20
133.8691128537541
 30
0
 11
-925.2326627218929
 21
133.8691128537541
 31
0
  0
LINE
  8
1
 62
7
 10
-924.2326627218929
 20
99.96911285375404
 30
0
 11
-924.2326627218929
 21
88.36911285375413
 31
0
  0
LINE
  8
1
 62
7
 10
-924.2326627218929
 20
88.36911285375413
 30
0
 11
-920.2326627218929
 21
88.36911285375413
 31
0
  0
LINE
  8
1
 62
7
 10
-920.2326627218929
 20
99.96911285375404
 30
0
 11
-924.2326627218929
 21
99.96911285375404
 31
0
  0
LINE
  8
1
 62
3
 10
-902.7326627218929
 20
96.80661285375413
 30
0
 11
-902.7326627218929
 21
122.4316128537541
 31
0
  0
LINE
  8
1
 62
3
 10
-889.9201627218929
 20
109.6191128537541
 30
0
 11
-915.5451627218929
 21
109.6191128537541
 31
0
  0
LINE
  8
1
 62
7
 10
-920.2326627218929
 20
119.1816128537541
 30
0
 11
-908.6589679578726
 21
119.1816128537541
 31
0
  0
LINE
  8
1
 62
7
 10
-920.2326627218929
 20
100.0566128537541
 30
0
 11
-908.6589679578726
 21
100.0566128537541
 31
0
  0
LINE
  8
1
 62
7
 10
-885.2326627218929
 20
124.8691128537541
 30
0
 11
-885.2326627218929
 21
94.36911285375413
 31
0
  0
LINE
  8
1
 62
3
 10
-867.7326627218929
 20
96.80661285375413
 30
0
 11
-867.7326627218929
 21
122.4316128537541
 31
0
  0
LINE
  8
1
 62
3
 10
-854.9201627218929
 20
109.6191128537541
 30
0
 11
-880.5451627218929
 21
109.6191128537541
 31
0
  0
LINE
  8
1
 62
7
 10
-896.8063574859134
 20
119.1816128537541
 30
0
 11
-873.6589679578726
 21
119.1816128537541
 31
0
  0
LINE
  8
1
 62
7
 10
-850.2326627218929
 20
119.1816128537541
 30
0
 11
-861.8063574859133
 21
119.1816128537541
 31
0
  0
LINE
  8
1
 62
7
 10
-896.8063574859134
 20
100.0566128537541
 30
0
 11
-873.6589679578726
 21
100.0566128537541
 31
0
  0
LINE
  8
1
 62
7
 10
-850.2326627218929
 20
100.0566128537541
 30
0
 11
-861.8063574859133
 21
100.0566128537541
 31
0
  0
LINE
  8
1
 62
7
 10
-845.2326627218929
 20
90.86911285375413
 30
0
 11
-920.2326627218929
 21
90.86911285375413
 31
0
  0
LINE
  8
1
 62
7
 10
-920.2326627218929
 20
128.3691128537541
 30
0
 11
-850.2326627218929
 21
128.3691128537541
 31
0
  0
LINE
  8
1
 62
7
 10
-850.2326627218929
 20
128.3691128537541
 30
0
 11
-850.2326627218929
 21
90.86911285375413
 31
0
  0
LINE
  8
1
 62
7
 10
-806.2326627218929
 20
180.8691128537541
 30
0
 11
-816.2326627218928
 21
190.8691128537541
 31
0
  0
LINE
  8
1
 62
7
 10
-920.2326627218929
 20
190.8691128537541
 30
0
 11
-816.2326627218928
 21
190.8691128537541
 31
0
  0
LINE
  8
1
 62
7
 10
-850.2326627218929
 20
120.1691128537541
 30
0
 11
-824.2326627218929
 21
120.1691128537541
 31
0
  0
LINE
  8
1
 62
7
 10
-824.2326627218929
 20
120.1691128537541
 30
0
 11
-824.2326627218929
 21
175.6691128537541
 31
0
  0
LINE
  8
1
 62
7
 10
-806.2326627218927
 20
175.6691128537541
 30
0
 11
-806.2326627218929
 21
180.8691128537541
 31
0
  0
LINE
  8
1
 62
7
 10
-850.2326627218929
 20
94.86911285375413
 30
0
 11
-796.2326627218929
 21
94.86911285375413
 31
0
  0
LINE
  8
1
 62
7
 10
-845.2326627218929
 20
90.86911285375413
 30
0
 11
-845.2326627218929
 21
94.86911285375413
 31
0
  0
LINE
  8
1
 62
7
 10
-943.2326627218929
 20
90.86911285375413
 30
0
 11
-924.2326627218929
 21
90.86911285375413
 31
0
  0
LINE
  8
1
 62
7
 10
-760.0326627218929
 20
104.0691128537542
 30
0
 11
-760.0326627218927
 21
190.8691128537541
 31
0
  0
LINE
  8
1
 62
7
 10
-796.132662721893
 20
190.8691128537541
 30
0
 11
-760.0326627218927
 21
190.8691128537541
 31
0
  0
LINE
  8
1
 62
7
 10
-796.132662721893
 20
104.0691128537542
 30
0
 11
-796.132662721893
 21
190.8691128537541
 31
0
  0
LINE
  8
1
 62
7
 10
-748.0326627218927
 20
174.8691128537542
 30
0
 11
-760.0326627218927
 21
174.8691128537541
 31
0
  0
LINE
  8
1
 62
7
 10
-744.0326627218927
 20
119.8691128537541
 30
0
 11
-738.0326627218927
 21
125.8691128537541
 31
0
  0
LINE
  8
1
 62
7
 10
-746.0326627218927
 20
119.8691128537541
 30
0
 11
-744.0326627218927
 21
119.8691128537541
 31
0
  0
LINE
  8
1
 62
7
 10
-749.0326627218927
 20
103.3691128537541
 30
0
 11
-749.0326627218927
 21
116.8691128537541
 31
0
  0
LINE
  8
1
 62
7
 10
-796.132662721893
 20
104.0691128537542
 30
0
 11
-749.0326627218929
 21
104.0691128537542
 31
0
  0
LINE
  8
1
 62
7
 10
-796.132662721893
 20
109.6691128537541
 30
0
 11
-749.0326627218929
 21
109.6691128537541
 31
0
  0
LINE
  8
1
 62
7
 10
-748.0326627218927
 20
174.8691128537542
 30
0
 11
-738.0326627218929
 21
164.8691128537541
 31
0
  0
LINE
  8
1
 62
7
 10
-745.0326627218927
 20
105.8691128537541
 30
0
 11
-738.2326627218928
 21
105.8691128537541
 31
0
  0
LINE
  8
1
 62
7
 10
-788.2326627218928
 20
71.3691128537541
 30
0
 11
-768.2326627218928
 21
71.3691128537541
 31
0
  0
LINE
  8
1
 62
7
 10
-788.2326627218929
 20
15.86911285375413
 30
0
 11
-788.2326627218928
 21
71.3691128537541
 31
0
  0
LINE
  8
1
 62
7
 10
-768.2326627218929
 20
15.86911285375413
 30
0
 11
-768.2326627218928
 21
71.3691128537541
 31
0
  0
LINE
  8
1
 62
7
 10
-838.232662721893
 20
70.8691128537541
 30
0
 11
-788.2326627218928
 21
70.8691128537541
 31
0
  0
LINE
  8
1
 62
3
 10
-796.132662721893
 20
190.8691128537541
 30
0
 11
-760.0326627218929
 21
104.0691128537542
 31
0
  0
LINE
  8
1
 62
3
 10
-796.132662721893
 20
104.0691128537542
 30
0
 11
-760.0326627218927
 21
190.8691128537541
 31
0
  0
LINE
  8
1
 62
7
 10
-749.0326627218929
 20
113.7691128537542
 30
0
 11
-745.0326627218931
 21
113.7691128537542
 31
0
  0
LINE
  8
1
 62
7
 10
-745.0326627218927
 20
103.3691128537541
 30
0
 11
-745.0326627218931
 21
113.7691128537542
 31
0
  0
LINE
  8
1
 62
7
 10
-744.0326627218929
 20
111.949578816894
 30
0
 11
-744.0326627218927
 21
119.8691128537541
 31
0
  0
LINE
  8
1
 62
7
 10
-738.0326627218929
 20
111.949578816894
 30
0
 11
-738.0326627218929
 21
164.8691128537541
 31
0
  0
LINE
  8
1
 62
7
 10
-943.2326627218929
 20
90.86911285375413
 30
0
 11
-945.2326627218929
 21
88.86911285375413
 31
0
  0
LINE
  8
1
 62
7
 10
-738.2326627218928
 20
105.8691128537541
 30
0
 11
-735.2326627218929
 21
102.8691128537541
 31
0
  0
LINE
  8
1
 62
7
 10
-926.5818049108559
 20
255.8691128537541
 30
0
 11
-926.5818049108559
 21
245.8691128537541
 31
0
  0
LINE
  8
1
 62
7
 10
-929.1818049108558
 20
245.8691128537541
 30
0
 11
-929.1818049108558
 21
255.8691128537541
 31
0
  0
LINE
  8
1
 62
3
  6
DASHDOT
 10
-227.5770565503894
 20
106.8916195161247
 30
0
 11
-253.2800397571663
 21
92.05199524271556
 31
0
  0
LINE
  8
1
 62
3
  6
DASHDOT
 10
-227.5770565503898
 20
-75.15339380861718
 30
0
 11
-253.2800397571667
 21
-60.31376953520813
 31
0
  0
LINE
  8
1
 62
3
  6
DASHDOT
 10
-385.2326627218931
 20
-166.1759004709879
 30
0
 11
-385.2326627218931
 21
-136.4966519241697
 31
0
  0
LINE
  8
1
 62
3
  6
DASHDOT
 10
-542.888268893396
 20
-75.15339380861668
 30
0
 11
-517.1852856866191
 21
-60.31376953520756
 31
0
  0
LINE
  8
1
 62
3
 10
-945.2326627218929
 20
15.8691128537541
 30
0
 11
-953.2326627218929
 21
15.8691128537541
 31
0
  0
LINE
  8
1
 62
3
 10
-735.2326627218928
 20
15.8691128537541
 30
0
 11
-727.2326627218928
 21
15.8691128537541
 31
0
  0
LINE
  8
1
 62
3
 10
-1338.232662721893
 20
15.8691128537541
 30
0
 11
-1330.232662721893
 21
15.8691128537541
 31
0
  0
LINE
  8
1
 62
3
 10
-1120.232662721893
 20
15.8691128537541
 30
0
 11
-1112.232662721893
 21
15.8691128537541
 31
0
  0
LINE
  8
1
 62
7
 10
-1575.660937997524
 20
-95.77367968247998
 30
0
 11
-1570.084162639272
 21
-94.27938722886668
 31
0
  0
LINE
  8
1
 62
7
 10
-1579.743420902163
 20
-91.69119677784127
 30
0
 11
-1575.660937997524
 21
-95.77367968247998
 31
0
  0
LINE
  8
1
 62
7
 10
-1578.24912844855
 20
-86.11442141958926
 30
0
 11
-1579.743420902163
 21
-91.69119677784127
 31
0
  0
LINE
  8
1
 62
7
 10
-1572.672353090298
 20
-84.62012896597597
 30
0
 11
-1578.24912844855
 21
-86.11442141958926
 31
0
  0
LINE
  8
1
 62
7
 10
-1568.589870185659
 20
-88.70261187061468
 30
0
 11
-1572.672353090298
 21
-84.62012896597597
 31
0
  0
LINE
  8
1
 62
7
 10
-1570.084162639272
 20
-94.27938722886668
 30
0
 11
-1568.589870185659
 21
-88.70261187061468
 31
0
  0
LINE
  8
1
 62
7
 10
-1791.875455258127
 20
-88.70261187061456
 30
0
 11
-1790.381162804514
 21
-94.27938722886663
 31
0
  0
LINE
  8
1
 62
7
 10
-1787.792972353488
 20
-84.62012896597598
 30
0
 11
-1791.875455258127
 21
-88.70261187061456
 31
0
  0
LINE
  8
1
 62
7
 10
-1782.216196995236
 20
-86.11442141958949
 30
0
 11
-1787.792972353488
 21
-84.62012896597598
 31
0
  0
LINE
  8
1
 62
7
 10
-1780.721904541623
 20
-91.69119677784155
 30
0
 11
-1782.216196995236
 21
-86.11442141958949
 31
0
  0
LINE
  8
1
 62
7
 10
-1784.804387446262
 20
-95.77367968248014
 30
0
 11
-1780.721904541623
 21
-91.69119677784155
 31
0
  0
LINE
  8
1
 62
7
 10
-1790.381162804514
 20
-94.27938722886663
 30
0
 11
-1784.804387446262
 21
-95.77367968248014
 31
0
  0
LINE
  8
1
 62
7
 10
-1784.804387446262
 20
127.5119053899882
 30
0
 11
-1790.381162804514
 21
126.0176129363749
 31
0
  0
LINE
  8
1
 62
7
 10
-1780.721904541623
 20
123.4294224853495
 30
0
 11
-1784.804387446262
 21
127.5119053899882
 31
0
  0
LINE
  8
1
 62
7
 10
-1782.216196995237
 20
117.8526471270975
 30
0
 11
-1780.721904541623
 21
123.4294224853495
 31
0
  0
LINE
  8
1
 62
7
 10
-1787.792972353489
 20
116.3583546734842
 30
0
 11
-1782.216196995237
 21
117.8526471270975
 31
0
  0
LINE
  8
1
 62
7
 10
-1791.875455258127
 20
120.4408375781229
 30
0
 11
-1787.792972353489
 21
116.3583546734842
 31
0
  0
LINE
  8
1
 62
7
 10
-1790.381162804514
 20
126.0176129363749
 30
0
 11
-1791.875455258127
 21
120.4408375781229
 31
0
  0
LINE
  8
1
 62
7
 10
-1568.589870185659
 20
120.4408375781227
 30
0
 11
-1570.084162639272
 21
126.0176129363748
 31
0
  0
LINE
  8
1
 62
7
 10
-1572.672353090298
 20
116.3583546734841
 30
0
 11
-1568.589870185659
 21
120.4408375781227
 31
0
  0
LINE
  8
1
 62
7
 10
-1578.24912844855
 20
117.8526471270977
 30
0
 11
-1572.672353090298
 21
116.3583546734841
 31
0
  0
LINE
  8
1
 62
7
 10
-1579.743420902163
 20
123.4294224853497
 30
0
 11
-1578.24912844855
 21
117.8526471270977
 31
0
  0
LINE
  8
1
 62
7
 10
-1575.660937997524
 20
127.5119053899883
 30
0
 11
-1579.743420902163
 21
123.4294224853497
 31
0
  0
LINE
  8
1
 62
7
 10
-1570.084162639272
 20
126.0176129363748
 30
0
 11
-1575.660937997524
 21
127.5119053899883
 31
0
  0
LINE
  8
1
 62
7
 10
-1677.602662721893
 20
245.8691128537541
 30
0
 11
-1677.602662721893
 21
270.753272058764
 31
0
  0
LINE
  8
1
 62
7
 10
-1680.232662721893
 20
245.8691128537541
 30
0
 11
-1680.232662721893
 21
270.753272058764
 31
0
  0
LINE
  8
1
 62
7
 10
-1682.862662721893
 20
245.8691128537541
 30
0
 11
-1682.862662721893
 21
270.753272058764
 31
0
  0
LINE
  8
1
 62
7
 10
-1658.232662721893
 20
164.1785139305126
 30
0
 11
-1660.232662721893
 21
163.0238133921334
 31
0
  0
LINE
  8
1
 62
7
 10
-1660.232662721893
 20
163.0238133921334
 30
0
 11
-1660.232662721893
 21
160.7144123153748
 31
0
  0
LINE
  8
1
 62
7
 10
-1660.232662721893
 20
160.7144123153748
 30
0
 11
-1658.232662721893
 21
159.5597117769955
 31
0
  0
LINE
  8
1
 62
7
 10
-1658.232662721893
 20
159.5597117769955
 30
0
 11
-1656.232662721893
 21
160.7144123153748
 31
0
  0
LINE
  8
1
 62
7
 10
-1656.232662721893
 20
160.7144123153748
 30
0
 11
-1656.232662721893
 21
163.0238133921334
 31
0
  0
LINE
  8
1
 62
7
 10
-1656.232662721893
 20
163.0238133921334
 30
0
 11
-1658.232662721893
 21
164.1785139305126
 31
0
  0
LINE
  8
1
 62
7
 10
-1700.232662721893
 20
163.0238133921334
 30
0
 11
-1702.232662721893
 21
164.1785139305126
 31
0
  0
LINE
  8
1
 62
7
 10
-1700.232662721893
 20
160.7144123153748
 30
0
 11
-1700.232662721893
 21
163.0238133921334
 31
0
  0
LINE
  8
1
 62
7
 10
-1702.232662721893
 20
159.5597117769955
 30
0
 11
-1700.232662721893
 21
160.7144123153748
 31
0
  0
LINE
  8
1
 62
7
 10
-1704.232662721893
 20
160.7144123153748
 30
0
 11
-1702.232662721893
 21
159.5597117769955
 31
0
  0
LINE
  8
1
 62
7
 10
-1704.232662721893
 20
163.0238133921334
 30
0
 11
-1704.232662721893
 21
160.7144123153748
 31
0
  0
LINE
  8
1
 62
7
 10
-1702.232662721893
 20
164.1785139305126
 30
0
 11
-1704.232662721893
 21
163.0238133921334
 31
0
  0
LINE
  8
1
 62
7
 10
-1695.232662721893
 20
245.8691128537541
 30
0
 11
-1665.232662721893
 21
245.8691128537541
 31
0
  0
LINE
  8
1
 62
7
 10
-1695.232662721893
 20
245.8691128537541
 30
0
 11
-1695.232662721893
 21
176.6769375844358
 31
0
  0
LINE
  8
1
 62
7
 10
-1665.232662721893
 20
245.8691128537541
 30
0
 11
-1665.232662721893
 21
176.6769375844358
 31
0
  0
LINE
  8
1
 62
7
 10
-1710.232662721893
 20
155.480069180756
 30
0
 11
-1710.232662721893
 21
167.5024422645959
 31
0
  0
LINE
  8
1
 62
7
 10
-1650.232662721893
 20
155.480069180756
 30
0
 11
-1650.232662721893
 21
167.5024422645959
 31
0
  0
LINE
  8
1
 62
7
 10
-1695.232662721893
 20
176.6769375844358
 30
0
 11
-1695.232662721893
 21
152.0264638690306
 31
0
  0
LINE
  8
1
 62
7
 10
-1665.232662721893
 20
176.6769375844358
 30
0
 11
-1665.232662721893
 21
151.9754559223928
 31
0
  0
LINE
  8
1
 62
3
  6
DASHDOT
 10
-1680.232662721893
 20
42.87615169384409
 30
0
 11
-1680.232662721893
 21
-11.13792598633589
 31
0
  0
LINE
  8
1
 62
3
  6
DASHDOT
 10
-1653.225623881803
 20
15.8691128537541
 30
0
 11
-1707.239701561983
 21
15.8691128537541
 31
0
  0
LINE
  8
1
 62
7
 10
-1694.232662721893
 20
79.8691128537541
 30
0
 11
-1694.232662721893
 21
69.05745744164291
 31
0
  0
LINE
  8
1
 62
7
 10
-1666.232662721893
 20
79.8691128537541
 30
0
 11
-1666.232662721893
 21
69.05745744164291
 31
0
  0
LINE
  8
1
 62
7
 10
-1694.232662721893
 20
79.8691128537541
 30
0
 11
-1666.232662721893
 21
79.8691128537541
 31
0
  0
LINE
  8
1
 62
7
 10
-1678.56492581221
 20
270.753272058764
 30
0
 11
-1678.56492581221
 21
275.753272058764
 31
0
  0
LINE
  8
1
 62
7
 10
-1678.159796725044
 20
270.753272058764
 30
0
 11
-1678.159796725044
 21
275.753272058764
 31
0
  0
LINE
  8
1
 62
7
 10
-1679.302839506691
 20
270.753272058764
 30
0
 11
-1679.302839506691
 21
275.753272058764
 31
0
  0
LINE
  8
1
 62
7
 10
-1679.679030801916
 20
270.753272058764
 30
0
 11
-1679.679030801916
 21
275.753272058764
 31
0
  0
LINE
  8
1
 62
7
 10
-1680.232662721893
 20
270.753272058764
 30
0
 11
-1677.602662721893
 21
270.753272058764
 31
0
  0
LINE
  8
1
 62
7
 10
-1678.917662721893
 20
270.753272058764
 30
0
 11
-1678.917662721893
 21
275.753272058764
 31
0
  0
LINE
  8
1
 62
7
 10
-1681.900399631576
 20
275.753272058764
 30
0
 11
-1681.900399631576
 21
270.753272058764
 31
0
  0
LINE
  8
1
 62
7
 10
-1682.305528718742
 20
275.753272058764
 30
0
 11
-1682.305528718742
 21
270.753272058764
 31
0
  0
LINE
  8
1
 62
7
 10
-1681.162485937095
 20
275.753272058764
 30
0
 11
-1681.162485937095
 21
270.753272058764
 31
0
  0
LINE
  8
1
 62
7
 10
-1680.78629464187
 20
275.753272058764
 30
0
 11
-1680.78629464187
 21
270.753272058764
 31
0
  0
LINE
  8
1
 62
7
 10
-1682.862662721893
 20
270.753272058764
 30
0
 11
-1680.232662721893
 21
270.753272058764
 31
0
  0
LINE
  8
1
 62
7
 10
-1681.547662721893
 20
275.753272058764
 30
0
 11
-1681.547662721893
 21
270.753272058764
 31
0
  0
LINE
  8
1
 62
3
  6
DASHDOT
 10
-385.2326627218928
 20
42.87615169384409
 30
0
 11
-385.2326627218928
 21
-11.13792598633589
 31
0
  0
LINE
  8
1
 62
3
  6
DASHDOT
 10
-358.2256238818028
 20
15.8691128537541
 30
0
 11
-412.2397015619828
 21
15.8691128537541
 31
0
  0
LINE
  8
1
 62
3
 10
-350.2464288061798
 20
50.85534676946672
 30
0
 11
-319.3222110977675
 21
81.77956447787913
 31
0
  0
LINE
  8
1
 62
3
 10
-350.2464288061798
 20
-19.1171210619585
 30
0
 11
-319.3222110977678
 21
-50.0413387703712
 31
0
  0
LINE
  8
1
 62
3
 10
-420.2188966376053
 20
-19.11712106195887
 30
0
 11
-451.143114346018
 21
-50.04133877037088
 31
0
  0
LINE
  8
1
 62
7
  6
DASHED
 10
-344.6142200991263
 20
52.95202157058815
 30
0
 11
-319.8498425189288
 21
77.7163991507848
 31
0
  0
LINE
  8
1
 62
7
  6
DASHED
 10
-348.1497540050588
 20
-24.74932976901241
 30
0
 11
-323.3853764248621
 21
-49.51370734920989
 31
0
  0
LINE
  8
1
 62
7
  6
DASHED
 10
-425.8511053446592
 20
-21.21379586307989
 30
0
 11
-450.6154829248568
 21
-45.97817344327654
 31
0
  0
LINE
  8
1
 62
7
  6
DASHED
 10
-348.1497540050588
 20
56.48755547652063
 30
0
 11
-323.3853764248619
 21
81.2519330567179
 31
0
  0
LINE
  8
1
 62
7
  6
DASHED
 10
-344.6142200991256
 20
-21.21379586307976
 30
0
 11
-319.849842518929
 21
-45.97817344327689
 31
0
  0
LINE
  8
1
 62
7
  6
DASHED
 10
-422.3155714387268
 20
-24.74932976901245
 30
0
 11
-447.0799490189239
 21
-49.51370734920965
 31
0
  0
LINE
  8
1
 62
7
 10
-405.2326627218928
 20
189.7224993608912
 30
0
 11
-405.2326627218928
 21
175.8691128537541
 31
0
  0
LINE
  8
1
 62
7
 10
-365.2326627218928
 20
189.7224993608912
 30
0
 11
-365.2326627218928
 21
175.8691128537541
 31
0
  0
LINE
  8
1
 62
7
 10
-405.2326627218928
 20
175.8691128537541
 30
0
 11
-365.2326627218928
 21
175.8691128537541
 31
0
  0
LINE
  8
1
 62
7
 10
-545.794111971028
 20
85.475298031634
 30
0
 11
-533.7967273274029
 21
78.54860477806545
 31
0
  0
LINE
  8
1
 62
7
 10
-525.794111971028
 20
120.1163141830115
 30
0
 11
-513.7967273274029
 21
113.189620929443
 31
0
  0
LINE
  8
1
 62
7
 10
-533.7967273274029
 20
78.54860477806545
 30
0
 11
-513.7967273274029
 21
113.189620929443
 31
0
  0
LINE
  8
1
 62
3
  6
DASHDOT
 10
-542.8882688933958
 20
106.8916195161252
 30
0
 11
-517.1852856866188
 21
92.05199524271616
 31
0
  0
LINE
  8
1
 62
7
 10
-525.794111971028
 20
-88.37808847550312
 30
0
 11
-513.7967273274029
 21
-81.45139522193459
 31
0
  0
LINE
  8
1
 62
7
 10
-545.794111971028
 20
-53.73707232412557
 30
0
 11
-533.7967273274029
 21
-46.81037907055703
 31
0
  0
LINE
  8
1
 62
7
 10
-513.7967273274029
 20
-81.45139522193459
 30
0
 11
-533.7967273274029
 21
-46.81037907055703
 31
0
  0
LINE
  8
1
 62
7
 10
-365.2326627218928
 20
-157.9842736533828
 30
0
 11
-365.2326627218928
 21
-144.1308871462458
 31
0
  0
LINE
  8
1
 62
7
 10
-405.2326627218928
 20
-157.9842736533828
 30
0
 11
-405.2326627218928
 21
-144.1308871462458
 31
0
  0
LINE
  8
1
 62
7
 10
-365.2326627218928
 20
-144.1308871462458
 30
0
 11
-405.2326627218928
 21
-144.1308871462458
 31
0
  0
LINE
  8
1
 62
7
 10
-224.6712134727569
 20
-53.73707232412565
 30
0
 11
-236.6685981163829
 21
-46.8103790705571
 31
0
  0
LINE
  8
1
 62
7
 10
-244.6712134727569
 20
-88.37808847550318
 30
0
 11
-256.6685981163829
 21
-81.45139522193463
 31
0
  0
LINE
  8
1
 62
7
 10
-236.6685981163829
 20
-46.8103790705571
 30
0
 11
-256.6685981163829
 21
-81.45139522193463
 31
0
  0
LINE
  8
1
 62
7
 10
-244.6712134727569
 20
120.1163141830115
 30
0
 11
-256.6685981163829
 21
113.1896209294429
 31
0
  0
LINE
  8
1
 62
7
 10
-224.6712134727569
 20
85.47529803163393
 30
0
 11
-236.6685981163829
 21
78.54860477806538
 31
0
  0
LINE
  8
1
 62
7
 10
-256.6685981163829
 20
113.1896209294429
 30
0
 11
-236.6685981163829
 21
78.54860477806538
 31
0
  0
LINE
  8
1
 62
7
 10
-399.2326627218928
 20
79.8691128537541
 30
0
 11
-399.2326627218928
 21
69.05745744164291
 31
0
  0
LINE
  8
1
 62
7
 10
-371.2326627218928
 20
79.8691128537541
 30
0
 11
-371.2326627218928
 21
69.05745744164291
 31
0
  0
LINE
  8
1
 62
7
 10
-399.2326627218928
 20
79.8691128537541
 30
0
 11
-371.2326627218928
 21
79.8691128537541
 31
0
  0
LINE
  8
1
 62
7
 10
-400.2326627218928
 20
245.8691128537541
 30
0
 11
-387.8626627218929
 21
245.8691128537541
 31
0
  0
LINE
  8
1
 62
7
 10
-370.2326627218928
 20
245.8691128537541
 30
0
 11
-370.2326627218928
 21
190.2250705953811
 31
0
  0
LINE
  8
1
 62
7
 10
-373.4326627218928
 20
245.8691128537541
 30
0
 11
-373.4326627218928
 21
190.4708310583583
 31
0
  0
LINE
  8
1
 62
7
 10
-397.032662721893
 20
245.8691128537541
 30
0
 11
-397.032662721893
 21
190.4708310583583
 31
0
  0
LINE
  8
1
 62
7
 10
-400.2326627218928
 20
245.8691128537541
 30
0
 11
-400.2326627218928
 21
190.2250705953811
 31
0
  0
LINE
  8
1
 62
7
 10
-385.2326627218928
 20
190.8691128537541
 30
0
 11
-385.2326627218928
 21
270.753272058764
 31
0
  0
LINE
  8
1
 62
7
 10
-382.6026627218929
 20
190.8107597710838
 30
0
 11
-382.6026627218929
 21
270.753272058764
 31
0
  0
LINE
  8
1
 62
7
 10
-383.5649258122099
 20
270.753272058764
 30
0
 11
-383.5649258122099
 21
275.753272058764
 31
0
  0
LINE
  8
1
 62
7
 10
-383.159796725044
 20
270.753272058764
 30
0
 11
-383.159796725044
 21
275.753272058764
 31
0
  0
LINE
  8
1
 62
7
 10
-384.3028395066909
 20
270.753272058764
 30
0
 11
-384.3028395066909
 21
275.753272058764
 31
0
  0
LINE
  8
1
 62
7
 10
-384.6790308019159
 20
270.753272058764
 30
0
 11
-384.6790308019159
 21
275.753272058764
 31
0
  0
LINE
  8
1
 62
7
 10
-385.2326627218928
 20
270.753272058764
 30
0
 11
-382.6026627218929
 21
270.753272058764
 31
0
  0
LINE
  8
1
 62
7
 10
-383.917662721893
 20
270.753272058764
 30
0
 11
-383.917662721893
 21
275.753272058764
 31
0
  0
LINE
  8
1
 62
7
 10
-387.8626627218929
 20
190.8494828102649
 30
0
 11
-387.8626627218929
 21
270.753272058764
 31
0
  0
LINE
  8
1
 62
7
 10
-386.9003996315759
 20
275.753272058764
 30
0
 11
-386.9003996315759
 21
270.753272058764
 31
0
  0
LINE
  8
1
 62
7
 10
-387.3055287187418
 20
275.753272058764
 30
0
 11
-387.3055287187418
 21
270.753272058764
 31
0
  0
LINE
  8
1
 62
7
 10
-386.1624859370949
 20
275.753272058764
 30
0
 11
-386.1624859370949
 21
270.753272058764
 31
0
  0
LINE
  8
1
 62
7
 10
-385.7862946418699
 20
275.753272058764
 30
0
 11
-385.7862946418699
 21
270.753272058764
 31
0
  0
LINE
  8
1
 62
7
 10
-387.8626627218929
 20
270.753272058764
 30
0
 11
-385.2326627218928
 21
270.753272058764
 31
0
  0
LINE
  8
1
 62
7
 10
-386.5476627218928
 20
275.753272058764
 30
0
 11
-386.5476627218928
 21
270.753272058764
 31
0
  0
LINE
  8
1
 62
7
 10
-382.6026627218929
 20
245.8691128537541
 30
0
 11
-370.2326627218928
 21
245.8691128537541
 31
0
  0
LINE
  8
1
 62
3
 10
-420.2188966376058
 20
50.85534676946668
 30
0
 11
-451.1431143460178
 21
81.77956447787938
 31
0
  0
LINE
  8
1
 62
7
  6
DASHED
 10
-425.8511053446599
 20
52.95202157058793
 30
0
 11
-450.6154829248566
 21
77.71639915078507
 31
0
  0
LINE
  8
1
 62
7
  6
DASHED
 10
-422.3155714387268
 20
56.48755547652058
 30
0
 11
-447.0799490189235
 21
81.25193305671806
 31
0
  0
LINE
  8
1
 62
3
  6
DASHDOT
 10
-385.2326627218928
 20
190.8691128537541
 30
0
 11
-385.2326627218923
 21
168.2348776316778
 31
0
  0
ARC
  8
1
 62
7
 10
-1680.232662721893
 20
15.8691128537541
 30
0
 40
175.0000000000001
 50
94.9171003355288
 51
85.0828996644712
  0
ARC
  8
1
 62
7
 10
-1680.232662721893
 20
15.8691128537541
 30
0
 40
172
 50
95.00308046709361
 51
84.99691953290639
  0
ARC
  8
1
 62
7
 10
-1680.232662721893
 20
15.8691128537541
 30
0
 40
165
 50
95.21590857045413
 51
84.78409142954588
  0
ARC
  8
1
 62
7
 10
-1680.232662721893
 20
15.8691128537541
 30
0
 40
163
 50
95.28008812469383
 51
84.71991187530617
  0
ARC
  8
1
 62
7
 10
-1680.232662721893
 20
25.86911285375413
 30
0
 40
147.9999999999999
 50
97.18075578145829
 51
100.4021210089519
  0
ARC
  8
1
 62
7
 10
-1680.232662721893
 20
25.86911285375413
 30
0
 40
127
 50
90
 51
100.9174173158138
  0
ARC
  8
1
 62
7
 10
-1680.232662721893
 20
25.86911285375413
 30
0
 40
147.9999999999998
 50
79.59787899104823
 51
82.81924421854171
  0
ARC
  8
1
 62
7
 10
-1680.232662721893
 20
25.86911285375413
 30
0
 40
126.9999999999998
 50
79.08258268418632
 51
90
  0
ARC
  8
1
 62
7
 10
-1698.785151010576
 20
179.1089144295004
 30
0
 40
6.385003960923502
 50
271.6142459321608
 51
303.8058161252552
  0
ARC
  8
1
 62
7
 10
-1661.68017443321
 20
179.1089144295004
 30
0
 40
6.385003960923332
 50
236.1941838747465
 51
268.3857540678392
  0
ARC
  8
1
 62
7
 10
-1680.232662721893
 20
15.8691128537541
 30
0
 40
55
 50
104.7466528752447
 51
75.25334712475532
  0
ARC
  8
1
 62
7
 10
-385.2326627218928
 20
15.8691128537541
 30
0
 40
55
 50
104.7466528752447
 51
75.25334712475532
  0
ARC
  8
1
 62
7
 10
-385.2326627218928
 20
15.8691128537541
 30
0
 40
90
 50
90
 51
263.6206297915572
  0
ARC
  8
1
 62
7
 10
-385.2326627218928
 20
15.8691128537541
 30
0
 40
89.99999999999999
 50
263.6206297915572
 51
90
  0
ARC
  8
1
 62
7
 10
-1705.232662721893
 20
155.480069180756
 30
0
 40
5
 50
180
 51
280.9174173158172
  0
ARC
  8
1
 62
7
 10
-1655.232662721893
 20
155.480069180756
 30
0
 40
5.000000000000153
 50
259.0825826841806
 51
0
  0
ARC
  8
1
 62
7
 10
-1706.232662721893
 20
167.5024422645959
 30
0
 40
3.999999999999824
 50
100.4021210089516
 51
180
  0
ARC
  8
1
 62
7
 10
-1654.232662721893
 20
167.5024422645959
 30
0
 40
4
 50
0
 51
79.5978789910516
  0
CIRCLE
  8
1
 62
7
 10
-902.7326627218929
 20
-77.88088714624587
 30
0
 40
11.25
  0
CIRCLE
  8
1
 62
7
 10
-867.7326627218929
 20
-77.88088714624587
 30
0
 40
11.25
  0
CIRCLE
  8
1
 62
7
 10
-902.7326627218929
 20
109.6191128537541
 30
0
 40
11.25
  0
CIRCLE
  8
1
 62
7
 10
-867.7326627218929
 20
109.6191128537541
 30
0
 40
11.25
  0
CIRCLE
  8
1
 62
7
 10
-1574.166645543911
 20
-90.19690432422797
 30
0
 40
9
  0
CIRCLE
  8
1
 62
7
 10
-1574.166645543911
 20
-90.19690432422797
 30
0
 40
10.75
  0
CIRCLE
  8
1
 62
7
 10
-1786.298679899875
 20
-90.19690432422806
 30
0
 40
9
  0
CIRCLE
  8
1
 62
7
 10
-1786.298679899875
 20
-90.19690432422806
 30
0
 40
10.75
  0
CIRCLE
  8
1
 62
7
 10
-1786.298679899875
 20
121.9351300317362
 30
0
 40
9
  0
CIRCLE
  8
1
 62
7
 10
-1786.298679899875
 20
121.9351300317362
 30
0
 40
10.75
  0
CIRCLE
  8
1
 62
7
 10
-1574.166645543911
 20
121.9351300317362
 30
0
 40
9
  0
CIRCLE
  8
1
 62
7
 10
-1574.166645543911
 20
121.9351300317362
 30
0
 40
10.75
  0
CIRCLE
  8
1
 62
7
 10
-1658.232662721893
 20
161.8691128537541
 30
0
 40
4.25
  0
CIRCLE
  8
1
 62
7
 10
-1702.232662721893
 20
161.8691128537541
 30
0
 40
4.25
  0
CIRCLE
  8
1
 62
7
 10
-1680.232662721893
 20
15.8691128537541
 30
0
 40
135
  0
CIRCLE
  8
1
 62
7
 10
-1680.232662721893
 20
15.8691128537541
 30
0
 40
75
  0
CIRCLE
  8
1
 62
7
 10
-1680.232662721893
 20
15.8691128537541
 30
0
 40
115
  0
CIRCLE
  8
1
 62
7
 10
-385.2326627218928
 20
15.8691128537541
 30
0
 40
175
  0
CIRCLE
  8
1
 62
7
 10
-385.2326627218928
 20
15.8691128537541
 30
0
 40
159.0000000000001
  0
CIRCLE
  8
1
 62
7
 10
-385.2326627218928
 20
15.8691128537541
 30
0
 40
149
  0
CIRCLE
  8
1
 62
7
 10
-385.2326627218928
 20
15.8691128537541
 30
0
 40
104
  0
CIRCLE
  8
1
 62
7
 10
-385.2326627218928
 20
15.8691128537541
 30
0
 40
110
  0
POLYLINE
  8
1
 62
3
 66
1
  0
VERTEX
  8
1
 10
-926.5818049108559
 20
255.8691128537541
 30
0
 42
-0.0243643431543546
  0
VERTEX
  8
1
 10
-926.779756398586
 20
255.4344087658061
 30
0
 42
-0.04285511811396539
  0
VERTEX
  8
1
 10
-926.960541107873
 20
255.1516964259369
 30
0
 42
-0.08198469079040904
  0
VERTEX
  8
1
 10
-927.1266329021952
 20
255.0011342690388
 30
0
 42
-0.141992651661824
  0
VERTEX
  8
1
 10
-927.2805056450303
 20
254.962880730004
 30
0
 42
-0.1329198716575797
  0
VERTEX
  8
1
 10
-927.4246331998562
 20
255.0170942437246
 30
0
 42
-0.07044013938503752
  0
VERTEX
  8
1
 10
-927.5614894301509
 20
255.1439332450929
 30
0
 42
-0.03285373593973091
  0
VERTEX
  8
1
 10
-927.6935481993927
 20
255.323556169001
 30
0
 42
-0.01322284220671815
  0
VERTEX
  8
1
 10
-927.823283371059
 20
255.5361214503411
 30
0
 42
-0.0003699574201449094
  0
VERTEX
  8
1
 10
-927.9531688086283
 20
255.7617875240055
 30
0
 42
0.0115161932104205
  0
VERTEX
  8
1
 10
-928.0856783755781
 20
255.9807128248863
 30
0
 42
0.02713529183381256
  0
VERTEX
  8
1
 10
-928.223285935387
 20
256.1730557878757
 30
0
 42
0.05352455305399834
  0
VERTEX
  8
1
 10
-928.3684653515322
 20
256.318974847866
 30
0
 42
0.1000838603543576
  0
VERTEX
  8
1
 10
-928.5236904874923
 20
256.3986284397493
 30
0
 42
0.1433865231829471
  0
VERTEX
  8
1
 10
-928.691435206745
 20
256.3921749984177
 30
0
 42
0.1138438227862138
  0
VERTEX
  8
1
 10
-928.8741733727683
 20
256.2797729587635
 30
0
 42
0.06445342466572618
  0
VERTEX
  8
1
 10
-929.0743788490399
 20
256.041580755679
 30
0
  0
VERTEX
  8
1
 10
-929.1818049108558
 20
255.8691128537541
 30
0
  0
SEQEND
  8
1
  0
ARC
  8
1
 62
7
 10
-746.0326627218927
 20
-85.1308871462459
 30
0
 40
3
 50
180
 51
270
  0
ARC
  8
1
 62
7
 10
-746.0326627218927
 20
116.8691128537541
 30
0
 40
3
 50
90
 51
180
  0
TEXT
  8
1
 62
7
 10
-1846.60798880992
 20
377.936640649496
 30
0
 40
20
  1
MWC 320
 41
0.9
  7
SIMPLEX
  0
TEXT
  8
1
 62
7
 10
-1848.43392221053
 20
340.829173444652
 30
0
 40
20
  1
DC 4330
 41
0.9
  7
SIMPLEX
  0
ENDSEC
  0
EOF
