  0
SECTION
  2
HEADER
  9
$ACADVER
  1
AC1009
  9
$INSBASE
 10
0
 20
0
  9
$EXTMIN
 10
-2604.53267297059
 20
-308.7419079672435
  9
$EXTMAX
 10
-794.49269595465
 20
369.688122283057
  9
$LIMMIN
 10
-2604.53267297059
 20
-308.7419079672435
  9
$LIMMAX
 10
-794.49269595465
 20
369.688122283057
  9
$VIEWCTR
 10
10
 20
10
  9
$VIEWSIZE
 40
10
  9
$SNAPMODE
 70
0
  9
$SNAPUNIT
 10
1
 20
1
  9
$SNAPBASE
 10
0
 20
0
  9
$SNAPANG
 50
0
  9
$SNAPSTYLE
 70
0
  9
$SNAPISOPAIR
 70
0
  9
$GRIDMODE
 70
0
  9
$GRIDUNIT
 10
0
 20
0
  9
$ORTHOMODE
 70
0
  9
$REGENMODE
 70
1
  9
$FILLMODE
 70
1
  9
$QTEXTMODE
 70
0
  9
$DRAGMODE
 70
2
  9
$LTSCALE
 40
1
  9
$OSMODE
 70
0
  9
$ATTMODE
 70
1
  9
$TEXTSIZE
 40
3.5
  9
$TRACEWID
 40
0.5
  9
$TEXTSTYLE
  7
STANDARD
  9
$CLAYER
  8
0
  9
$CELTYPE
  6
BYLAYER
  9
$CECOLOR
 62
256
  9
$DIMSCALE
 40
1
  9
$DIMASZ
 40
0.18
  9
$DIMEXO
 40
0.0625
  9
$DIMDLI
 40
0.38
  9
$DIMRND
 40
0
  9
$DIMDLE
 40
0
  9
$DIMEXE
 40
0.18
  9
$DIMTP
 40
0
  9
$DIMTM
 40
0
  9
$DIMTXT
 40
0.18
  9
$DIMCEN
 40
0.09
  9
$DIMTSZ
 40
0
  9
$DIMTOL
 70
0
  9
$DIMLIM
 70
0
  9
$DIMTIH
 70
1
  9
$DIMTOH
 70
1
  9
$DIMSE1
 70
0
  9
$DIMSE2
 70
0
  9
$DIMTAD
 70
0
  9
$DIMZIN
 70
0
  9
$DIMBLK
  1

  9
$DIMASO
 70
1
  9
$DIMSHO
 70
1
  9
$DIMPOST
  1

  9
$DIMAPOST
  1

  9
$DIMALT
 70
0
  9
$DIMALTD
 70
2
  9
$DIMALTF
 40
25.4
  9
$DIMLFAC
 40
1
  9
$DIMTOFL
 70
0
  9
$DIMTVP
 40
0
  9
$DIMTIX
 70
0
  9
$DIMSOXD
 70
0
  9
$DIMSAH
 70
0
  9
$DIMBLK1
  1

  9
$DIMBLK2
  1

  9
$DIMSTYLE
  2
*UNNAMED
  9
$DIMCLRD
 70
0
  9
$DIMCLRE
 70
0
  9
$DIMCLRT
 70
0
  9
$DIMTFAC
 40
1
  9
$DIMGAP
 40
0.09
  9
$LUNITS
 70
2
  9
$LUPREC
 70
4
  9
$AXISMODE
 70
0
  9
$AXISUNIT
 10
0
 20
0
  9
$SKETCHINC
 40
0.1
  9
$FILLETRAD
 40
2
  9
$AUNITS
 70
0
  9
$AUPREC
 70
0
  9
$MENU
  1
ACAD
  9
$ELEVATION
 40
0
  9
$THICKNESS
 40
0
  9
$VIEWDIR
 10
0
 20
0
 30
1
  9
$LIMCHECK
 70
0
  9
$BLIPMODE
 70
1
  9
$CHAMFERA
 40
0
  9
$CHAMFERB
 40
0
  9
$FASTZOOM
 70
1
  9
$SKPOLY
 70
0
  9
$ANGBASE
 50
0
  9
$ANGDIR
 70
0
  9
$PDMODE
 70
0
  9
$PDSIZE
 40
0
  9
$PLINEWID
 40
0
  9
$COORDS
 70
2
  0
ENDSEC
  0
SECTION
  2
TABLES
  0
TABLE
  2
DIMSTYLE
 70
0
  0
ENDTAB
  0
TABLE
  2
LTYPE
 70
9
  0
LTYPE
  2
CONTINUOUS
 70
64
  3
Solid line
 72
65
 73
0
 40
0
  0
LTYPE
  2
BORDER
 70
64
  3
__ __ . __ __ .
 72
65
 73
6
 40
83.35710420468143
 49
23.81631548705184
 49
-11.90815774352592
 49
23.81631548705184
 49
-11.90815774352592
 49
0
 49
-11.90815774352592
  0
LTYPE
  2
CENTER
 70
64
  3
____ _ ____ _
 72
65
 73
4
 40
95.26526194820735
 49
59.5407887176296
 49
-11.90815774352592
 49
11.90815774352592
 49
-11.90815774352592
  0
LTYPE
  2
DASHDOT
 70
64
  3
__ . __ . __ .
 72
65
 73
4
 40
47.63263097410368
 49
23.81631548705184
 49
-11.90815774352592
 49
0
 49
-11.90815774352592
  0
LTYPE
  2
DASHED
 70
64
  3
__ __ __ __ __
 72
65
 73
2
 40
35.72447323057776
 49
23.81631548705184
 49
-11.90815774352592
  0
LTYPE
  2
DIVIDE
 70
64
  3
__ . . __ . . 
 72
65
 73
6
 40
59.5407887176296
 49
23.81631548705184
 49
-11.90815774352592
 49
0
 49
-11.90815774352592
 49
0
 49
-11.90815774352592
  0
LTYPE
  2
DOT
 70
64
  3
..............
 72
65
 73
4
 40
23.81631548705184
 49
0
 49
-11.90815774352592
 49
0
 49
-11.90815774352592
  0
LTYPE
  2
HIDDEN
 70
64
  3
_ _ _ _ _ _ _
 72
65
 73
2
 40
17.86223661528888
 49
11.90815774352592
 49
-5.95407887176296
  0
LTYPE
  2
PHANTOM
 70
64
  3
_____ _ _ _____ _ _ 
 72
65
 73
6
 40
119.0815774352592
 49
59.5407887176296
 49
-11.90815774352592
 49
11.90815774352592
 49
-11.90815774352592
 49
11.90815774352592
 49
-11.90815774352592
  0
ENDTAB
  0
TABLE
  2
LAYER
 70
3
  0
LAYER
  2
1
 70
0
 62
7
  6
CONTINUOUS
  0
LAYER
  2
0
 70
0
 62
7
  6
CONTINUOUS
  0
ENDTAB
  0
TABLE
  2
STYLE
 70
4
  0
STYLE
  2
STANDARD
 70
0
 40
0
 41
1
 50
0
 71
0
 42
3.5
  3
txt
  4

  0
STYLE
  2
SIMPLEX
 70
0
 40
0
 41
1
 50
0
 71
0
 42
3.5
  3
simplex
  4

  0
STYLE
  2
COMPLEX
 70
0
 40
0
 41
1
 50
0
 71
0
 42
3.5
  3
complex
  4

  0
STYLE
  2
ITALIC
 70
0
 40
0
 41
1
 50
0
 71
0
 42
3.5
  3
italic
  4

  0
ENDTAB
  0
TABLE
  2
VIEW
 70
0
  0
ENDTAB
  0
ENDSEC
  0
SECTION
  2
BLOCKS
  0
ENDSEC
  0
SECTION
  2
ENTITIES
  0
LINE
  8
1
 62
7
 10
-1381.36654980031
 20
-33.83763313609499
 30
0
 11
-1601.36654980031
 21
-33.83763313609499
 31
0
  0
LINE
  8
1
 62
7
 10
-1503.36654980031
 20
16.16236686390505
 30
0
 11
-1503.36654980031
 21
-23.83763313609499
 31
0
  0
LINE
  8
1
 62
7
  6
DASHED
 10
-1062.318355760527
 20
-177.320147191464
 30
0
 11
-1033.996289806937
 21
-148.9980812378747
 31
0
  0
LINE
  8
1
 62
7
  6
DASHED
 10
-1067.975210010019
 20
-171.6632929419716
 30
0
 11
-1039.65314405643
 21
-143.3412269883822
 31
0
  0
LINE
  8
1
 62
3
 10
-1067.90657134135
 20
-177.2515085227947
 30
0
 11
-1033.028482795451
 21
-142.3734199768958
 31
0
  0
LINE
  8
1
 62
7
  6
DASHED
 10
-921.010181899281
 20
-171.6632929419716
 30
0
 11
-949.332247852871
 21
-143.3412269883823
 31
0
  0
LINE
  8
1
 62
7
  6
DASHED
 10
-926.6670361487741
 20
-177.320147191464
 30
0
 11
-954.989102102363
 21
-148.9980812378747
 31
0
  0
LINE
  8
1
 62
3
 10
-921.0788205679501
 20
-177.2515085227946
 30
0
 11
-955.956909113849
 21
-142.3734199768956
 31
0
  0
LINE
  8
1
 62
7
  6
DASHED
 10
-926.6670361487741
 20
-30.35511908072613
 30
0
 11
-954.989102102363
 21
-58.67718503431548
 31
0
  0
LINE
  8
1
 62
7
  6
DASHED
 10
-921.010181899281
 20
-36.01197333021855
 30
0
 11
-949.332247852871
 21
-64.3340392838079
 31
0
  0
LINE
  8
1
 62
3
 10
-921.0788205679501
 20
-30.42375774939547
 30
0
 11
-955.9569091138501
 21
-65.30184629529435
 31
0
  0
LINE
  8
1
 62
7
  6
DASHED
 10
-1067.975210010019
 20
-36.01197333021843
 30
0
 11
-1039.65314405643
 21
-64.33403928380774
 31
0
  0
LINE
  8
1
 62
7
  6
DASHED
 10
-1062.318355760527
 20
-30.35511908072603
 30
0
 11
-1033.996289806937
 21
-58.67718503431534
 31
0
  0
LINE
  8
1
 62
3
 10
-1067.90657134135
 20
-30.42375774939544
 30
0
 11
-1033.028482795451
 21
-65.3018462952944
 31
0
  0
LINE
  8
1
 62
7
 10
-1010.49269595465
 20
-33.83763313609499
 30
0
 11
-978.4926959546501
 21
-33.83763313609499
 31
0
  0
LINE
  8
1
 62
7
 10
-1010.49269595465
 20
-46.01030395689115
 30
0
 11
-1010.49269595465
 21
-33.83763313609499
 31
0
  0
LINE
  8
1
 62
7
 10
-978.4926959546501
 20
-46.01030395689115
 30
0
 11
-978.4926959546501
 21
-33.83763313609499
 31
0
  0
LINE
  8
1
 62
7
 10
-979.4926959546501
 20
91.5875443615857
 30
0
 11
-979.4926959546501
 21
146.162366863905
 31
0
  0
LINE
  8
1
 62
7
 10
-982.6926959546499
 20
91.80684033555717
 30
0
 11
-982.6926959546499
 21
146.162366863905
 31
0
  0
LINE
  8
1
 62
7
 10
-1006.29269595465
 20
91.80684033555717
 30
0
 11
-1006.29269595465
 21
146.162366863905
 31
0
  0
LINE
  8
1
 62
7
 10
-1009.49269595465
 20
91.5875443615857
 30
0
 11
-1009.49269595465
 21
146.162366863905
 31
0
  0
LINE
  8
1
 62
7
 10
-1009.49269595465
 20
146.162366863905
 30
0
 11
-997.12269595465
 21
146.162366863905
 31
0
  0
LINE
  8
1
 62
7
 10
-991.86269595465
 20
146.162366863905
 30
0
 11
-979.4926959546501
 21
146.162366863905
 31
0
  0
LINE
  8
1
 62
7
 10
-991.86269595465
 20
92.1531210734727
 30
0
 11
-991.86269595465
 21
171.046526068915
 31
0
  0
LINE
  8
1
 62
7
 10
-994.4926959546501
 20
167.083568382066
 30
0
 11
-994.4926959546501
 21
92.16236686390501
 31
0
  0
LINE
  8
1
 62
7
 10
-993.748871605088
 20
171.046526068915
 30
0
 11
-993.748871605088
 21
176.046526068915
 31
0
  0
LINE
  8
1
 62
7
 10
-993.4485348404771
 20
171.046526068915
 30
0
 11
-993.4485348404771
 21
176.046526068915
 31
0
  0
LINE
  8
1
 62
7
 10
-992.6107533391921
 20
171.046526068915
 30
0
 11
-992.6107533391921
 21
176.046526068915
 31
0
  0
LINE
  8
1
 62
7
 10
-992.8952829056659
 20
171.046526068915
 30
0
 11
-992.8952829056659
 21
176.046526068915
 31
0
  0
LINE
  8
1
 62
7
 10
-993.1776959546501
 20
171.046526068915
 30
0
 11
-993.1776959546501
 21
176.046526068915
 31
0
  0
LINE
  8
1
 62
7
 10
-997.12269595465
 20
171.046526068915
 30
0
 11
-991.86269595465
 21
171.046526068915
 31
0
  0
LINE
  8
1
 62
7
 10
-995.236520304212
 20
176.046526068915
 30
0
 11
-995.236520304212
 21
171.046526068915
 31
0
  0
LINE
  8
1
 62
7
 10
-995.5368570688231
 20
176.046526068915
 30
0
 11
-995.5368570688231
 21
171.046526068915
 31
0
  0
LINE
  8
1
 62
7
 10
-996.3746385701081
 20
176.046526068915
 30
0
 11
-996.3746385701081
 21
171.046526068915
 31
0
  0
LINE
  8
1
 62
7
 10
-996.0901090036341
 20
176.046526068915
 30
0
 11
-996.0901090036341
 21
171.046526068915
 31
0
  0
LINE
  8
1
 62
7
 10
-995.8076959546499
 20
176.046526068915
 30
0
 11
-995.8076959546499
 21
171.046526068915
 31
0
  0
LINE
  8
1
 62
7
 10
-997.12269595465
 20
171.046526068915
 30
0
 11
-997.12269595465
 21
92.14254417858199
 31
0
  0
LINE
  8
1
 62
7
 10
-994.4926959546501
 20
171.046526068915
 30
0
 11
-994.4926959546501
 21
161.355823381751
 31
0
  0
LINE
  8
1
 62
7
 10
-1178.839284515494
 20
-26.27259406578404
 30
0
 11
-1164.392813092472
 21
-34.61326823070618
 31
0
  0
LINE
  8
1
 62
7
 10
-1139.392813092472
 20
8.688001958515768
 30
0
 11
-1164.392813092472
 21
-34.61326823070618
 31
0
  0
LINE
  8
1
 62
7
 10
-1139.392813092472
 20
8.688001958515768
 30
0
 11
-1153.839284515494
 21
17.02867612343791
 31
0
  0
LINE
  8
1
 62
7
 10
-1139.392813092472
 20
-216.363268230706
 30
0
 11
-1164.392813092472
 21
-173.061998041484
 31
0
  0
LINE
  8
1
 62
7
 10
-1153.839284515494
 20
-224.7039423956281
 30
0
 11
-1139.392813092472
 21
-216.363268230706
 31
0
  0
LINE
  8
1
 62
7
 10
-1164.392813092472
 20
-173.061998041484
 30
0
 11
-1178.839284515494
 21
-181.4026722064062
 31
0
  0
LINE
  8
1
 62
7
 10
-969.4926959546501
 20
-285.5876331360949
 30
0
 11
-1019.49269595465
 21
-285.5876331360949
 31
0
  0
LINE
  8
1
 62
7
 10
-969.4926959546501
 20
-302.2689814659392
 30
0
 11
-969.4926959546501
 21
-285.5876331360949
 31
0
  0
LINE
  8
1
 62
7
 10
-1019.49269595465
 20
-285.5876331360949
 30
0
 11
-1019.49269595465
 21
-302.2689814659392
 31
0
  0
LINE
  8
1
 62
7
 10
-810.146107393806
 20
-181.4026722064062
 30
0
 11
-824.592578816829
 21
-173.061998041484
 31
0
  0
LINE
  8
1
 62
7
 10
-849.592578816829
 20
-216.363268230706
 30
0
 11
-824.592578816829
 21
-173.061998041484
 31
0
  0
LINE
  8
1
 62
7
 10
-849.592578816829
 20
-216.363268230706
 30
0
 11
-835.146107393806
 21
-224.7039423956281
 31
0
  0
LINE
  8
1
 62
7
 10
-835.146107393806
 20
17.02867612343807
 30
0
 11
-849.5925788168281
 21
8.688001958515917
 31
0
  0
LINE
  8
1
 62
7
 10
-824.5925788168281
 20
-34.61326823070601
 30
0
 11
-849.5925788168281
 21
8.688001958515917
 31
0
  0
LINE
  8
1
 62
7
 10
-824.5925788168281
 20
-34.61326823070601
 30
0
 11
-810.146107393806
 21
-26.27259406578386
 31
0
  0
LINE
  8
1
 62
7
 10
-1019.49269595465
 20
94.5937151937493
 30
0
 11
-1019.49269595465
 21
77.91236686390501
 31
0
  0
LINE
  8
1
 62
7
 10
-969.4926959546501
 20
77.91236686390501
 30
0
 11
-1019.49269595465
 21
77.91236686390501
 31
0
  0
LINE
  8
1
 62
7
 10
-969.4926959546501
 20
77.91236686390501
 30
0
 11
-969.4926959546501
 21
94.5937151937493
 31
0
  0
LINE
  8
1
 62
7
 10
-2007.2968755889
 20
-178.837633136095
 30
0
 11
-2009.2968755889
 21
-176.837633136095
 31
0
  0
LINE
  8
1
 62
7
 10
-1794.0968755889
 20
-3.837633136095008
 30
0
 11
-1791.2968755889
 21
-3.837633136095008
 31
0
  0
LINE
  8
1
 62
7
 10
-2009.2968755889
 20
-30.83763313609501
 30
0
 11
-2007.2968755889
 21
-28.83763313609501
 31
0
  0
LINE
  8
1
 62
7
 10
-1789.2968755889
 20
-5.837633136095008
 30
0
 11
-1791.2968755889
 21
-3.837633136095008
 31
0
  0
LINE
  8
1
 62
3
 10
-1381.36654980031
 20
-103.837633136095
 30
0
 11
-1373.36654980031
 21
-103.837633136095
 31
0
  0
LINE
  8
1
 62
3
 10
-1601.36654980031
 20
-103.837633136095
 30
0
 11
-1609.36654980031
 21
-103.837633136095
 31
0
  0
LINE
  8
1
 62
7
 10
-2405.84767297059
 20
176.046526068915
 30
0
 11
-2405.84767297059
 21
171.046526068915
 31
0
  0
LINE
  8
1
 62
7
 10
-2405.086304890567
 20
176.046526068915
 30
0
 11
-2405.086304890567
 21
171.046526068915
 31
0
  0
LINE
  8
1
 62
7
 10
-2405.462496185792
 20
176.046526068915
 30
0
 11
-2405.462496185792
 21
171.046526068915
 31
0
  0
LINE
  8
1
 62
7
 10
-2406.605538967439
 20
176.046526068915
 30
0
 11
-2406.605538967439
 21
171.046526068915
 31
0
  0
LINE
  8
1
 62
7
 10
-2406.200409880273
 20
176.046526068915
 30
0
 11
-2406.200409880273
 21
171.046526068915
 31
0
  0
LINE
  8
1
 62
7
 10
-2403.21767297059
 20
171.046526068915
 30
0
 11
-2403.21767297059
 21
176.046526068915
 31
0
  0
LINE
  8
1
 62
7
 10
-2407.16267297059
 20
171.046526068915
 30
0
 11
-2401.90267297059
 21
171.046526068915
 31
0
  0
LINE
  8
1
 62
7
 10
-2403.979041050613
 20
171.046526068915
 30
0
 11
-2403.979041050613
 21
176.046526068915
 31
0
  0
LINE
  8
1
 62
7
 10
-2403.602849755388
 20
171.046526068915
 30
0
 11
-2403.602849755388
 21
176.046526068915
 31
0
  0
LINE
  8
1
 62
7
 10
-2402.459806973741
 20
171.046526068915
 30
0
 11
-2402.459806973741
 21
176.046526068915
 31
0
  0
LINE
  8
1
 62
7
 10
-2402.864936060907
 20
171.046526068915
 30
0
 11
-2402.864936060907
 21
176.046526068915
 31
0
  0
LINE
  8
1
 62
7
 10
-2374.53267297059
 20
55.77332319090692
 30
0
 11
-2374.53267297059
 21
67.79569627474689
 31
0
  0
LINE
  8
1
 62
7
 10
-2434.53267297059
 20
55.77332319090692
 30
0
 11
-2434.53267297059
 21
67.79569627474689
 31
0
  0
LINE
  8
1
 62
7
 10
-2389.53267297059
 20
146.162366863905
 30
0
 11
-2389.53267297059
 21
52.26870993254374
 31
0
  0
LINE
  8
1
 62
7
 10
-2419.53267297059
 20
146.162366863905
 30
0
 11
-2419.53267297059
 21
52.31971787918155
 31
0
  0
LINE
  8
1
 62
7
 10
-2419.53267297059
 20
146.162366863905
 30
0
 11
-2389.53267297059
 21
146.162366863905
 31
0
  0
LINE
  8
1
 62
7
 10
-2426.53267297059
 20
64.47176794066354
 30
0
 11
-2428.53267297059
 21
63.31706740228435
 31
0
  0
LINE
  8
1
 62
7
 10
-2428.53267297059
 20
63.31706740228435
 30
0
 11
-2428.53267297059
 21
61.00766632552575
 31
0
  0
LINE
  8
1
 62
7
 10
-2428.53267297059
 20
61.00766632552575
 30
0
 11
-2426.53267297059
 21
59.85296578714645
 31
0
  0
LINE
  8
1
 62
7
 10
-2426.53267297059
 20
59.85296578714645
 30
0
 11
-2424.53267297059
 21
61.00766632552575
 31
0
  0
LINE
  8
1
 62
7
 10
-2424.53267297059
 20
61.00766632552575
 30
0
 11
-2424.53267297059
 21
63.31706740228435
 31
0
  0
LINE
  8
1
 62
7
 10
-2424.53267297059
 20
63.31706740228435
 30
0
 11
-2426.53267297059
 21
64.47176794066354
 31
0
  0
LINE
  8
1
 62
7
 10
-2380.53267297059
 20
63.31706740228435
 30
0
 11
-2382.53267297059
 21
64.47176794066354
 31
0
  0
LINE
  8
1
 62
7
 10
-2380.53267297059
 20
61.00766632552575
 30
0
 11
-2380.53267297059
 21
63.31706740228435
 31
0
  0
LINE
  8
1
 62
7
 10
-2382.53267297059
 20
59.85296578714645
 30
0
 11
-2380.53267297059
 21
61.00766632552575
 31
0
  0
LINE
  8
1
 62
7
 10
-2384.53267297059
 20
61.00766632552575
 30
0
 11
-2382.53267297059
 21
59.85296578714645
 31
0
  0
LINE
  8
1
 62
7
 10
-2384.53267297059
 20
63.31706740228435
 30
0
 11
-2384.53267297059
 21
61.00766632552575
 31
0
  0
LINE
  8
1
 62
7
 10
-2382.53267297059
 20
64.47176794066354
 30
0
 11
-2384.53267297059
 21
63.31706740228435
 31
0
  0
LINE
  8
1
 62
7
 10
-2407.16267297059
 20
146.162366863905
 30
0
 11
-2407.16267297059
 21
171.046526068915
 31
0
  0
LINE
  8
1
 62
7
 10
-2404.53267297059
 20
146.162366863905
 30
0
 11
-2404.53267297059
 21
171.046526068915
 31
0
  0
LINE
  8
1
 62
7
 10
-2401.90267297059
 20
146.162366863905
 30
0
 11
-2401.90267297059
 21
171.046526068915
 31
0
  0
LINE
  8
1
 62
7
 10
-2420.53267297059
 20
-33.83763313609499
 30
0
 11
-2388.53267297059
 21
-33.83763313609499
 31
0
  0
LINE
  8
1
 62
7
 10
-2420.53267297059
 20
-46.01030395689115
 30
0
 11
-2420.53267297059
 21
-33.83763313609499
 31
0
  0
LINE
  8
1
 62
7
 10
-2388.53267297059
 20
-46.01030395689115
 30
0
 11
-2388.53267297059
 21
-33.83763313609499
 31
0
  0
LINE
  8
1
 62
7
 10
-2429.53267297059
 20
94.5937151937493
 30
0
 11
-2429.53267297059
 21
90.56144093577397
 31
0
  0
LINE
  8
1
 62
7
 10
-2560.387209589002
 20
15.01253899445024
 30
0
 11
-2563.879261531434
 21
17.02867612343791
 31
0
  0
LINE
  8
1
 62
7
 10
-2585.387209589001
 20
-179.3865350774192
 30
0
 11
-2588.879261531434
 21
-181.4026722064061
 31
0
  0
LINE
  8
1
 62
7
 10
-2429.532672970589
 20
-298.2367072079647
 30
0
 11
-2429.53267297059
 21
-302.2689814659392
 31
0
  0
LINE
  8
1
 62
7
 10
-2248.678136352178
 20
-222.6878052666406
 30
0
 11
-2245.186084409746
 21
-224.7039423956282
 31
0
  0
LINE
  8
1
 62
7
 10
-2223.678136352178
 20
-28.28873119477078
 30
0
 11
-2220.186084409746
 21
-26.27259406578391
 31
0
  0
LINE
  8
1
 62
7
 10
-2379.53267297059
 20
90.56144093577458
 30
0
 11
-2379.53267297059
 21
94.59371519374913
 31
0
  0
LINE
  8
1
 62
7
 10
-2588.879261531434
 20
-26.27259406578375
 30
0
 11
-2585.387209589001
 21
-28.28873119477142
 31
0
  0
LINE
  8
1
 62
7
 10
-2563.879261531434
 20
-224.7039423956282
 30
0
 11
-2560.387209589001
 21
-222.6878052666405
 31
0
  0
LINE
  8
1
 62
7
 10
-2379.53267297059
 20
-302.2689814659396
 30
0
 11
-2379.53267297059
 21
-298.2367072079642
 31
0
  0
LINE
  8
1
 62
7
 10
-2220.186084409746
 20
-181.4026722064063
 30
0
 11
-2223.678136352179
 21
-179.3865350774186
 31
0
  0
LINE
  8
1
 62
7
 10
-2245.186084409746
 20
17.02867612343807
 30
0
 11
-2248.678136352179
 21
15.01253899445041
 31
0
  0
LINE
  8
1
 62
7
 10
-2282.363357607798
 20
18.33168222669706
 30
0
 11
-2287.94013296605
 21
19.82597468031049
 31
0
  0
LINE
  8
1
 62
7
 10
-2287.94013296605
 20
19.82597468031049
 30
0
 11
-2292.022615870689
 21
15.74349177567186
 31
0
  0
LINE
  8
1
 62
7
 10
-2292.022615870689
 20
15.74349177567186
 30
0
 11
-2290.528323417075
 21
10.16671641741981
 31
0
  0
LINE
  8
1
 62
7
 10
-2290.528323417075
 20
10.16671641741981
 30
0
 11
-2284.951548058823
 21
8.672423963806377
 31
0
  0
LINE
  8
1
 62
7
 10
-2284.951548058823
 20
8.672423963806377
 30
0
 11
-2280.869065154184
 21
12.754906868445
 31
0
  0
LINE
  8
1
 62
7
 10
-2280.869065154184
 20
12.754906868445
 30
0
 11
-2282.363357607798
 21
18.33168222669706
 31
0
  0
LINE
  8
1
 62
7
 10
-2526.701988333382
 20
18.33168222669701
 30
0
 11
-2528.196280786995
 21
12.75490686844478
 31
0
  0
LINE
  8
1
 62
7
 10
-2528.196280786995
 20
12.75490686844478
 30
0
 11
-2524.113797882357
 21
8.672423963806068
 31
0
  0
LINE
  8
1
 62
7
 10
-2524.113797882357
 20
8.672423963806068
 30
0
 11
-2518.537022524105
 21
10.16671641741959
 31
0
  0
LINE
  8
1
 62
7
 10
-2518.537022524105
 20
10.16671641741959
 30
0
 11
-2517.042730070491
 21
15.74349177567183
 31
0
  0
LINE
  8
1
 62
7
 10
-2517.042730070491
 20
15.74349177567183
 30
0
 11
-2521.12521297513
 21
19.82597468031054
 31
0
  0
LINE
  8
1
 62
7
 10
-2521.12521297513
 20
19.82597468031054
 30
0
 11
-2526.701988333382
 21
18.33168222669701
 31
0
  0
LINE
  8
1
 62
7
 10
-2526.701988333382
 20
-226.0069484988873
 30
0
 11
-2521.12521297513
 21
-227.5012409525008
 31
0
  0
LINE
  8
1
 62
7
 10
-2521.12521297513
 20
-227.5012409525008
 30
0
 11
-2517.042730070491
 21
-223.4187580478621
 31
0
  0
LINE
  8
1
 62
7
 10
-2517.042730070491
 20
-223.4187580478621
 30
0
 11
-2518.537022524104
 21
-217.8419826896101
 31
0
  0
LINE
  8
1
 62
7
 10
-2518.537022524104
 20
-217.8419826896101
 30
0
 11
-2524.113797882357
 21
-216.3476902359967
 31
0
  0
LINE
  8
1
 62
7
 10
-2524.113797882357
 20
-216.3476902359967
 30
0
 11
-2528.196280786995
 21
-220.4301731406353
 31
0
  0
LINE
  8
1
 62
7
 10
-2528.196280786995
 20
-220.4301731406353
 30
0
 11
-2526.701988333382
 21
-226.0069484988873
 31
0
  0
LINE
  8
1
 62
7
 10
-2282.363357607798
 20
-226.0069484988871
 30
0
 11
-2280.869065154184
 21
-220.4301731406349
 31
0
  0
LINE
  8
1
 62
7
 10
-2280.869065154184
 20
-220.4301731406349
 30
0
 11
-2284.951548058823
 21
-216.3476902359962
 31
0
  0
LINE
  8
1
 62
7
 10
-2284.951548058823
 20
-216.3476902359962
 30
0
 11
-2290.528323417075
 21
-217.8419826896097
 31
0
  0
LINE
  8
1
 62
7
 10
-2290.528323417075
 20
-217.8419826896097
 30
0
 11
-2292.022615870688
 21
-223.418758047862
 31
0
  0
LINE
  8
1
 62
7
 10
-2292.022615870688
 20
-223.418758047862
 30
0
 11
-2287.94013296605
 21
-227.5012409525007
 31
0
  0
LINE
  8
1
 62
7
 10
-2287.94013296605
 20
-227.5012409525007
 30
0
 11
-2282.363357607798
 21
-226.0069484988871
 31
0
  0
LINE
  8
1
 62
3
  6
DASHDOT
 10
-2370.68405119563
 20
-103.837633136095
 30
0
 11
-2438.381294745549
 21
-103.837633136095
 31
0
  0
LINE
  8
1
 62
3
  6
DASHDOT
 10
-2404.53267297059
 20
-69.98901136113538
 30
0
 11
-2404.53267297059
 21
-137.6862549110546
 31
0
  0
LINE
  8
1
 62
3
  6
DASHDOT
 10
-960.6440741796905
 20
-103.837633136095
 30
0
 11
-1028.34131772961
 21
-103.837633136095
 31
0
  0
LINE
  8
1
 62
3
  6
DASHDOT
 10
-994.4926959546501
 20
-69.98901136113538
 30
0
 11
-994.4926959546501
 21
-137.6862549110546
 31
0
  0
LINE
  8
1
 62
3
  6
DASHDOT
 10
-1146.801299081441
 20
-15.90222012094694
 30
0
 11
-1171.945003302453
 21
-1.385495720520662
 31
0
  0
LINE
  8
1
 62
3
  6
DASHDOT
 10
-1146.80129908144
 20
-191.7730461512435
 30
0
 11
-1171.945003302453
 21
-206.2897705516692
 31
0
  0
LINE
  8
1
 62
3
  6
DASHDOT
 10
-994.4926959546499
 20
-279.7084591663915
 30
0
 11
-994.4926959546501
 21
-308.7419079672435
 31
0
  0
LINE
  8
1
 62
3
  6
DASHDOT
 10
-842.1840928278598
 20
-191.773046151243
 30
0
 11
-817.0403886068473
 21
-206.2897705516693
 31
0
  0
LINE
  8
1
 62
3
  6
DASHDOT
 10
-842.18409282786
 20
-15.90222012094654
 30
0
 11
-817.0403886068472
 21
-1.385495720520831
 31
0
  0
LINE
  8
1
 62
3
  6
DASHDOT
 10
-994.4926959546505
 20
72.03319289420143
 30
0
 11
-994.4926959546501
 21
92.16236686390501
 31
0
  0
LINE
  8
1
 62
3
 10
-1789.2968755889
 20
-103.837633136095
 30
0
 11
-1781.2968755889
 21
-103.837633136095
 31
0
  0
LINE
  8
1
 62
3
 10
-2009.2968755889
 20
-103.837633136095
 30
0
 11
-2017.2968755889
 21
-103.837633136095
 31
0
  0
LINE
  8
1
 62
7
 10
-1396.16654980031
 20
7.662366863905007
 30
0
 11
-1392.16654980031
 21
7.662366863905007
 31
0
  0
LINE
  8
1
 62
7
 10
-1392.16654980031
 20
-3.837633136094951
 30
0
 11
-1392.16654980031
 21
7.662366863905007
 31
0
  0
LINE
  8
1
 62
7
 10
-1601.36654980031
 20
-23.83763313609484
 30
0
 11
-1601.36654980031
 21
-183.8376331360953
 31
0
  0
LINE
  8
1
 62
3
 10
-1560.36654980031
 20
-17.037633136095
 30
0
 11
-1560.36654980031
 21
9.362366863905095
 31
0
  0
LINE
  8
1
 62
3
 10
-1573.56654980031
 20
-3.837633136094951
 30
0
 11
-1547.16654980031
 21
-3.837633136094951
 31
0
  0
LINE
  8
1
 62
7
 10
-1579.36654980031
 20
-23.83763313609495
 30
0
 11
-1503.36654980031
 21
-23.83763313609499
 31
0
  0
LINE
  8
1
 62
7
 10
-1503.36654980031
 20
16.16236686390505
 30
0
 11
-1579.36654980031
 21
16.16236686390505
 31
0
  0
LINE
  8
1
 62
7
 10
-1541.36654980031
 20
-23.83763313609499
 30
0
 11
-1541.36654980031
 21
16.16236686390505
 31
0
  0
LINE
  8
1
 62
7
 10
-1541.36654980031
 20
-23.83763313609499
 30
0
 11
-1541.36654980031
 21
16.16236686390505
 31
0
  0
LINE
  8
1
 62
7
 10
-1579.36654980031
 20
-14.22993798150822
 30
0
 11
-1566.36654980031
 21
-14.22993798150822
 31
0
  0
LINE
  8
1
 62
7
 10
-1528.36654980031
 20
-14.22993798150826
 30
0
 11
-1554.36654980031
 21
-14.22993798150822
 31
0
  0
LINE
  8
1
 62
7
 10
-1528.36654980031
 20
6.554671709318313
 30
0
 11
-1554.36654980031
 21
6.554671709318313
 31
0
  0
LINE
  8
1
 62
7
 10
-1579.36654980031
 20
6.554671709318313
 30
0
 11
-1566.36654980031
 21
6.554671709318313
 31
0
  0
LINE
  8
1
 62
3
 10
-1522.36654980031
 20
-17.037633136095
 30
0
 11
-1522.36654980031
 21
9.362366863905095
 31
0
  0
LINE
  8
1
 62
3
 10
-1535.56654980031
 20
-3.837633136094951
 30
0
 11
-1509.16654980031
 21
-3.837633136094951
 31
0
  0
LINE
  8
1
 62
7
 10
-1503.36654980031
 20
-14.22993798150819
 30
0
 11
-1516.36654980031
 21
-14.22993798150825
 31
0
  0
LINE
  8
1
 62
7
 10
-1503.36654980031
 20
6.554671709318313
 30
0
 11
-1516.36654980031
 21
6.554671709318272
 31
0
  0
LINE
  8
1
 62
7
 10
-1396.16654980031
 20
8.662366863905049
 30
0
 11
-1396.16654980031
 21
-7.037633136094996
 31
0
  0
LINE
  8
1
 62
7
 10
-1444.36654980031
 20
-7.037633136094996
 30
0
 11
-1381.36654980031
 21
-7.037633136094996
 31
0
  0
LINE
  8
1
 62
7
 10
-1391.16654980031
 20
2.724138130455117
 30
0
 11
-1391.16654980031
 21
10.66236686390501
 31
0
  0
LINE
  8
1
 62
7
 10
-1386.16654980031
 20
2.724138130455117
 30
0
 11
-1386.16654980031
 21
66.16236686390505
 31
0
  0
LINE
  8
1
 62
7
 10
-1386.16654980031
 20
15.66236686390505
 30
0
 11
-1391.16654980031
 21
10.66236686390501
 31
0
  0
LINE
  8
1
 62
7
 10
-1394.16654980031
 20
10.66236686390505
 30
0
 11
-1391.16654980031
 21
10.66236686390501
 31
0
  0
LINE
  8
1
 62
7
 10
-1396.16654980031
 20
76.16236686390505
 30
0
 11
-1386.16654980031
 21
66.16236686390505
 31
0
  0
LINE
  8
1
 62
7
 10
-1396.16654980031
 20
76.16236686390505
 30
0
 11
-1410.16654980031
 21
76.16236686390505
 31
0
  0
LINE
  8
1
 62
3
 10
-1444.36654980031
 20
96.16236686390501
 30
0
 11
-1410.16654980031
 21
-7.037633136094993
 31
0
  0
LINE
  8
1
 62
3
 10
-1444.36654980031
 20
-7.037633136094996
 30
0
 11
-1410.16654980031
 21
96.16236686390505
 31
0
  0
LINE
  8
1
 62
7
 10
-1444.36654980031
 20
76.16236686390505
 30
0
 11
-1444.36654980031
 21
96.16236686390501
 31
0
  0
LINE
  8
1
 62
7
 10
-1444.36654980031
 20
96.16236686390501
 30
0
 11
-1410.16654980031
 21
96.16236686390505
 31
0
  0
LINE
  8
1
 62
7
 10
-1410.16654980031
 20
96.16236686390505
 30
0
 11
-1410.16654980031
 21
-7.037633136094993
 31
0
  0
LINE
  8
1
 62
3
 10
-1396.16654980031
 20
0.1623668639050493
 30
0
 11
-1444.36654980031
 21
0.1623668639050493
 31
0
  0
LINE
  8
1
 62
7
 10
-1490.36654980031
 20
-43.83763313609495
 30
0
 11
-1436.36654980031
 21
-43.83763313609495
 31
0
  0
LINE
  8
1
 62
7
 10
-1436.36654980031
 20
-165.8376331360952
 30
0
 11
-1436.36654980031
 21
-41.83763313609495
 31
0
  0
LINE
  8
1
 62
7
 10
-1436.36654980031
 20
-41.83763313609495
 30
0
 11
-1416.36654980031
 21
-41.83763313609499
 31
0
  0
LINE
  8
1
 62
7
 10
-1416.36654980031
 20
-41.83763313609499
 30
0
 11
-1416.36654980031
 21
-165.837633136095
 31
0
  0
LINE
  8
1
 62
7
 10
-1381.36654980031
 20
-201.837633136095
 30
0
 11
-1381.36654980031
 21
-5.837633136094951
 31
0
  0
LINE
  8
1
 62
7
 10
-1381.36654980031
 20
-5.837633136094951
 30
0
 11
-1383.36654980031
 21
-3.837633136094951
 31
0
  0
LINE
  8
1
 62
7
 10
-1392.16654980031
 20
-6.337633136094993
 30
0
 11
-1392.16654980031
 21
-3.837633136094951
 31
0
  0
LINE
  8
1
 62
7
 10
-1392.16654980031
 20
-3.837633136094951
 30
0
 11
-1383.36654980031
 21
-3.837633136094951
 31
0
  0
LINE
  8
1
 62
7
 10
-1392.16654980031
 20
-6.337633136094993
 30
0
 11
-1396.16654980031
 21
-6.337633136094993
 31
0
  0
LINE
  8
1
 62
7
 10
-1474.36654980031
 20
7.962366863905004
 30
0
 11
-1474.36654980031
 21
76.962366863905
 31
0
  0
LINE
  8
1
 62
7
 10
-1591.36654980031
 20
-12.42930660475702
 30
0
 11
-1591.36654980031
 21
43.16236686390505
 31
0
  0
LINE
  8
1
 62
7
 10
-1591.36654980031
 20
43.16236686390505
 30
0
 11
-1569.36654980031
 21
43.16236686390505
 31
0
  0
LINE
  8
1
 62
7
 10
-1584.36654980031
 20
-8.612859834814913
 30
0
 11
-1584.36654980031
 21
19.16236686390505
 31
0
  0
LINE
  8
1
 62
7
 10
-1579.36654980031
 20
5.162366863905049
 30
0
 11
-1584.36654980031
 21
5.162366863905049
 31
0
  0
LINE
  8
1
 62
7
 10
-1584.36654980031
 20
19.16236686390505
 30
0
 11
-1579.36654980031
 21
19.16236686390505
 31
0
  0
LINE
  8
1
 62
7
 10
-1584.36654980031
 20
16.16236686390505
 30
0
 11
-1591.36654980031
 21
16.16236686390501
 31
0
  0
LINE
  8
1
 62
7
 10
-1490.36654980031
 20
-165.837633136095
 30
0
 11
-1490.36654980031
 21
-41.83763313609495
 31
0
  0
LINE
  8
1
 62
7
 10
-1510.36654980031
 20
-165.8376331360952
 30
0
 11
-1510.36654980031
 21
-41.83763313609495
 31
0
  0
LINE
  8
1
 62
7
 10
-1510.36654980031
 20
-41.83763313609495
 30
0
 11
-1490.36654980031
 21
-41.83763313609495
 31
0
  0
LINE
  8
1
 62
7
 10
-1601.36654980031
 20
-43.83763313609499
 30
0
 11
-1510.36654980031
 21
-43.83763313609495
 31
0
  0
LINE
  8
1
 62
7
 10
-1416.36654980031
 20
-43.83763313609499
 30
0
 11
-1381.36654980031
 21
-43.83763313609495
 31
0
  0
LINE
  8
1
 62
7
 10
-1601.36654980031
 20
-23.83763313609484
 30
0
 11
-1583.36654980031
 21
-23.83763313609495
 31
0
  0
LINE
  8
1
 62
7
 10
-1497.16654980031
 20
-23.83763313609495
 30
0
 11
-1497.16654980031
 21
-20.83763313609495
 31
0
  0
LINE
  8
1
 62
7
 10
-1503.36654980031
 20
-20.83763313609499
 30
0
 11
-1444.36654980031
 21
-20.83763313609495
 31
0
  0
LINE
  8
1
 62
7
 10
-1444.36654980031
 20
76.16236686390505
 30
0
 11
-1472.36654980031
 21
76.16236686390505
 31
0
  0
LINE
  8
1
 62
7
 10
-1472.36654980031
 20
76.16236686390505
 30
0
 11
-1472.36654980031
 21
7.162366863905053
 31
0
  0
LINE
  8
1
 62
7
 10
-1501.36654980031
 20
-11.83763313609495
 30
0
 11
-1501.36654980031
 21
7.162366863905049
 31
0
  0
LINE
  8
1
 62
7
 10
-1472.36654980031
 20
7.162366863905053
 30
0
 11
-1501.36654980031
 21
7.162366863905049
 31
0
  0
LINE
  8
1
 62
7
 10
-1503.36654980031
 20
-11.83763313609499
 30
0
 11
-1501.36654980031
 21
-11.83763313609495
 31
0
  0
LINE
  8
1
 62
7
 10
-1464.36654980031
 20
92.16236686390501
 30
0
 11
-1454.36654980031
 21
82.16236686390501
 31
0
  0
LINE
  8
1
 62
7
 10
-1583.36654980031
 20
-14.13763313609491
 30
0
 11
-1583.36654980031
 21
-26.33763313609495
 31
0
  0
LINE
  8
1
 62
7
 10
-1583.36654980031
 20
-26.33763313609495
 30
0
 11
-1579.36654980031
 21
-26.33763313609495
 31
0
  0
LINE
  8
1
 62
7
 10
-1579.36654980031
 20
-14.13763313609491
 30
0
 11
-1583.36654980031
 21
-14.13763313609491
 31
0
  0
LINE
  8
1
 62
7
 10
-1503.36654980031
 20
7.962366863905004
 30
0
 11
-1474.36654980031
 21
7.962366863905004
 31
0
  0
LINE
  8
1
 62
7
 10
-1454.36654980031
 20
76.96236686390502
 30
0
 11
-1454.36654980031
 21
82.16236686390501
 31
0
  0
LINE
  8
1
 62
7
 10
-1569.36654980031
 20
92.16236686390505
 30
0
 11
-1464.36654980031
 21
92.16236686390501
 31
0
  0
LINE
  8
1
 62
7
 10
-1791.2968755889
 20
-3.837633136095008
 30
0
 11
-1791.2968755889
 21
-203.837633136095
 31
0
  0
LINE
  8
1
 62
7
 10
-1789.2968755889
 20
-201.837633136095
 30
0
 11
-1791.2968755889
 21
-203.837633136095
 31
0
  0
LINE
  8
1
 62
7
 10
-1789.2968755889
 20
-201.837633136095
 30
0
 11
-1789.2968755889
 21
-5.837633136095008
 31
0
  0
LINE
  8
1
 62
7
 10
-1804.0968755889
 20
76.16236686390505
 30
0
 11
-1804.0968755889
 21
-283.837633136095
 31
0
  0
LINE
  8
1
 62
7
 10
-1794.0968755889
 20
-273.837633136095
 30
0
 11
-1804.0968755889
 21
-283.837633136095
 31
0
  0
LINE
  8
1
 62
7
 10
-1818.0968755889
 20
-283.837633136095
 30
0
 11
-1804.0968755889
 21
-283.837633136095
 31
0
  0
LINE
  8
1
 62
7
 10
-1794.0968755889
 20
-273.837633136095
 30
0
 11
-1794.0968755889
 21
66.16236686390505
 31
0
  0
LINE
  8
1
 62
3
 10
-1852.2968755889
 20
-103.837633136095
 30
0
 11
-1818.0968755889
 21
-303.837633136095
 31
0
  0
LINE
  8
1
 62
3
 10
-1852.2968755889
 20
-303.837633136095
 30
0
 11
-1818.0968755889
 21
-103.837633136095
 31
0
  0
LINE
  8
1
 62
7
 10
-1852.2968755889
 20
-303.837633136095
 30
0
 11
-1818.0968755889
 21
-303.837633136095
 31
0
  0
LINE
  8
1
 62
7
 10
-1818.0968755889
 20
-303.837633136095
 30
0
 11
-1818.0968755889
 21
96.16236686390505
 31
0
  0
LINE
  8
1
 62
7
 10
-1862.2968755889
 20
-283.837633136095
 30
0
 11
-1852.2968755889
 21
-283.837633136095
 31
0
  0
LINE
  8
1
 62
7
 10
-1852.2968755889
 20
-303.837633136095
 30
0
 11
-1852.2968755889
 21
96.16236686390505
 31
0
  0
LINE
  8
1
 62
7
 10
-1872.2968755889
 20
-299.837633136095
 30
0
 11
-1862.2968755889
 21
-289.837633136095
 31
0
  0
LINE
  8
1
 62
7
 10
-1862.2968755889
 20
-289.837633136095
 30
0
 11
-1862.2968755889
 21
82.16236686390499
 31
0
  0
LINE
  8
1
 62
7
 10
-2007.2968755889
 20
-23.83763313609495
 30
0
 11
-2007.2968755889
 21
-183.837633136095
 31
0
  0
LINE
  8
1
 62
7
 10
-2009.2968755889
 20
-181.837633136095
 30
0
 11
-2007.2968755889
 21
-183.837633136095
 31
0
  0
LINE
  8
1
 62
7
 10
-1872.2968755889
 20
-299.837633136095
 30
0
 11
-1977.2968755889
 21
-299.837633136095
 31
0
  0
LINE
  8
1
 62
7
 10
-1872.2968755889
 20
-299.837633136095
 30
0
 11
-1872.2968755889
 21
92.16236686390505
 31
0
  0
LINE
  8
1
 62
7
 10
-1977.2968755889
 20
-299.837633136095
 30
0
 11
-1977.2968755889
 21
92.16236686390505
 31
0
  0
LINE
  8
1
 62
7
 10
-1999.2968755889
 20
-250.837633136095
 30
0
 11
-1999.2968755889
 21
43.16236686390505
 31
0
  0
LINE
  8
1
 62
7
 10
-1999.2968755889
 20
-250.837633136095
 30
0
 11
-1977.2968755889
 21
-250.837633136095
 31
0
  0
LINE
  8
1
 62
7
 10
-1999.2968755889
 20
-183.837633136095
 30
0
 11
-2007.2968755889
 21
-183.837633136095
 31
0
  0
LINE
  8
1
 62
7
 10
-2009.2968755889
 20
-181.837633136095
 30
0
 11
-2009.2968755889
 21
-25.83763313609495
 31
0
  0
LINE
  8
1
 62
7
 10
-1794.0968755889
 20
-203.837633136095
 30
0
 11
-1791.2968755889
 21
-203.837633136095
 31
0
  0
LINE
  8
1
 62
7
 10
-1579.36654980031
 20
19.16236686390505
 30
0
 11
-1579.36654980031
 21
-26.33763313609495
 31
0
  0
LINE
  8
1
 62
7
 10
-1444.36654980031
 20
76.16236686390505
 30
0
 11
-1444.36654980031
 21
-20.83763313609495
 31
0
  0
LINE
  8
1
 62
7
 10
-1503.36654980031
 20
-23.83763313609499
 30
0
 11
-1497.16654980031
 21
-23.83763313609495
 31
0
  0
LINE
  8
1
 62
7
 10
-1392.16654980031
 20
-215.337633136095
 30
0
 11
-1396.16654980031
 21
-215.337633136095
 31
0
  0
LINE
  8
1
 62
7
 10
-1392.16654980031
 20
-215.337633136095
 30
0
 11
-1392.16654980031
 21
-203.837633136095
 31
0
  0
LINE
  8
1
 62
3
 10
-1560.36654980031
 20
-217.0376331360952
 30
0
 11
-1560.36654980031
 21
-190.6376331360951
 31
0
  0
LINE
  8
1
 62
3
 10
-1547.16654980031
 20
-203.8376331360952
 30
0
 11
-1573.56654980031
 21
-203.8376331360952
 31
0
  0
LINE
  8
1
 62
7
 10
-1503.36654980031
 20
-183.8376331360952
 30
0
 11
-1579.36654980031
 21
-183.8376331360952
 31
0
  0
LINE
  8
1
 62
7
 10
-1579.36654980031
 20
-223.8376331360952
 30
0
 11
-1503.36654980031
 21
-223.837633136095
 31
0
  0
LINE
  8
1
 62
7
 10
-1541.36654980031
 20
-223.837633136095
 30
0
 11
-1541.36654980031
 21
-183.837633136095
 31
0
  0
LINE
  8
1
 62
7
 10
-1541.36654980031
 20
-223.837633136095
 30
0
 11
-1541.36654980031
 21
-183.837633136095
 31
0
  0
LINE
  8
1
 62
7
 10
-1566.36654980031
 20
-193.4453282906819
 30
0
 11
-1579.36654980031
 21
-193.4453282906819
 31
0
  0
LINE
  8
1
 62
7
 10
-1554.36654980031
 20
-193.4453282906819
 30
0
 11
-1528.36654980031
 21
-193.4453282906817
 31
0
  0
LINE
  8
1
 62
7
 10
-1554.36654980031
 20
-214.2299379815084
 30
0
 11
-1528.36654980031
 21
-214.2299379815083
 31
0
  0
LINE
  8
1
 62
7
 10
-1566.36654980031
 20
-214.2299379815084
 30
0
 11
-1579.36654980031
 21
-214.2299379815084
 31
0
  0
LINE
  8
1
 62
3
 10
-1522.36654980031
 20
-217.0376331360952
 30
0
 11
-1522.36654980031
 21
-190.6376331360951
 31
0
  0
LINE
  8
1
 62
3
 10
-1509.16654980031
 20
-203.8376331360952
 30
0
 11
-1535.56654980031
 21
-203.8376331360952
 31
0
  0
LINE
  8
1
 62
7
 10
-1516.36654980031
 20
-193.4453282906818
 30
0
 11
-1503.36654980031
 21
-193.4453282906818
 31
0
  0
LINE
  8
1
 62
7
 10
-1516.36654980031
 20
-214.2299379815083
 30
0
 11
-1503.36654980031
 21
-214.2299379815082
 31
0
  0
LINE
  8
1
 62
7
 10
-1396.16654980031
 20
-200.637633136095
 30
0
 11
-1396.16654980031
 21
-216.3376331360952
 31
0
  0
LINE
  8
1
 62
7
 10
-1381.36654980031
 20
-200.6376331360951
 30
0
 11
-1444.36654980031
 21
-200.6376331360951
 31
0
  0
LINE
  8
1
 62
7
 10
-1391.16654980031
 20
-218.337633136095
 30
0
 11
-1391.16654980031
 21
-210.3994044026453
 31
0
  0
LINE
  8
1
 62
7
 10
-1386.16654980031
 20
-273.8376331360952
 30
0
 11
-1386.16654980031
 21
-210.3994044026453
 31
0
  0
LINE
  8
1
 62
7
 10
-1391.16654980031
 20
-218.337633136095
 30
0
 11
-1386.16654980031
 21
-223.337633136095
 31
0
  0
LINE
  8
1
 62
7
 10
-1391.16654980031
 20
-218.337633136095
 30
0
 11
-1394.16654980031
 21
-218.3376331360952
 31
0
  0
LINE
  8
1
 62
7
 10
-1386.16654980031
 20
-273.8376331360952
 30
0
 11
-1396.16654980031
 21
-283.8376331360952
 31
0
  0
LINE
  8
1
 62
7
 10
-1410.16654980031
 20
-283.8376331360952
 30
0
 11
-1396.16654980031
 21
-283.8376331360952
 31
0
  0
LINE
  8
1
 62
3
 10
-1410.16654980031
 20
-200.637633136095
 30
0
 11
-1444.36654980031
 21
-303.8376331360952
 31
0
  0
LINE
  8
1
 62
3
 10
-1410.16654980031
 20
-303.8376331360952
 30
0
 11
-1444.36654980031
 21
-200.6376331360951
 31
0
  0
LINE
  8
1
 62
7
 10
-1444.36654980031
 20
-303.8376331360952
 30
0
 11
-1444.36654980031
 21
-283.8376331360952
 31
0
  0
LINE
  8
1
 62
7
 10
-1410.16654980031
 20
-303.8376331360952
 30
0
 11
-1444.36654980031
 21
-303.8376331360952
 31
0
  0
LINE
  8
1
 62
7
 10
-1410.16654980031
 20
-200.637633136095
 30
0
 11
-1410.16654980031
 21
-303.8376331360952
 31
0
  0
LINE
  8
1
 62
3
 10
-1444.36654980031
 20
-207.8376331360952
 30
0
 11
-1396.16654980031
 21
-207.8376331360952
 31
0
  0
LINE
  8
1
 62
7
 10
-1436.36654980031
 20
-163.8376331360952
 30
0
 11
-1490.36654980031
 21
-163.837633136095
 31
0
  0
LINE
  8
1
 62
7
 10
-1416.36654980031
 20
-165.837633136095
 30
0
 11
-1436.36654980031
 21
-165.8376331360952
 31
0
  0
LINE
  8
1
 62
7
 10
-1383.36654980031
 20
-203.837633136095
 30
0
 11
-1381.36654980031
 21
-201.837633136095
 31
0
  0
LINE
  8
1
 62
7
 10
-1392.16654980031
 20
-203.837633136095
 30
0
 11
-1392.16654980031
 21
-201.337633136095
 31
0
  0
LINE
  8
1
 62
7
 10
-1383.36654980031
 20
-203.837633136095
 30
0
 11
-1392.16654980031
 21
-203.837633136095
 31
0
  0
LINE
  8
1
 62
7
 10
-1396.16654980031
 20
-201.337633136095
 30
0
 11
-1392.16654980031
 21
-201.337633136095
 31
0
  0
LINE
  8
1
 62
7
 10
-1474.36654980031
 20
-284.6376331360951
 30
0
 11
-1474.36654980031
 21
-215.637633136095
 31
0
  0
LINE
  8
1
 62
7
 10
-1591.36654980031
 20
-250.8376331360952
 30
0
 11
-1591.36654980031
 21
-195.2459596674331
 31
0
  0
LINE
  8
1
 62
7
 10
-1569.36654980031
 20
-250.8376331360952
 30
0
 11
-1591.36654980031
 21
-250.8376331360952
 31
0
  0
LINE
  8
1
 62
7
 10
-1584.36654980031
 20
-226.8376331360952
 30
0
 11
-1584.36654980031
 21
-199.0624064373752
 31
0
  0
LINE
  8
1
 62
7
 10
-1584.36654980031
 20
-212.8376331360952
 30
0
 11
-1579.36654980031
 21
-212.8376331360952
 31
0
  0
LINE
  8
1
 62
7
 10
-1579.36654980031
 20
-226.8376331360952
 30
0
 11
-1584.36654980031
 21
-226.8376331360952
 31
0
  0
LINE
  8
1
 62
7
 10
-1591.36654980031
 20
-223.837633136095
 30
0
 11
-1584.36654980031
 21
-223.8376331360952
 31
0
  0
LINE
  8
1
 62
7
 10
-1490.36654980031
 20
-165.837633136095
 30
0
 11
-1510.36654980031
 21
-165.8376331360952
 31
0
  0
LINE
  8
1
 62
7
 10
-1510.36654980031
 20
-163.8376331360952
 30
0
 11
-1601.36654980031
 21
-163.837633136095
 31
0
  0
LINE
  8
1
 62
7
 10
-1381.36654980031
 20
-163.837633136095
 30
0
 11
-1416.36654980031
 21
-163.8376331360952
 31
0
  0
LINE
  8
1
 62
7
 10
-1583.36654980031
 20
-183.8376331360952
 30
0
 11
-1601.36654980031
 21
-183.8376331360953
 31
0
  0
LINE
  8
1
 62
7
 10
-1497.16654980031
 20
-186.8376331360952
 30
0
 11
-1497.16654980031
 21
-183.8376331360952
 31
0
  0
LINE
  8
1
 62
7
 10
-1444.36654980031
 20
-186.837633136095
 30
0
 11
-1503.36654980031
 21
-186.8376331360952
 31
0
  0
LINE
  8
1
 62
7
 10
-1472.36654980031
 20
-283.8376331360952
 30
0
 11
-1444.36654980031
 21
-283.8376331360952
 31
0
  0
LINE
  8
1
 62
7
 10
-1472.36654980031
 20
-214.8376331360952
 30
0
 11
-1472.36654980031
 21
-283.8376331360952
 31
0
  0
LINE
  8
1
 62
7
 10
-1501.36654980031
 20
-214.8376331360952
 30
0
 11
-1501.36654980031
 21
-195.837633136095
 31
0
  0
LINE
  8
1
 62
7
 10
-1501.36654980031
 20
-214.8376331360952
 30
0
 11
-1472.36654980031
 21
-214.8376331360952
 31
0
  0
LINE
  8
1
 62
7
 10
-1501.36654980031
 20
-195.837633136095
 30
0
 11
-1503.36654980031
 21
-195.837633136095
 31
0
  0
LINE
  8
1
 62
7
 10
-1454.36654980031
 20
-289.837633136095
 30
0
 11
-1464.36654980031
 21
-299.837633136095
 31
0
  0
LINE
  8
1
 62
7
 10
-1583.36654980031
 20
-181.3376331360952
 30
0
 11
-1583.36654980031
 21
-193.5376331360952
 31
0
  0
LINE
  8
1
 62
7
 10
-1579.36654980031
 20
-181.3376331360952
 30
0
 11
-1583.36654980031
 21
-181.3376331360952
 31
0
  0
LINE
  8
1
 62
7
 10
-1583.36654980031
 20
-193.5376331360952
 30
0
 11
-1579.36654980031
 21
-193.5376331360952
 31
0
  0
LINE
  8
1
 62
7
 10
-1474.36654980031
 20
-215.637633136095
 30
0
 11
-1503.36654980031
 21
-215.637633136095
 31
0
  0
LINE
  8
1
 62
7
 10
-1454.36654980031
 20
-284.637633136095
 30
0
 11
-1474.36654980031
 21
-284.6376331360951
 31
0
  0
LINE
  8
1
 62
7
 10
-1454.36654980031
 20
-289.837633136095
 30
0
 11
-1454.36654980031
 21
-284.637633136095
 31
0
  0
LINE
  8
1
 62
7
 10
-1464.36654980031
 20
-299.837633136095
 30
0
 11
-1569.36654980031
 21
-299.8376331360952
 31
0
  0
LINE
  8
1
 62
7
 10
-1422.36654980031
 20
-165.8376331360951
 30
0
 11
-1422.36654980031
 21
-200.6376331360951
 31
0
  0
LINE
  8
1
 62
7
 10
-1430.36654980031
 20
-200.6376331360951
 30
0
 11
-1430.36654980031
 21
-165.837633136095
 31
0
  0
LINE
  8
1
 62
3
 10
-1426.36654980031
 20
-162.8376331360951
 30
0
 11
-1426.36654980031
 21
-202.8376331360952
 31
0
  0
LINE
  8
1
 62
7
 10
-1497.36654980031
 20
-165.8376331360951
 30
0
 11
-1497.36654980031
 21
-183.8376331360952
 31
0
  0
LINE
  8
1
 62
7
 10
-1503.36654980031
 20
-223.837633136095
 30
0
 11
-1503.36654980031
 21
-165.837633136095
 31
0
  0
LINE
  8
1
 62
3
 10
-1500.36654980031
 20
-162.8376331360951
 30
0
 11
-1500.36654980031
 21
-186.8376331360952
 31
0
  0
LINE
  8
1
 62
7
 10
-1579.36654980031
 20
-181.3376331360952
 30
0
 11
-1579.36654980031
 21
-226.8376331360952
 31
0
  0
LINE
  8
1
 62
7
 10
-1444.36654980031
 20
-186.837633136095
 30
0
 11
-1444.36654980031
 21
-283.8376331360952
 31
0
  0
LINE
  8
1
 62
7
 10
-1497.16654980031
 20
-183.8376331360952
 30
0
 11
-1503.36654980031
 21
-183.8376331360952
 31
0
  0
LINE
  8
1
 62
7
 10
-1569.36654980031
 20
-250.8376331360952
 30
0
 11
-1569.36654980031
 21
-299.8376331360952
 31
0
  0
LINE
  8
1
 62
7
 10
-1578.85154980031
 20
176.046526068915
 30
0
 11
-1578.85154980031
 21
171.046526068915
 31
0
  0
LINE
  8
1
 62
7
 10
-1580.16654980031
 20
171.046526068915
 30
0
 11
-1577.53654980031
 21
171.046526068915
 31
0
  0
LINE
  8
1
 62
7
 10
-1578.090181720287
 20
176.046526068915
 30
0
 11
-1578.090181720287
 21
171.046526068915
 31
0
  0
LINE
  8
1
 62
7
 10
-1578.466373015512
 20
176.046526068915
 30
0
 11
-1578.466373015512
 21
171.046526068915
 31
0
  0
LINE
  8
1
 62
7
 10
-1579.609415797159
 20
176.046526068915
 30
0
 11
-1579.609415797159
 21
171.046526068915
 31
0
  0
LINE
  8
1
 62
7
 10
-1579.204286709993
 20
176.046526068915
 30
0
 11
-1579.204286709993
 21
171.046526068915
 31
0
  0
LINE
  8
1
 62
7
 10
-1580.16654980031
 20
171.046526068915
 30
0
 11
-1580.16654980031
 21
77.47736686390499
 31
0
  0
LINE
  8
1
 62
7
 10
-1577.53654980031
 20
171.046526068915
 30
0
 11
-1577.53654980031
 21
77.47736686390499
 31
0
  0
LINE
  8
1
 62
7
 10
-1584.36654980031
 20
146.162366863905
 30
0
 11
-1584.36654980031
 21
53.16236686390505
 31
0
  0
LINE
  8
1
 62
7
 10
-1584.36654980031
 20
146.162366863905
 30
0
 11
-1580.16654980031
 21
146.162366863905
 31
0
  0
LINE
  8
1
 62
7
 10
-1581.16654980031
 20
146.162366863905
 30
0
 11
-1581.16654980031
 21
53.16236686390505
 31
0
  0
LINE
  8
1
 62
7
 10
-1584.36654980031
 20
53.16236686390505
 30
0
 11
-1569.36654980031
 21
53.16236686390505
 31
0
  0
LINE
  8
1
 62
7
 10
-1574.53654980031
 20
74.477366863905
 30
0
 11
-1569.36654980031
 21
74.477366863905
 31
0
  0
LINE
  8
1
 62
7
 10
-1574.53654980031
 20
71.84736686390501
 30
0
 11
-1569.36654980031
 21
71.84736686390501
 31
0
  0
LINE
  8
1
 62
7
 10
-1577.53654980031
 20
146.162366863905
 30
0
 11
-1569.36654980031
 21
146.162366863905
 31
0
  0
LINE
  8
1
 62
7
 10
-1569.36654980031
 20
146.162366863905
 30
0
 11
-1569.36654980031
 21
43.16236686390505
 31
0
  0
LINE
  8
1
 62
7
 10
-1791.2968755889
 20
-3.837633136095008
 30
0
 11
-1789.2968755889
 21
-5.837633136095008
 31
0
  0
LINE
  8
1
 62
7
 10
-1804.0968755889
 20
76.16236686390505
 30
0
 11
-1794.0968755889
 21
66.16236686390505
 31
0
  0
LINE
  8
1
 62
7
 10
-1804.0968755889
 20
76.16236686390505
 30
0
 11
-1818.0968755889
 21
76.16236686390505
 31
0
  0
LINE
  8
1
 62
3
 10
-1818.0968755889
 20
96.16236686390505
 30
0
 11
-1852.2968755889
 21
-103.837633136095
 31
0
  0
LINE
  8
1
 62
3
 10
-1818.0968755889
 20
-103.837633136095
 30
0
 11
-1852.2968755889
 21
96.16236686390505
 31
0
  0
LINE
  8
1
 62
7
 10
-1818.0968755889
 20
96.16236686390505
 30
0
 11
-1852.2968755889
 21
96.16236686390505
 31
0
  0
LINE
  8
1
 62
7
 10
-1852.2968755889
 20
76.16236686390499
 30
0
 11
-1862.2968755889
 21
76.16236686390499
 31
0
  0
LINE
  8
1
 62
7
 10
-1862.2968755889
 20
82.16236686390499
 30
0
 11
-1872.2968755889
 21
92.16236686390505
 31
0
  0
LINE
  8
1
 62
7
 10
-2007.2968755889
 20
-23.83763313609495
 30
0
 11
-2009.2968755889
 21
-25.83763313609495
 31
0
  0
LINE
  8
1
 62
7
 10
-1977.2968755889
 20
92.16236686390505
 30
0
 11
-1872.2968755889
 21
92.16236686390505
 31
0
  0
LINE
  8
1
 62
7
 10
-1977.2968755889
 20
43.16236686390505
 30
0
 11
-1999.2968755889
 21
43.16236686390505
 31
0
  0
LINE
  8
1
 62
7
 10
-2007.2968755889
 20
-23.83763313609495
 30
0
 11
-1999.2968755889
 21
-23.83763313609495
 31
0
  0
LINE
  8
1
 62
7
 10
-1791.2968755889
 20
-3.837633136095008
 30
0
 11
-1794.0968755889
 21
-3.837633136095008
 31
0
  0
LINE
  8
1
 62
7
 10
-1987.7818755889
 20
176.046526068915
 30
0
 11
-1987.7818755889
 21
171.046526068915
 31
0
  0
LINE
  8
1
 62
7
 10
-1989.0968755889
 20
171.046526068915
 30
0
 11
-1986.4668755889
 21
171.046526068915
 31
0
  0
LINE
  8
1
 62
7
 10
-1987.020507508877
 20
176.046526068915
 30
0
 11
-1987.020507508877
 21
171.046526068915
 31
0
  0
LINE
  8
1
 62
7
 10
-1987.396698804102
 20
176.046526068915
 30
0
 11
-1987.396698804102
 21
171.046526068915
 31
0
  0
LINE
  8
1
 62
7
 10
-1988.539741585749
 20
176.046526068915
 30
0
 11
-1988.539741585749
 21
171.046526068915
 31
0
  0
LINE
  8
1
 62
7
 10
-1988.134612498583
 20
176.046526068915
 30
0
 11
-1988.134612498583
 21
171.046526068915
 31
0
  0
LINE
  8
1
 62
7
 10
-1989.0968755889
 20
146.162366863905
 30
0
 11
-1989.0968755889
 21
171.046526068915
 31
0
  0
LINE
  8
1
 62
7
 10
-1986.4668755889
 20
146.162366863905
 30
0
 11
-1986.4668755889
 21
171.046526068915
 31
0
  0
LINE
  8
1
 62
7
 10
-1977.2968755889
 20
74.91236686390494
 30
0
 11
-1977.2968755889
 21
146.1623668639049
 31
0
  0
LINE
  8
1
 62
7
 10
-1992.2968755889
 20
146.1623668639049
 30
0
 11
-1977.2968755889
 21
146.1623668639049
 31
0
  0
LINE
  8
1
 62
7
 10
-1992.2968755889
 20
53.16236686390505
 30
0
 11
-1992.2968755889
 21
146.1623668639049
 31
0
  0
LINE
  8
1
 62
7
 10
-1977.2968755889
 20
74.16236686390494
 30
0
 11
-1980.4968755889
 21
74.16236686390494
 31
0
  0
LINE
  8
1
 62
7
 10
-1980.4968755889
 20
53.16236686390505
 30
0
 11
-1992.2968755889
 21
53.16236686390505
 31
0
  0
LINE
  8
1
 62
7
 10
-1981.7968755889
 20
63.462366863905
 30
0
 11
-1980.4968755889
 21
62.16236686390505
 31
0
  0
LINE
  8
1
 62
7
 10
-1981.7968755889
 20
62.16236686390505
 30
0
 11
-1980.4968755889
 21
60.86236686390498
 31
0
  0
LINE
  8
1
 62
7
 10
-1981.7968755889
 20
66.76236686390496
 30
0
 11
-1980.4968755889
 21
66.76236686390496
 31
0
  0
LINE
  8
1
 62
7
 10
-1980.4968755889
 20
57.56236686390503
 30
0
 11
-1981.7968755889
 21
57.56236686390503
 31
0
  0
LINE
  8
1
 62
7
 10
-1986.4968755889
 20
66.41236686390505
 30
0
 11
-1981.7968755889
 21
66.41236686390505
 31
0
  0
LINE
  8
1
 62
7
 10
-1986.7968755889
 20
65.89275162163426
 30
0
 11
-1986.4968755889
 21
66.41236686390505
 31
0
  0
LINE
  8
1
 62
7
 10
-1986.7968755889
 20
58.43198210617561
 30
0
 11
-1986.7968755889
 21
65.89275162163426
 31
0
  0
LINE
  8
1
 62
7
 10
-1986.4968755889
 20
57.91236686390505
 30
0
 11
-1986.7968755889
 21
58.43198210617561
 31
0
  0
LINE
  8
1
 62
7
 10
-1981.7968755889
 20
57.91236686390505
 30
0
 11
-1986.4968755889
 21
57.91236686390505
 31
0
  0
LINE
  8
1
 62
7
 10
-1986.4968755889
 20
57.91236686390505
 30
0
 11
-1986.4968755889
 21
66.41236686390505
 31
0
  0
LINE
  8
1
 62
7
 10
-1980.4968755889
 20
49.56820140992636
 30
0
 11
-1980.4968755889
 21
74.16236686390494
 31
0
  0
LINE
  8
1
 62
7
 10
-1981.7968755889
 20
57.56236686390503
 30
0
 11
-1981.7968755889
 21
66.76236686390496
 31
0
  0
LINE
  8
1
 62
7
 10
-1980.4968755889
 20
49.56820140992636
 30
0
 11
-1977.2968755889
 21
49.56820140992636
 31
0
  0
LINE
  8
1
 62
7
 10
-1474.36654980031
 20
76.962366863905
 30
0
 11
-1454.36654980031
 21
76.96236686390502
 31
0
  0
ARC
  8
1
 62
7
 10
-2378.53267297059
 20
67.79569627474689
 30
0
 40
4
 50
0
 51
79.59787899105488
  0
ARC
  8
1
 62
7
 10
-2430.53267297059
 20
67.79569627474689
 30
0
 40
3.999999999999796
 50
100.4021210089517
 51
180
  0
ARC
  8
1
 62
7
 10
-2379.53267297059
 20
55.77332319090692
 30
0
 40
5.000000000000047
 50
259.082582684183
 51
0
  0
ARC
  8
1
 62
7
 10
-2429.53267297059
 20
55.77332319090692
 30
0
 40
5
 50
180
 51
280.917417315817
  0
ARC
  8
1
 62
7
 10
-994.4926959546501
 20
-103.837633136095
 30
0
 40
59.99999999999997
 50
105.4660099534204
 51
74.53399004657945
  0
ARC
  8
1
 62
7
 10
-994.4926959546501
 20
-103.837633136095
 30
0
 40
196.0000000000003
 50
142.6719020301084
 51
157.3280979698918
  0
ARC
  8
1
 62
7
 10
-994.4926959546501
 20
-103.837633136095
 30
0
 40
195.9999999999997
 50
202.6719020301083
 51
217.3280979698918
  0
ARC
  8
1
 62
7
 10
-994.4926959546501
 20
-103.837633136095
 30
0
 40
195.9999999999998
 50
262.6719020301083
 51
277.3280979698917
  0
ARC
  8
1
 62
7
 10
-994.4926959546501
 20
-103.837633136095
 30
0
 40
195.9999999999999
 50
322.6719020301082
 51
337.3280979698917
  0
ARC
  8
1
 62
7
 10
-994.4926959546501
 20
-103.837633136095
 30
0
 40
195.9999999999999
 50
22.67190203010827
 51
37.32809796989174
  0
ARC
  8
1
 62
7
 10
-994.4926959546501
 20
-103.837633136095
 30
0
 40
196
 50
82.67190203010827
 51
97.3280979698917
  0
ARC
  8
1
 62
7
 10
-994.4926959546501
 20
-103.837633136095
 30
0
 40
199.9999999999998
 50
157.1807557814583
 51
202.8192442185417
  0
ARC
  8
1
 62
7
 10
-994.4926959546501
 20
-103.837633136095
 30
0
 40
199.9999999999999
 50
217.1807557814583
 51
262.8192442185418
  0
ARC
  8
1
 62
7
 10
-994.4926959546501
 20
-103.837633136095
 30
0
 40
199.9999999999999
 50
277.1807557814583
 51
322.8192442185418
  0
ARC
  8
1
 62
7
 10
-994.4926959546501
 20
-103.837633136095
 30
0
 40
200.0000000000001
 50
337.1807557814583
 51
22.81924421854169
  0
ARC
  8
1
 62
7
 10
-994.4926959546501
 20
-103.837633136095
 30
0
 40
200.0000000000001
 50
37.18075578145825
 51
82.81924421854173
  0
ARC
  8
1
 62
7
 10
-994.4926959546501
 20
-103.837633136095
 30
0
 40
200
 50
97.18075578145826
 51
142.8192442185417
  0
ARC
  8
1
 62
7
 10
-2385.980184681907
 20
79.40216843965129
 30
0
 40
6.385003960923308
 50
236.1941838747464
 51
268.3857540678371
  0
ARC
  8
1
 62
7
 10
-2423.085161259273
 20
79.40216843965129
 30
0
 40
6.385003960923466
 50
271.6142459321587
 51
303.8058161252531
  0
ARC
  8
1
 62
7
 10
-2404.53267297059
 20
-73.83763313609495
 30
0
 40
126.9999999999999
 50
79.08258268418622
 51
100.9174173158138
  0
ARC
  8
1
 62
7
 10
-2404.53267297059
 20
-73.83763313609495
 30
0
 40
147.9999999999999
 50
79.59787899104832
 51
82.81924421854171
  0
ARC
  8
1
 62
7
 10
-2404.53267297059
 20
-73.83763313609495
 30
0
 40
147.9999999999999
 50
97.18075578145829
 51
100.4021210089519
  0
ARC
  8
1
 62
7
 10
-2404.53267297059
 20
-103.837633136095
 30
0
 40
60
 50
105.4660099534206
 51
74.53399004657945
  0
ARC
  8
1
 62
7
 10
-2404.53267297059
 20
-103.837633136095
 30
0
 40
200
 50
97.18075578145827
 51
142.8192442185418
  0
ARC
  8
1
 62
7
 10
-2404.53267297059
 20
-103.837633136095
 30
0
 40
195.9999999999997
 50
94.38917273295505
 51
85.61082726704495
  0
ARC
  8
1
 62
7
 10
-2404.53267297059
 20
-103.837633136095
 30
0
 40
200.0000000000003
 50
157.1807557814583
 51
202.8192442185417
  0
ARC
  8
1
 62
7
 10
-2404.53267297059
 20
-103.837633136095
 30
0
 40
200.0000000000003
 50
217.1807557814583
 51
262.8192442185417
  0
ARC
  8
1
 62
7
 10
-2404.53267297059
 20
-103.837633136095
 30
0
 40
200.0000000000003
 50
277.1807557814583
 51
322.8192442185417
  0
ARC
  8
1
 62
7
 10
-2404.53267297059
 20
-103.837633136095
 30
0
 40
199.9999999999999
 50
337.1807557814582
 51
22.81924421854171
  0
ARC
  8
1
 62
7
 10
-2404.53267297059
 20
-103.837633136095
 30
0
 40
199.9999999999999
 50
37.1807557814583
 51
82.81924421854171
  0
ARC
  8
1
 62
7
 10
-2404.53267297059
 20
-103.837633136095
 30
0
 40
182
 50
94.7275420628731
 51
85.2724579371269
  0
ARC
  8
1
 62
7
 10
-2404.53267297059
 20
-103.837633136095
 30
0
 40
184
 50
94.67604071059625
 51
85.32395928940376
  0
ARC
  8
1
 62
7
 10
-2404.53267297059
 20
-103.837633136095
 30
0
 40
193
 50
94.45753513469565
 51
85.54246486530434
  0
ARC
  8
1
 62
7
 10
-1574.53654980031
 20
77.477366863905
 30
0
 40
3
 50
180
 51
270
  0
ARC
  8
1
 62
7
 10
-1574.53654980031
 20
77.477366863905
 30
0
 40
5.629999999999882
 50
180
 51
270
  0
CIRCLE
  8
1
 62
7
 10
-994.4926959546501
 20
-103.837633136095
 30
0
 40
100
  0
CIRCLE
  8
1
 62
7
 10
-994.4926959546501
 20
-103.837633136095
 30
0
 40
114.5
  0
CIRCLE
  8
1
 62
7
 10
-994.4926959546501
 20
-103.837633136095
 30
0
 40
119.5
  0
CIRCLE
  8
1
 62
7
 10
-994.4926959546501
 20
-103.837633136095
 30
0
 40
170
  0
CIRCLE
  8
1
 62
7
 10
-994.4926959546501
 20
-103.837633136095
 30
0
 40
180
  0
CIRCLE
  8
1
 62
7
 10
-2426.53267297059
 20
62.16236686390505
 30
0
 40
4.25
  0
CIRCLE
  8
1
 62
7
 10
-2382.53267297059
 20
62.16236686390505
 30
0
 40
4.25
  0
CIRCLE
  8
1
 62
7
 10
-2404.53267297059
 20
-103.837633136095
 30
0
 40
120
  0
CIRCLE
  8
1
 62
7
 10
-2404.53267297059
 20
-103.837633136095
 30
0
 40
147
  0
CIRCLE
  8
1
 62
7
 10
-2286.445840512436
 20
14.24919932205843
 30
0
 40
10.75
  0
CIRCLE
  8
1
 62
7
 10
-2286.445840512436
 20
14.24919932205843
 30
0
 40
9
  0
CIRCLE
  8
1
 62
7
 10
-2522.619505428744
 20
14.2491993220583
 30
0
 40
10.75
  0
CIRCLE
  8
1
 62
7
 10
-2522.619505428744
 20
14.2491993220583
 30
0
 40
9
  0
CIRCLE
  8
1
 62
7
 10
-2522.619505428743
 20
-221.9244655942487
 30
0
 40
10.75
  0
CIRCLE
  8
1
 62
7
 10
-2522.619505428743
 20
-221.9244655942487
 30
0
 40
9
  0
CIRCLE
  8
1
 62
7
 10
-2286.445840512436
 20
-221.9244655942484
 30
0
 40
10.75
  0
CIRCLE
  8
1
 62
7
 10
-2286.445840512436
 20
-221.9244655942484
 30
0
 40
9
  0
CIRCLE
  8
1
 62
7
 10
-1560.36654980031
 20
-3.837633136094951
 30
0
 40
12
  0
CIRCLE
  8
1
 62
7
 10
-1522.36654980031
 20
-3.837633136094951
 30
0
 40
12
  0
CIRCLE
  8
1
 62
7
 10
-1560.36654980031
 20
-203.8376331360952
 30
0
 40
12
  0
CIRCLE
  8
1
 62
7
 10
-1522.36654980031
 20
-203.8376331360952
 30
0
 40
12
  0
CIRCLE
  8
1
 62
7
 10
-2404.53267297059
 20
-103.837633136095
 30
0
 40
80
  0
ARC
  8
1
 62
7
 10
-1394.16654980031
 20
8.662366863905049
 30
0
 40
2
 50
90
 51
180
  0
ARC
  8
1
 62
7
 10
-1394.16654980031
 20
-216.3376331360952
 30
0
 40
2
 50
180
 51
270
  0
TEXT
  8
1
 62
7
 10
-2564.24744148872
 20
307.642491734533
 30
0
 40
22
  1
DC4331
 41
0.9
  7
SIMPLEX
  0
TEXT
  8
1
 62
7
 10
-2562.23831537901
 20
347.688122283057
 30
0
 40
22
  1
MWC 450
 41
0.9
  7
SIMPLEX
  0
ENDSEC
  0
EOF
