  0
SECTION
  2
HEADER
  9
$ACADVER
  1
AC1009
  9
$INSBASE
 10
0
 20
0
  9
$EXTMIN
 10
-1528.541457343917
 20
-183.6215906797667
  9
$EXTMAX
 10
466.8456182205884
 20
506.026647263418
  9
$LIMMIN
 10
-1528.541457343917
 20
-183.6215906797667
  9
$LIMMAX
 10
466.8456182205884
 20
506.026647263418
  9
$VIEWCTR
 10
10
 20
10
  9
$VIEWSIZE
 40
10
  9
$SNAPMODE
 70
0
  9
$SNAPUNIT
 10
1
 20
1
  9
$SNAPBASE
 10
0
 20
0
  9
$SNAPANG
 50
0
  9
$SNAPSTYLE
 70
0
  9
$SNAPISOPAIR
 70
0
  9
$GRIDMODE
 70
0
  9
$GRIDUNIT
 10
0
 20
0
  9
$ORTHOMODE
 70
0
  9
$REGENMODE
 70
1
  9
$FILLMODE
 70
1
  9
$QTEXTMODE
 70
0
  9
$DRAGMODE
 70
2
  9
$LTSCALE
 40
1
  9
$OSMODE
 70
0
  9
$ATTMODE
 70
1
  9
$TEXTSIZE
 40
3.5
  9
$TRACEWID
 40
0.5
  9
$TEXTSTYLE
  7
STANDARD
  9
$CLAYER
  8
0
  9
$CELTYPE
  6
BYLAYER
  9
$CECOLOR
 62
256
  9
$DIMSCALE
 40
1
  9
$DIMASZ
 40
0.18
  9
$DIMEXO
 40
0.0625
  9
$DIMDLI
 40
0.38
  9
$DIMRND
 40
0
  9
$DIMDLE
 40
0
  9
$DIMEXE
 40
0.18
  9
$DIMTP
 40
0
  9
$DIMTM
 40
0
  9
$DIMTXT
 40
0.18
  9
$DIMCEN
 40
0.09
  9
$DIMTSZ
 40
0
  9
$DIMTOL
 70
0
  9
$DIMLIM
 70
0
  9
$DIMTIH
 70
1
  9
$DIMTOH
 70
1
  9
$DIMSE1
 70
0
  9
$DIMSE2
 70
0
  9
$DIMTAD
 70
0
  9
$DIMZIN
 70
0
  9
$DIMBLK
  1

  9
$DIMASO
 70
1
  9
$DIMSHO
 70
1
  9
$DIMPOST
  1

  9
$DIMAPOST
  1

  9
$DIMALT
 70
0
  9
$DIMALTD
 70
2
  9
$DIMALTF
 40
25.4
  9
$DIMLFAC
 40
1
  9
$DIMTOFL
 70
0
  9
$DIMTVP
 40
0
  9
$DIMTIX
 70
0
  9
$DIMSOXD
 70
0
  9
$DIMSAH
 70
0
  9
$DIMBLK1
  1

  9
$DIMBLK2
  1

  9
$DIMSTYLE
  2
*UNNAMED
  9
$DIMCLRD
 70
0
  9
$DIMCLRE
 70
0
  9
$DIMCLRT
 70
0
  9
$DIMTFAC
 40
1
  9
$DIMGAP
 40
0.09
  9
$LUNITS
 70
2
  9
$LUPREC
 70
4
  9
$AXISMODE
 70
0
  9
$AXISUNIT
 10
0
 20
0
  9
$SKETCHINC
 40
0.1
  9
$FILLETRAD
 40
2
  9
$AUNITS
 70
0
  9
$AUPREC
 70
0
  9
$MENU
  1
ACAD
  9
$ELEVATION
 40
0
  9
$THICKNESS
 40
0
  9
$VIEWDIR
 10
0
 20
0
 30
1
  9
$LIMCHECK
 70
0
  9
$BLIPMODE
 70
1
  9
$CHAMFERA
 40
0
  9
$CHAMFERB
 40
0
  9
$FASTZOOM
 70
1
  9
$SKPOLY
 70
0
  9
$ANGBASE
 50
0
  9
$ANGDIR
 70
0
  9
$PDMODE
 70
0
  9
$PDSIZE
 40
0
  9
$PLINEWID
 40
0
  9
$COORDS
 70
2
  0
ENDSEC
  0
SECTION
  2
TABLES
  0
TABLE
  2
DIMSTYLE
 70
0
  0
ENDTAB
  0
TABLE
  2
LTYPE
 70
9
  0
LTYPE
  2
CONTINUOUS
 70
64
  3
Solid line
 72
65
 73
0
 40
0
  0
LTYPE
  2
BORDER
 70
64
  3
__ __ . __ __ .
 72
65
 73
6
 40
91.89282584836539
 49
26.25509309953297
 49
-13.12754654976648
 49
26.25509309953297
 49
-13.12754654976648
 49
0
 49
-13.12754654976648
  0
LTYPE
  2
CENTER
 70
64
  3
____ _ ____ _
 72
65
 73
4
 40
105.0203723981319
 49
65.63773274883242
 49
-13.12754654976648
 49
13.12754654976648
 49
-13.12754654976648
  0
LTYPE
  2
DASHDOT
 70
64
  3
__ . __ . __ .
 72
65
 73
4
 40
52.51018619906593
 49
26.25509309953297
 49
-13.12754654976648
 49
0
 49
-13.12754654976648
  0
LTYPE
  2
DASHED
 70
64
  3
__ __ __ __ __
 72
65
 73
2
 40
39.38263964929945
 49
26.25509309953297
 49
-13.12754654976648
  0
LTYPE
  2
DIVIDE
 70
64
  3
__ . . __ . . 
 72
65
 73
6
 40
65.63773274883242
 49
26.25509309953297
 49
-13.12754654976648
 49
0
 49
-13.12754654976648
 49
0
 49
-13.12754654976648
  0
LTYPE
  2
DOT
 70
64
  3
..............
 72
65
 73
4
 40
26.25509309953297
 49
0
 49
-13.12754654976648
 49
0
 49
-13.12754654976648
  0
LTYPE
  2
HIDDEN
 70
64
  3
_ _ _ _ _ _ _
 72
65
 73
2
 40
19.69131982464973
 49
13.12754654976648
 49
-6.563773274883242
  0
LTYPE
  2
PHANTOM
 70
64
  3
_____ _ _ _____ _ _ 
 72
65
 73
6
 40
131.2754654976648
 49
65.63773274883242
 49
-13.12754654976648
 49
13.12754654976648
 49
-13.12754654976648
 49
13.12754654976648
 49
-13.12754654976648
  0
ENDTAB
  0
TABLE
  2
LAYER
 70
3
  0
LAYER
  2
1
 70
0
 62
7
  6
CONTINUOUS
  0
LAYER
  2
0
 70
0
 62
7
  6
CONTINUOUS
  0
ENDTAB
  0
TABLE
  2
STYLE
 70
4
  0
STYLE
  2
STANDARD
 70
0
 40
0
 41
1
 50
0
 71
0
 42
3.5
  3
txt
  4

  0
STYLE
  2
SIMPLEX
 70
0
 40
0
 41
1
 50
0
 71
0
 42
3.5
  3
simplex
  4

  0
STYLE
  2
COMPLEX
 70
0
 40
0
 41
1
 50
0
 71
0
 42
3.5
  3
complex
  4

  0
STYLE
  2
ITALIC
 70
0
 40
0
 41
1
 50
0
 71
0
 42
3.5
  3
italic
  4

  0
ENDTAB
  0
TABLE
  2
VIEW
 70
0
  0
ENDTAB
  0
ENDSEC
  0
SECTION
  2
BLOCKS
  0
ENDSEC
  0
SECTION
  2
ENTITIES
  0
LINE
  8
1
 62
7
 10
-287.8916849107473
 20
239.5071942446043
 30
0
 11
-268.7916849107473
 21
239.5071942446043
 31
0
  0
LINE
  8
1
 62
3
  6
DASHDOT
 10
153.6545679174552
 20
-47.55507113415805
 30
0
 11
197.2294179173638
 21
-3.98022113424925
 31
0
  0
LINE
  8
1
 62
3
  6
DASHDOT
 10
330.7790986749798
 20
-47.55507113415801
 30
0
 11
287.204248675071
 21
-3.980221134249244
 31
0
  0
LINE
  8
1
 62
3
  6
DASHDOT
 10
330.7790986749798
 20
129.5694596233666
 30
0
 11
287.204248675071
 21
85.99460962345785
 31
0
  0
LINE
  8
1
 62
3
  6
DASHDOT
 10
153.654567917455
 20
129.5694596233666
 30
0
 11
197.2294179173638
 21
85.99460962345785
 31
0
  0
LINE
  8
1
 62
7
 10
243.9275281722454
 20
340.8913534496143
 30
0
 11
243.9275281722454
 21
335.8913534496143
 31
0
  0
LINE
  8
1
 62
7
 10
243.6931114771124
 20
340.8913534496143
 30
0
 11
243.6931114771124
 21
335.8913534496143
 31
0
  0
LINE
  8
1
 62
7
 10
243.0093961163054
 20
340.8913534496143
 30
0
 11
243.0093961163054
 21
335.8913534496143
 31
0
  0
LINE
  8
1
 62
7
 10
243.2828822606285
 20
340.8913534496143
 30
0
 11
243.2828822606285
 21
335.8913534496143
 31
0
  0
LINE
  8
1
 62
7
 10
243.5368336803564
 20
340.8913534496143
 30
0
 11
243.5368336803564
 21
335.8913534496143
 31
0
  0
LINE
  8
1
 62
7
 10
240.2549999484855
 20
340.8913534496143
 30
0
 11
240.2549999484855
 21
335.8913534496143
 31
0
  0
LINE
  8
1
 62
7
 10
240.6066249911855
 20
340.8913534496143
 30
0
 11
240.6066249911855
 21
335.8913534496143
 31
0
  0
LINE
  8
1
 62
7
 10
241.5247570471254
 20
340.8913534496143
 30
0
 11
241.5247570471254
 21
335.8913534496143
 31
0
  0
LINE
  8
1
 62
7
 10
241.2122014536145
 20
340.8913534496143
 30
0
 11
241.2122014536145
 21
335.8913534496143
 31
0
  0
LINE
  8
1
 62
7
 10
240.9191805846975
 20
340.8913534496143
 30
0
 11
240.9191805846975
 21
335.8913534496143
 31
0
  0
LINE
  8
1
 62
7
 10
227.2168332962174
 20
311.0071942446043
 30
0
 11
239.5868332962174
 21
311.0071942446043
 31
0
  0
LINE
  8
1
 62
7
 10
239.5868332962174
 20
254.9910326530224
 30
0
 11
239.5868332962174
 21
335.8913534496143
 31
0
  0
LINE
  8
1
 62
7
 10
244.8468332962174
 20
254.9910326530224
 30
0
 11
244.8468332962174
 21
335.8913534496143
 31
0
  0
LINE
  8
1
 62
7
 10
239.5868332962174
 20
335.8913534496143
 30
0
 11
244.8468332962174
 21
335.8913534496143
 31
0
  0
LINE
  8
1
 62
7
 10
257.2168332962174
 20
254.4808460145593
 30
0
 11
257.2168332962174
 21
311.0071942446043
 31
0
  0
LINE
  8
1
 62
7
 10
254.0168332962174
 20
254.6816194807565
 30
0
 11
254.0168332962174
 21
311.0071942446043
 31
0
  0
LINE
  8
1
 62
7
 10
230.4168332962174
 20
254.6214752017252
 30
0
 11
230.4168332962174
 21
311.0071942446043
 31
0
  0
LINE
  8
1
 62
7
 10
227.2168332962174
 20
254.4808460145593
 30
0
 11
227.2168332962174
 21
311.0071942446043
 31
0
  0
LINE
  8
1
 62
7
 10
244.8468332962174
 20
311.0071942446043
 30
0
 11
257.2168332962174
 21
311.0071942446043
 31
0
  0
LINE
  8
1
 62
7
 10
259.7168332962174
 20
108.7844028032341
 30
0
 11
259.7168332962174
 21
122.0071942446043
 31
0
  0
LINE
  8
1
 62
7
 10
224.7168332962174
 20
108.7844028032341
 30
0
 11
224.7168332962174
 21
122.0071942446043
 31
0
  0
LINE
  8
1
 62
7
 10
224.7168332962174
 20
122.0071942446043
 30
0
 11
259.7168332962174
 21
122.0071942446043
 31
0
  0
LINE
  8
1
 62
7
 10
83.11780752924415
 20
164.7508809522501
 30
0
 11
118.4731465885716
 21
200.1062200115775
 31
0
  0
LINE
  8
1
 62
7
 10
105.3386876651437
 20
213.2406789350053
 30
0
 11
118.4731465885716
 21
200.1062200115775
 31
0
  0
LINE
  8
1
 62
7
 10
69.98334860581636
 20
177.8853398756779
 30
0
 11
83.11780752924415
 21
164.7508809522501
 31
0
  0
LINE
  8
1
 62
7
 10
42.21683329621736
 20
16.00719424460425
 30
0
 11
42.21683329621736
 21
66.00719424460425
 31
0
  0
LINE
  8
1
 62
7
 10
23.64190335227347
 20
66.00719424460424
 30
0
 11
42.21683329621736
 21
66.00719424460425
 31
0
  0
LINE
  8
1
 62
7
 10
23.64190335227347
 20
16.00719424460424
 30
0
 11
42.21683329621736
 21
16.00719424460425
 31
0
  0
LINE
  8
1
 62
7
 10
118.4731465885716
 20
-118.0918315223689
 30
0
 11
83.11780752924426
 21
-82.73649246304154
 31
0
  0
LINE
  8
1
 62
7
 10
69.98334860581645
 20
-95.87095138646936
 30
0
 11
83.11780752924426
 21
-82.73649246304154
 31
0
  0
LINE
  8
1
 62
7
 10
105.3386876651437
 20
-131.2262904457967
 30
0
 11
118.4731465885716
 21
-118.0918315223689
 31
0
  0
LINE
  8
1
 62
7
 10
267.2168332962174
 20
-158.9928057553957
 30
0
 11
217.2168332962174
 21
-158.9928057553957
 31
0
  0
LINE
  8
1
 62
7
 10
217.2168332962174
 20
-177.5677356993396
 30
0
 11
217.2168332962174
 21
-158.9928057553957
 31
0
  0
LINE
  8
1
 62
7
 10
267.2168332962174
 20
-177.5677356993396
 30
0
 11
267.2168332962174
 21
-158.9928057553957
 31
0
  0
LINE
  8
1
 62
7
 10
401.3158590631906
 20
-82.73649246304152
 30
0
 11
365.9605200038632
 21
-118.0918315223689
 31
0
  0
LINE
  8
1
 62
7
 10
379.094978927291
 20
-131.2262904457967
 30
0
 11
365.9605200038632
 21
-118.0918315223689
 31
0
  0
LINE
  8
1
 62
7
 10
414.4503179866184
 20
-95.8709513864693
 30
0
 11
401.3158590631906
 21
-82.73649246304152
 31
0
  0
LINE
  8
1
 62
7
 10
442.2168332962174
 20
66.00719424460429
 30
0
 11
442.2168332962175
 21
16.00719424460429
 31
0
  0
LINE
  8
1
 62
7
 10
460.7917632401613
 20
16.00719424460429
 30
0
 11
442.2168332962175
 21
16.00719424460429
 31
0
  0
LINE
  8
1
 62
7
 10
460.7917632401613
 20
66.00719424460429
 30
0
 11
442.2168332962174
 21
66.00719424460429
 31
0
  0
LINE
  8
1
 62
7
 10
365.9605200038632
 20
200.1062200115775
 30
0
 11
401.3158590631906
 21
164.7508809522501
 31
0
  0
LINE
  8
1
 62
7
 10
414.4503179866184
 20
177.8853398756779
 30
0
 11
401.3158590631906
 21
164.7508809522501
 31
0
  0
LINE
  8
1
 62
7
 10
379.094978927291
 20
213.2406789350053
 30
0
 11
365.9605200038632
 21
200.1062200115775
 31
0
  0
LINE
  8
1
 62
7
 10
217.2168332962174
 20
241.0071942446043
 30
0
 11
267.2168332962174
 21
241.0071942446043
 31
0
  0
LINE
  8
1
 62
7
 10
267.2168332962174
 20
259.5821241885482
 30
0
 11
267.2168332962174
 21
241.0071942446043
 31
0
  0
LINE
  8
1
 62
7
 10
217.2168332962174
 20
259.5821241885482
 30
0
 11
217.2168332962174
 21
241.0071942446043
 31
0
  0
LINE
  8
1
 62
7
 10
-1292.466527399973
 20
108.7844028032341
 30
0
 11
-1292.466527399973
 21
122.0071942446043
 31
0
  0
LINE
  8
1
 62
7
 10
-1327.466527399973
 20
108.7844028032341
 30
0
 11
-1327.466527399973
 21
122.0071942446043
 31
0
  0
LINE
  8
1
 62
7
 10
-1327.466527399973
 20
122.0071942446043
 30
0
 11
-1292.466527399973
 21
122.0071942446043
 31
0
  0
LINE
  8
1
 62
7
 10
-1446.844673031046
 20
213.2406789350053
 30
0
 11
-1442.573587633515
 21
208.9695935374744
 31
0
  0
LINE
  8
1
 62
7
 10
-1334.966527399973
 20
259.5821241885482
 30
0
 11
-1334.966527399973
 21
253.5418972933065
 31
0
  0
LINE
  8
1
 62
7
 10
-1528.541457343917
 20
66.00719424460426
 30
0
 11
-1522.501230448675
 21
66.00719424460428
 31
0
  0
LINE
  8
1
 62
7
 10
-1482.200012090374
 20
177.8853398756779
 30
0
 11
-1477.928926692843
 21
173.6142544781471
 31
0
  0
LINE
  8
1
 62
7
 10
-1482.200012090374
 20
-95.87095138646939
 30
0
 11
-1477.928926692843
 21
-91.59986598893849
 31
0
  0
LINE
  8
1
 62
7
 10
-1528.541457343917
 20
16.00719424460435
 30
0
 11
-1522.501230448675
 21
16.00719424460435
 31
0
  0
LINE
  8
1
 62
7
 10
-1334.966527399973
 20
-177.5677356993396
 30
0
 11
-1334.966527399973
 21
-171.5275088040977
 31
0
  0
LINE
  8
1
 62
7
 10
-1446.844673031046
 20
-131.2262904457966
 30
0
 11
-1442.573587633515
 21
-126.9552050482658
 31
0
  0
LINE
  8
1
 62
7
 10
-1173.088381768899
 20
-131.2262904457967
 30
0
 11
-1177.35946716643
 21
-126.9552050482658
 31
0
  0
LINE
  8
1
 62
7
 10
-1284.966527399973
 20
-177.5677356993396
 30
0
 11
-1284.966527399973
 21
-171.5275088040978
 31
0
  0
LINE
  8
1
 62
7
 10
-1091.391597456029
 20
16.00719424460436
 30
0
 11
-1097.431824351271
 21
16.00719424460434
 31
0
  0
LINE
  8
1
 62
7
 10
-1137.733042709572
 20
-95.87095138646932
 30
0
 11
-1142.004128107103
 21
-91.59986598893852
 31
0
  0
LINE
  8
1
 62
7
 10
-1137.733042709572
 20
177.8853398756779
 30
0
 11
-1142.004128107103
 21
173.614254478147
 31
0
  0
LINE
  8
1
 62
7
 10
-1091.391597456029
 20
66.00719424460418
 30
0
 11
-1097.431824351271
 21
66.00719424460419
 31
0
  0
LINE
  8
1
 62
7
 10
-1284.966527399973
 20
259.5821241885482
 30
0
 11
-1284.966527399973
 21
253.5418972933063
 31
0
  0
LINE
  8
1
 62
7
 10
-1173.088381768899
 20
213.2406789350053
 30
0
 11
-1177.35946716643
 21
208.9695935374743
 31
0
  0
LINE
  8
1
 62
7
 10
-1307.336527399973
 20
311.0071942446042
 30
0
 11
-1307.336527399973
 21
335.8913534496143
 31
0
  0
LINE
  8
1
 62
7
 10
-1309.966527399973
 20
311.0071942446042
 30
0
 11
-1309.966527399973
 21
335.8913534496143
 31
0
  0
LINE
  8
1
 62
7
 10
-1312.596527399973
 20
311.0071942446042
 30
0
 11
-1312.596527399973
 21
335.8913534496143
 31
0
  0
LINE
  8
1
 62
7
 10
-1287.966527399973
 20
229.3165953213628
 30
0
 11
-1289.966527399973
 21
228.1618947829836
 31
0
  0
LINE
  8
1
 62
7
 10
-1289.966527399973
 20
228.1618947829836
 30
0
 11
-1289.966527399973
 21
225.852493706225
 31
0
  0
LINE
  8
1
 62
7
 10
-1289.966527399973
 20
225.852493706225
 30
0
 11
-1287.966527399973
 21
224.6977931678457
 31
0
  0
LINE
  8
1
 62
7
 10
-1287.966527399973
 20
224.6977931678457
 30
0
 11
-1285.966527399973
 21
225.852493706225
 31
0
  0
LINE
  8
1
 62
7
 10
-1285.966527399973
 20
225.852493706225
 30
0
 11
-1285.966527399973
 21
228.1618947829836
 31
0
  0
LINE
  8
1
 62
7
 10
-1285.966527399973
 20
228.1618947829836
 30
0
 11
-1287.966527399973
 21
229.3165953213628
 31
0
  0
LINE
  8
1
 62
7
 10
-1329.966527399973
 20
228.1618947829836
 30
0
 11
-1331.966527399973
 21
229.3165953213628
 31
0
  0
LINE
  8
1
 62
7
 10
-1329.966527399973
 20
225.852493706225
 30
0
 11
-1329.966527399973
 21
228.1618947829836
 31
0
  0
LINE
  8
1
 62
7
 10
-1331.966527399973
 20
224.6977931678457
 30
0
 11
-1329.966527399973
 21
225.852493706225
 31
0
  0
LINE
  8
1
 62
7
 10
-1333.966527399973
 20
225.852493706225
 30
0
 11
-1331.966527399973
 21
224.6977931678457
 31
0
  0
LINE
  8
1
 62
7
 10
-1333.966527399973
 20
228.1618947829836
 30
0
 11
-1333.966527399973
 21
225.852493706225
 31
0
  0
LINE
  8
1
 62
7
 10
-1331.966527399973
 20
229.3165953213628
 30
0
 11
-1333.966527399973
 21
228.1618947829836
 31
0
  0
LINE
  8
1
 62
7
 10
-1324.966527399973
 20
311.0071942446042
 30
0
 11
-1294.966527399973
 21
311.0071942446042
 31
0
  0
LINE
  8
1
 62
7
 10
-1324.966527399973
 20
311.0071942446042
 30
0
 11
-1324.966527399973
 21
217.1645452598808
 31
0
  0
LINE
  8
1
 62
7
 10
-1294.966527399973
 20
311.0071942446042
 30
0
 11
-1294.966527399973
 21
217.113537313243
 31
0
  0
LINE
  8
1
 62
7
 10
-1339.966527399973
 20
220.6181505716062
 30
0
 11
-1339.966527399973
 21
232.6405236554461
 31
0
  0
LINE
  8
1
 62
7
 10
-1279.966527399973
 20
220.6181505716062
 30
0
 11
-1279.966527399973
 21
232.6405236554461
 31
0
  0
LINE
  8
1
 62
7
 10
-1308.29879049029
 20
335.8913534496143
 30
0
 11
-1308.29879049029
 21
340.8913534496143
 31
0
  0
LINE
  8
1
 62
7
 10
-1307.893661403124
 20
335.8913534496143
 30
0
 11
-1307.893661403124
 21
340.8913534496143
 31
0
  0
LINE
  8
1
 62
7
 10
-1309.036704184771
 20
335.8913534496143
 30
0
 11
-1309.036704184771
 21
340.8913534496143
 31
0
  0
LINE
  8
1
 62
7
 10
-1309.412895479996
 20
335.8913534496143
 30
0
 11
-1309.412895479996
 21
340.8913534496143
 31
0
  0
LINE
  8
1
 62
7
 10
-1308.651527399973
 20
335.8913534496143
 30
0
 11
-1308.651527399973
 21
340.8913534496143
 31
0
  0
LINE
  8
1
 62
7
 10
-1311.634264309656
 20
340.8913534496143
 30
0
 11
-1311.634264309656
 21
335.8913534496143
 31
0
  0
LINE
  8
1
 62
7
 10
-1312.039393396822
 20
340.8913534496143
 30
0
 11
-1312.039393396822
 21
335.8913534496143
 31
0
  0
LINE
  8
1
 62
7
 10
-1310.896350615175
 20
340.8913534496143
 30
0
 11
-1310.896350615175
 21
335.8913534496143
 31
0
  0
LINE
  8
1
 62
7
 10
-1310.52015931995
 20
340.8913534496143
 30
0
 11
-1310.52015931995
 21
335.8913534496143
 31
0
  0
LINE
  8
1
 62
7
 10
-1312.596527399973
 20
335.8913534496143
 30
0
 11
-1307.336527399973
 21
335.8913534496143
 31
0
  0
LINE
  8
1
 62
7
 10
-1311.281527399973
 20
340.8913534496143
 30
0
 11
-1311.281527399973
 21
335.8913534496143
 31
0
  0
LINE
  8
1
 62
3
  6
DASHDOT
 10
-1270.770792736545
 20
41.0071942446043
 30
0
 11
-1349.162262063401
 21
41.0071942446043
 31
0
  0
LINE
  8
1
 62
3
  6
DASHDOT
 10
-1309.966527399973
 20
80.20292890803239
 30
0
 11
-1309.966527399973
 21
1.811459581176216
 31
0
  0
LINE
  8
1
 62
3
 10
-633.7916849107473
 20
41.0071942446043
 30
0
 11
-625.7916849107473
 21
41.0071942446043
 31
0
  0
LINE
  8
1
 62
3
 10
-888.7916849107473
 20
41.0071942446043
 30
0
 11
-896.7916849107473
 21
41.0071942446043
 31
0
  0
LINE
  8
1
 62
7
 10
242.2168332962174
 20
335.8913534496143
 30
0
 11
242.2168332962174
 21
255.0071942446043
 31
0
  0
LINE
  8
1
 62
3
  6
DASHDOT
 10
83.38029622650016
 20
-117.829342825113
 30
0
 11
105.212319233274
 21
-95.99731981833914
 31
0
  0
LINE
  8
1
 62
3
  6
DASHDOT
 10
242.2168332962174
 20
-183.6215906797667
 30
0
 11
242.2168332962174
 21
-152.7464476495457
 31
0
  0
LINE
  8
1
 62
3
  6
DASHDOT
 10
401.0533703659347
 20
-117.829342825113
 30
0
 11
379.2213473591609
 21
-95.99731981833912
 31
0
  0
LINE
  8
1
 62
3
  6
DASHDOT
 10
466.8456182205884
 20
41.00719424460426
 30
0
 11
435.9704751903674
 21
41.00719424460427
 31
0
  0
LINE
  8
1
 62
3
  6
DASHDOT
 10
401.0533703659347
 20
199.8437313143215
 30
0
 11
379.2213473591609
 21
178.0117083075477
 31
0
  0
LINE
  8
1
 62
3
  6
DASHDOT
 10
242.2168332962175
 20
265.6359791689753
 30
0
 11
242.2168332962175
 21
234.7608361387543
 31
0
  0
LINE
  8
1
 62
3
  6
DASHDOT
 10
83.38029622650022
 20
199.8437313143216
 30
0
 11
105.2123192332741
 21
178.0117083075478
 31
0
  0
LINE
  8
1
 62
3
  6
DASHDOT
 10
17.58804837184638
 20
41.00719424460443
 30
0
 11
48.46319140206739
 21
41.00719424460442
 31
0
  0
LINE
  8
1
 62
3
  6
DASHDOT
 10
242.2168332962175
 20
80.20292890803239
 30
0
 11
242.2168332962175
 21
1.811459581176216
 31
0
  0
LINE
  8
1
 62
3
  6
DASHDOT
 10
281.4125679596456
 20
41.0071942446043
 30
0
 11
203.0210986327894
 21
41.0071942446043
 31
0
  0
LINE
  8
1
 62
7
  6
DASHED
 10
160.2396002325068
 20
128.6412815578072
 30
0
 11
195.6286640185402
 21
93.2522177717738
 31
0
  0
LINE
  8
1
 62
7
  6
DASHED
 10
154.5827459830144
 20
122.9844273083148
 30
0
 11
189.9718097690479
 21
87.59536352228143
 31
0
  0
LINE
  8
1
 62
7
  6
DASHED
 10
154.5827459830146
 20
-40.9700388191064
 30
0
 11
189.971809769048
 21
-5.580975033072969
 31
0
  0
LINE
  8
1
 62
7
  6
DASHED
 10
324.1940663599282
 20
-46.62689306859863
 30
0
 11
288.8050025738947
 21
-11.23782928256521
 31
0
  0
LINE
  8
1
 62
7
  6
DASHED
 10
329.8509206094204
 20
122.984427308315
 30
0
 11
294.4618568233871
 21
87.59536352228157
 31
0
  0
LINE
  8
1
 62
7
  6
DASHED
 10
160.2396002325069
 20
-46.62689306859877
 30
0
 11
195.6286640185404
 21
-11.23782928256534
 31
0
  0
LINE
  8
1
 62
7
  6
DASHED
 10
329.8509206094205
 20
-40.97003881910626
 30
0
 11
294.4618568233872
 21
-5.580975033072841
 31
0
  0
LINE
  8
1
 62
7
  6
DASHED
 10
324.1940663599281
 20
128.6412815578074
 30
0
 11
288.8050025738946
 21
93.25221777177394
 31
0
  0
LINE
  8
1
 62
3
 10
-178.7916849107473
 20
41.0071942446043
 30
0
 11
-170.7916849107473
 21
41.0071942446043
 31
0
  0
LINE
  8
1
 62
3
 10
-433.7916849107473
 20
41.0071942446043
 30
0
 11
-441.7916849107473
 21
41.0071942446043
 31
0
  0
LINE
  8
1
 62
7
 10
-258.7916849107473
 20
238.5071942446043
 30
0
 11
-285.8916849107473
 21
238.5071942446043
 31
0
  0
LINE
  8
1
 62
7
 10
-433.7916849107473
 20
111.0071942446043
 30
0
 11
-322.7916849107473
 21
111.0071942446043
 31
0
  0
LINE
  8
1
 62
7
 10
-298.7916849107473
 20
111.0071942446043
 30
0
 11
-244.7916849107473
 21
111.0071942446043
 31
0
  0
LINE
  8
1
 62
7
 10
-178.7916849107473
 20
122.0071942446043
 30
0
 11
-433.7916849107473
 21
122.0071942446043
 31
0
  0
LINE
  8
1
 62
7
 10
-298.7916849107473
 20
-30.99280575539569
 30
0
 11
-298.7916849107473
 21
113.0071942446043
 31
0
  0
LINE
  8
1
 62
7
 10
-322.7916849107473
 20
-30.99280575539569
 30
0
 11
-322.7916849107473
 21
113.0071942446043
 31
0
  0
LINE
  8
1
 62
7
 10
-322.7916849107473
 20
113.0071942446043
 30
0
 11
-298.7916849107473
 21
113.0071942446043
 31
0
  0
LINE
  8
1
 62
7
 10
-417.7916849107473
 20
136.0071942446043
 30
0
 11
-417.7916849107473
 21
215.0071942446043
 31
0
  0
LINE
  8
1
 62
7
 10
-417.7916849107473
 20
215.0071942446043
 30
0
 11
-401.7916849107473
 21
215.0071942446043
 31
0
  0
LINE
  8
1
 62
7
 10
-433.7916849107473
 20
136.0071942446043
 30
0
 11
-409.8916849107473
 21
136.0071942446043
 31
0
  0
LINE
  8
1
 62
7
 10
-405.8916849107473
 20
136.0071942446043
 30
0
 11
-313.8916849107473
 21
136.0071942446043
 31
0
  0
LINE
  8
1
 62
7
 10
-313.8916849107473
 20
141.0071942446043
 30
0
 11
-258.7916849107473
 21
141.0071942446043
 31
0
  0
LINE
  8
1
 62
7
 10
-258.7916849107473
 20
141.0071942446043
 30
0
 11
-258.7916849107473
 21
238.5071942446043
 31
0
  0
LINE
  8
1
 62
7
 10
-310.8916849107473
 20
154.0071942446043
 30
0
 11
-310.8916849107473
 21
174.0071942446043
 31
0
  0
LINE
  8
1
 62
7
 10
-309.8916849107473
 20
175.0071942446043
 30
0
 11
-285.8916849107473
 21
175.0071942446043
 31
0
  0
LINE
  8
1
 62
7
 10
-285.8916849107473
 20
175.0071942446043
 30
0
 11
-285.8916849107473
 21
238.5071942446043
 31
0
  0
LINE
  8
1
 62
7
 10
-278.7916849107473
 20
255.0071942446043
 30
0
 11
-268.7916849107473
 21
245.0071942446043
 31
0
  0
LINE
  8
1
 62
7
 10
-313.8916849107473
 20
136.0071942446043
 30
0
 11
-313.8916849107473
 21
186.0071942446043
 31
0
  0
LINE
  8
1
 62
7
 10
-417.7916849107473
 20
186.0071942446043
 30
0
 11
-410.8916849107473
 21
186.0071942446043
 31
0
  0
LINE
  8
1
 62
7
 10
-405.8916849107473
 20
186.0071942446043
 30
0
 11
-313.8916849107473
 21
186.0071942446043
 31
0
  0
LINE
  8
1
 62
7
 10
-410.8916849107473
 20
190.0071942446043
 30
0
 11
-405.8916849107473
 21
190.0071942446043
 31
0
  0
LINE
  8
1
 62
7
 10
-410.8916849107473
 20
157.3927545894323
 30
0
 11
-410.8916849107473
 21
190.0071942446043
 31
0
  0
LINE
  8
1
 62
7
 10
-405.8916849107473
 20
174.0071942446043
 30
0
 11
-410.8916849107473
 21
174.0071942446043
 31
0
  0
LINE
  8
1
 62
7
 10
-409.8916849107473
 20
133.5071942446043
 30
0
 11
-409.8916849107473
 21
147.5071942446043
 31
0
  0
LINE
  8
1
 62
7
 10
-405.8916849107473
 20
133.5071942446043
 30
0
 11
-409.8916849107473
 21
133.5071942446043
 31
0
  0
LINE
  8
1
 62
7
 10
-405.8916849107473
 20
147.5071942446043
 30
0
 11
-409.8916849107473
 21
147.5071942446043
 31
0
  0
LINE
  8
1
 62
3
 10
-382.8916849107473
 20
144.0071942446043
 30
0
 11
-382.8916849107473
 21
178.0071942446043
 31
0
  0
LINE
  8
1
 62
3
 10
-365.8916849107473
 20
161.0071942446043
 30
0
 11
-399.8916849107473
 21
161.0071942446043
 31
0
  0
LINE
  8
1
 62
7
 10
-405.8916849107473
 20
173.7571942446043
 30
0
 11
-390.7934252253868
 21
173.7571942446043
 31
0
  0
LINE
  8
1
 62
7
 10
-344.7934252253868
 20
173.7571942446043
 30
0
 11
-374.9899445961078
 21
173.7571942446043
 31
0
  0
LINE
  8
1
 62
7
 10
-405.8916849107473
 20
148.2571942446043
 30
0
 11
-390.7934252253868
 21
148.2571942446043
 31
0
  0
LINE
  8
1
 62
3
 10
-336.8916849107473
 20
144.0071942446043
 30
0
 11
-336.8916849107473
 21
178.0071942446043
 31
0
  0
LINE
  8
1
 62
3
 10
-319.8916849107473
 20
161.0071942446043
 30
0
 11
-353.8916849107473
 21
161.0071942446043
 31
0
  0
LINE
  8
1
 62
7
 10
-313.8916849107473
 20
173.7571942446043
 30
0
 11
-328.9899445961078
 21
173.7571942446043
 31
0
  0
LINE
  8
1
 62
7
 10
-374.9899445961078
 20
148.2571942446043
 30
0
 11
-344.7934252253868
 21
148.2571942446043
 31
0
  0
LINE
  8
1
 62
7
 10
-313.8916849107473
 20
148.2571942446043
 30
0
 11
-328.9899445961078
 21
148.2571942446043
 31
0
  0
LINE
  8
1
 62
7
 10
-268.7916849107473
 20
239.5071942446043
 30
0
 11
-268.7916849107473
 21
245.0071942446043
 31
0
  0
LINE
  8
1
 62
7
 10
-287.8916849107473
 20
176.0071942446043
 30
0
 11
-287.8916849107473
 21
239.5071942446043
 31
0
  0
LINE
  8
1
 62
7
 10
-313.8916849107473
 20
176.0071942446043
 30
0
 11
-287.8916849107473
 21
176.0071942446043
 31
0
  0
LINE
  8
1
 62
7
 10
-401.7916849107473
 20
255.0071942446043
 30
0
 11
-278.7916849107473
 21
255.0071942446043
 31
0
  0
LINE
  8
1
 62
7
 10
-258.7916849107473
 20
164.2071942446044
 30
0
 11
-192.7916849107473
 21
164.2071942446043
 31
0
  0
LINE
  8
1
 62
7
 10
-258.7916849107473
 20
158.0071942446043
 30
0
 11
-187.7916849107473
 21
158.0071942446043
 31
0
  0
LINE
  8
1
 62
7
 10
-258.7916849107473
 20
261.0071942446043
 30
0
 11
-258.7916849107473
 21
238.5071942446043
 31
0
  0
LINE
  8
1
 62
7
 10
-205.7916849107473
 20
261.0071942446043
 30
0
 11
-258.7916849107473
 21
261.0071942446043
 31
0
  0
LINE
  8
1
 62
7
 10
-258.7916849107473
 20
158.0071942446043
 30
0
 11
-205.7916849107473
 21
261.0071942446043
 31
0
  0
LINE
  8
1
 62
7
 10
-205.7916849107473
 20
158.0071942446043
 30
0
 11
-258.7916849107473
 21
261.0071942446043
 31
0
  0
LINE
  8
1
 62
7
 10
-193.7916849107473
 20
238.5071942446043
 30
0
 11
-205.7916849107473
 21
238.5071942446043
 31
0
  0
LINE
  8
1
 62
7
 10
-183.7916849107473
 20
163.7803834180993
 30
0
 11
-183.7916849107473
 21
228.5071942446043
 31
0
  0
LINE
  8
1
 62
7
 10
-190.7916849107473
 20
177.0071942446043
 30
0
 11
-186.7916849107473
 21
177.0071942446043
 31
0
  0
LINE
  8
1
 62
7
 10
-192.7916849107473
 20
158.0071942446043
 30
0
 11
-192.7916849107473
 21
175.0071942446043
 31
0
  0
LINE
  8
1
 62
7
 10
-193.7916849107473
 20
238.5071942446043
 30
0
 11
-183.7916849107473
 21
228.5071942446043
 31
0
  0
LINE
  8
1
 62
7
 10
-183.7916849107473
 20
180.0071942446043
 30
0
 11
-186.7916849107473
 21
177.0071942446043
 31
0
  0
LINE
  8
1
 62
7
 10
-186.7916849107473
 20
163.7803834180993
 30
0
 11
-186.7916849107473
 21
177.0071942446043
 31
0
  0
LINE
  8
1
 62
7
 10
-187.7916849107473
 20
172.0071942446043
 30
0
 11
-187.7916849107473
 21
158.0071942446043
 31
0
  0
LINE
  8
1
 62
7
 10
-178.7916849107473
 20
161.0071942446043
 30
0
 11
-187.7916849107473
 21
161.0071942446043
 31
0
  0
LINE
  8
1
 62
7
 10
-178.7916849107473
 20
-78.99280575539569
 30
0
 11
-178.7916849107473
 21
161.0071942446043
 31
0
  0
LINE
  8
1
 62
7
 10
-244.7916849107473
 20
-30.99280575539569
 30
0
 11
-244.7916849107473
 21
113.0071942446043
 31
0
  0
LINE
  8
1
 62
7
 10
-220.7916849107473
 20
-30.99280575539569
 30
0
 11
-220.7916849107473
 21
113.0071942446043
 31
0
  0
LINE
  8
1
 62
7
 10
-244.7916849107473
 20
113.0071942446043
 30
0
 11
-220.7916849107473
 21
113.0071942446043
 31
0
  0
LINE
  8
1
 62
7
 10
-178.7916849107473
 20
111.0071942446043
 30
0
 11
-220.7916849107473
 21
111.0071942446043
 31
0
  0
LINE
  8
1
 62
7
 10
-310.8916849107473
 20
174.0071942446043
 30
0
 11
-309.8916849107473
 21
175.0071942446043
 31
0
  0
LINE
  8
1
 62
7
 10
-192.7916849107473
 20
172.0071942446043
 30
0
 11
-187.7916849107473
 21
172.0071942446043
 31
0
  0
LINE
  8
1
 62
7
 10
-433.7916849107473
 20
136.0071942446043
 30
0
 11
-433.7916849107473
 21
-53.99280575539569
 31
0
  0
LINE
  8
1
 62
7
 10
-405.8916849107473
 20
190.0071942446043
 30
0
 11
-405.8916849107473
 21
133.5071942446043
 31
0
  0
LINE
  8
1
 62
7
 10
-359.8916849107473
 20
186.0071942446043
 30
0
 11
-359.8916849107473
 21
136.0071942446043
 31
0
  0
LINE
  8
1
 62
7
 10
-205.7916849107473
 20
158.0071942446043
 30
0
 11
-205.7916849107473
 21
261.0071942446043
 31
0
  0
LINE
  8
1
 62
3
  6
DASHDOT
 10
-310.7916849107473
 20
-56.99280575539569
 30
0
 11
-310.7916849107473
 21
-27.99280575539569
 31
0
  0
LINE
  8
1
 62
7
 10
-307.7916849107473
 20
-30.99280575539569
 30
0
 11
-307.7916849107473
 21
-53.99280575539569
 31
0
  0
LINE
  8
1
 62
7
 10
-313.7916849107473
 20
-53.99280575539569
 30
0
 11
-313.7916849107473
 21
-30.99280575539569
 31
0
  0
LINE
  8
1
 62
3
  6
DASHDOT
 10
-232.7916849107473
 20
-78.99280575539569
 30
0
 11
-232.7916849107473
 21
-27.99280575539569
 31
0
  0
LINE
  8
1
 62
7
 10
-228.7916849107473
 20
-30.99280575539569
 30
0
 11
-228.7916849107473
 21
-75.99280575539569
 31
0
  0
LINE
  8
1
 62
7
 10
-236.7916849107473
 20
-75.99280575539569
 30
0
 11
-236.7916849107473
 21
-30.99280575539569
 31
0
  0
LINE
  8
1
 62
7
 10
-285.8916849107473
 20
-156.4928057553957
 30
0
 11
-258.7916849107473
 21
-156.4928057553957
 31
0
  0
LINE
  8
1
 62
7
 10
-322.7916849107473
 20
-28.9928057553957
 30
0
 11
-433.7916849107473
 21
-28.99280575539569
 31
0
  0
LINE
  8
1
 62
7
 10
-244.7916849107473
 20
-28.9928057553957
 30
0
 11
-298.7916849107473
 21
-28.9928057553957
 31
0
  0
LINE
  8
1
 62
7
 10
-298.7916849107473
 20
-30.99280575539569
 30
0
 11
-322.7916849107473
 21
-30.99280575539569
 31
0
  0
LINE
  8
1
 62
7
 10
-417.7916849107473
 20
-132.9928057553957
 30
0
 11
-417.7916849107473
 21
-53.99280575539569
 31
0
  0
LINE
  8
1
 62
7
 10
-401.7916849107473
 20
-132.9928057553957
 30
0
 11
-417.7916849107473
 21
-132.9928057553957
 31
0
  0
LINE
  8
1
 62
7
 10
-409.8916849107473
 20
-53.99280575539569
 30
0
 11
-433.7916849107473
 21
-53.99280575539569
 31
0
  0
LINE
  8
1
 62
7
 10
-307.7916849107473
 20
-53.99280575539569
 30
0
 11
-405.8916849107473
 21
-53.99280575539569
 31
0
  0
LINE
  8
1
 62
7
 10
-307.7916849107473
 20
-53.99280575539569
 30
0
 11
-307.7916849107473
 21
-58.99280575539569
 31
0
  0
LINE
  8
1
 62
7
 10
-258.7916849107473
 20
-58.99280575539569
 30
0
 11
-313.8916849107473
 21
-58.99280575539569
 31
0
  0
LINE
  8
1
 62
7
 10
-258.7916849107473
 20
-156.4928057553957
 30
0
 11
-258.7916849107473
 21
-58.99280575539569
 31
0
  0
LINE
  8
1
 62
7
 10
-310.8916849107473
 20
-91.99280575539569
 30
0
 11
-310.8916849107473
 21
-71.99280575539569
 31
0
  0
LINE
  8
1
 62
7
 10
-285.8916849107473
 20
-92.99280575539567
 30
0
 11
-309.8916849107473
 21
-92.99280575539569
 31
0
  0
LINE
  8
1
 62
7
 10
-285.8916849107473
 20
-156.4928057553957
 30
0
 11
-285.8916849107473
 21
-92.99280575539567
 31
0
  0
LINE
  8
1
 62
7
 10
-268.7916849107473
 20
-162.9928057553957
 30
0
 11
-278.7916849107473
 21
-172.9928057553957
 31
0
  0
LINE
  8
1
 62
7
 10
-313.8916849107473
 20
-103.9928057553957
 30
0
 11
-313.8916849107473
 21
-53.99280575539569
 31
0
  0
LINE
  8
1
 62
7
 10
-410.8916849107473
 20
-103.9928057553957
 30
0
 11
-417.7916849107473
 21
-103.9928057553957
 31
0
  0
LINE
  8
1
 62
7
 10
-313.8916849107473
 20
-103.9928057553957
 30
0
 11
-405.8916849107473
 21
-103.9928057553957
 31
0
  0
LINE
  8
1
 62
7
 10
-405.8916849107473
 20
-107.9928057553957
 30
0
 11
-410.8916849107473
 21
-107.9928057553957
 31
0
  0
LINE
  8
1
 62
7
 10
-410.8916849107473
 20
-107.9928057553957
 30
0
 11
-410.8916849107473
 21
-75.37836610022373
 31
0
  0
LINE
  8
1
 62
7
 10
-410.8916849107473
 20
-91.99280575539569
 30
0
 11
-405.8916849107473
 21
-91.99280575539569
 31
0
  0
LINE
  8
1
 62
7
 10
-409.8916849107473
 20
-65.49280575539569
 30
0
 11
-409.8916849107473
 21
-51.49280575539569
 31
0
  0
LINE
  8
1
 62
7
 10
-409.8916849107473
 20
-51.49280575539569
 30
0
 11
-405.8916849107473
 21
-51.49280575539569
 31
0
  0
LINE
  8
1
 62
7
 10
-409.8916849107473
 20
-65.49280575539569
 30
0
 11
-405.8916849107473
 21
-65.49280575539569
 31
0
  0
LINE
  8
1
 62
3
 10
-382.8916849107473
 20
-95.99280575539569
 30
0
 11
-382.8916849107473
 21
-61.99280575539569
 31
0
  0
LINE
  8
1
 62
3
 10
-399.8916849107473
 20
-78.99280575539569
 30
0
 11
-365.8916849107473
 21
-78.99280575539569
 31
0
  0
LINE
  8
1
 62
7
 10
-390.7934252253868
 20
-91.74280575539569
 30
0
 11
-405.8916849107473
 21
-91.74280575539569
 31
0
  0
LINE
  8
1
 62
7
 10
-374.9899445961078
 20
-91.74280575539569
 30
0
 11
-344.7934252253868
 21
-91.74280575539569
 31
0
  0
LINE
  8
1
 62
7
 10
-390.7934252253868
 20
-66.24280575539569
 30
0
 11
-405.8916849107473
 21
-66.24280575539569
 31
0
  0
LINE
  8
1
 62
3
 10
-336.8916849107473
 20
-95.99280575539569
 30
0
 11
-336.8916849107473
 21
-61.99280575539569
 31
0
  0
LINE
  8
1
 62
3
 10
-353.8916849107473
 20
-78.99280575539569
 30
0
 11
-319.8916849107473
 21
-78.99280575539569
 31
0
  0
LINE
  8
1
 62
7
 10
-328.9899445961078
 20
-91.74280575539569
 30
0
 11
-313.8916849107473
 21
-91.74280575539569
 31
0
  0
LINE
  8
1
 62
7
 10
-344.7934252253868
 20
-66.24280575539569
 30
0
 11
-374.9899445961078
 21
-66.24280575539569
 31
0
  0
LINE
  8
1
 62
7
 10
-328.9899445961078
 20
-66.24280575539569
 30
0
 11
-313.8916849107473
 21
-66.24280575539569
 31
0
  0
LINE
  8
1
 62
7
 10
-268.7916849107473
 20
-162.9928057553957
 30
0
 11
-268.7916849107473
 21
-157.4928057553957
 31
0
  0
LINE
  8
1
 62
7
 10
-287.8916849107473
 20
-157.4928057553957
 30
0
 11
-287.8916849107473
 21
-93.99280575539569
 31
0
  0
LINE
  8
1
 62
7
 10
-287.8916849107473
 20
-93.99280575539569
 30
0
 11
-313.8916849107473
 21
-93.99280575539569
 31
0
  0
LINE
  8
1
 62
7
 10
-268.7916849107473
 20
-157.4928057553957
 30
0
 11
-287.8916849107473
 21
-157.4928057553957
 31
0
  0
LINE
  8
1
 62
7
 10
-278.7916849107473
 20
-172.9928057553957
 30
0
 11
-401.7916849107473
 21
-172.9928057553957
 31
0
  0
LINE
  8
1
 62
7
 10
-192.7916849107473
 20
-82.19280575539568
 30
0
 11
-258.7916849107473
 21
-82.19280575539574
 31
0
  0
LINE
  8
1
 62
7
 10
-187.7916849107473
 20
-75.99280575539569
 30
0
 11
-258.7916849107473
 21
-75.99280575539569
 31
0
  0
LINE
  8
1
 62
7
 10
-258.7916849107473
 20
-156.4928057553957
 30
0
 11
-258.7916849107473
 21
-178.9928057553957
 31
0
  0
LINE
  8
1
 62
7
 10
-258.7916849107473
 20
-178.9928057553957
 30
0
 11
-205.7916849107473
 21
-178.9928057553957
 31
0
  0
LINE
  8
1
 62
7
 10
-205.7916849107473
 20
-178.9928057553957
 30
0
 11
-258.7916849107473
 21
-75.99280575539569
 31
0
  0
LINE
  8
1
 62
7
 10
-258.7916849107473
 20
-178.9928057553957
 30
0
 11
-205.7916849107473
 21
-75.99280575539569
 31
0
  0
LINE
  8
1
 62
7
 10
-205.7916849107473
 20
-156.4928057553957
 30
0
 11
-193.7916849107473
 21
-156.4928057553957
 31
0
  0
LINE
  8
1
 62
7
 10
-183.7916849107473
 20
-146.4928057553957
 30
0
 11
-183.7916849107473
 21
-81.76599492889068
 31
0
  0
LINE
  8
1
 62
7
 10
-186.7916849107473
 20
-94.99280575539569
 30
0
 11
-190.7916849107473
 21
-94.99280575539569
 31
0
  0
LINE
  8
1
 62
7
 10
-192.7916849107473
 20
-92.99280575539569
 30
0
 11
-192.7916849107473
 21
-75.99280575539569
 31
0
  0
LINE
  8
1
 62
7
 10
-183.7916849107473
 20
-146.4928057553957
 30
0
 11
-193.7916849107473
 21
-156.4928057553957
 31
0
  0
LINE
  8
1
 62
7
 10
-186.7916849107473
 20
-94.99280575539569
 30
0
 11
-183.7916849107473
 21
-97.99280575539569
 31
0
  0
LINE
  8
1
 62
7
 10
-186.7916849107473
 20
-94.99280575539569
 30
0
 11
-186.7916849107473
 21
-81.76599492889068
 31
0
  0
LINE
  8
1
 62
7
 10
-187.7916849107473
 20
-75.99280575539569
 30
0
 11
-187.7916849107473
 21
-89.99280575539569
 31
0
  0
LINE
  8
1
 62
7
 10
-187.7916849107473
 20
-78.99280575539569
 30
0
 11
-178.7916849107473
 21
-78.99280575539569
 31
0
  0
LINE
  8
1
 62
7
 10
-220.7916849107473
 20
-30.99280575539569
 30
0
 11
-244.7916849107473
 21
-30.99280575539569
 31
0
  0
LINE
  8
1
 62
7
 10
-220.7916849107473
 20
-28.99280575539569
 30
0
 11
-178.7916849107473
 21
-28.99280575539569
 31
0
  0
LINE
  8
1
 62
7
 10
-309.8916849107473
 20
-92.99280575539569
 30
0
 11
-310.8916849107473
 21
-91.99280575539569
 31
0
  0
LINE
  8
1
 62
7
 10
-187.7916849107473
 20
-89.99280575539569
 30
0
 11
-192.7916849107473
 21
-89.99280575539569
 31
0
  0
LINE
  8
1
 62
7
 10
-405.8916849107473
 20
-51.49280575539569
 30
0
 11
-405.8916849107473
 21
-107.9928057553957
 31
0
  0
LINE
  8
1
 62
7
 10
-359.8916849107473
 20
-53.99280575539569
 30
0
 11
-359.8916849107473
 21
-103.9928057553957
 31
0
  0
LINE
  8
1
 62
7
 10
-205.7916849107473
 20
-178.9928057553957
 30
0
 11
-205.7916849107473
 21
-75.99280575539569
 31
0
  0
LINE
  8
1
 62
7
 10
-401.7916849107473
 20
-132.9928057553957
 30
0
 11
-401.7916849107473
 21
-172.9928057553957
 31
0
  0
LINE
  8
1
 62
7
 10
-409.9616849107474
 20
311.0071942446042
 30
0
 11
-401.7916849107473
 21
311.0071942446042
 31
0
  0
LINE
  8
1
 62
7
 10
-406.9616849107474
 20
233.6921942446043
 30
0
 11
-401.7916849107473
 21
233.6921942446043
 31
0
  0
LINE
  8
1
 62
7
 10
-406.9616849107474
 20
236.3221942446043
 30
0
 11
-401.7916849107473
 21
236.3221942446043
 31
0
  0
LINE
  8
1
 62
7
 10
-416.7916849107473
 20
218.0071942446043
 30
0
 11
-401.7916849107473
 21
218.0071942446043
 31
0
  0
LINE
  8
1
 62
7
 10
-413.5916849107473
 20
311.0071942446042
 30
0
 11
-413.5916849107473
 21
218.0071942446043
 31
0
  0
LINE
  8
1
 62
7
 10
-416.7916849107473
 20
311.0071942446042
 30
0
 11
-412.5916849107473
 21
311.0071942446042
 31
0
  0
LINE
  8
1
 62
7
 10
-416.7916849107473
 20
311.0071942446042
 30
0
 11
-416.7916849107473
 21
218.0071942446043
 31
0
  0
LINE
  8
1
 62
7
 10
-409.9616849107474
 20
335.8913534496143
 30
0
 11
-409.9616849107474
 21
239.3221942446043
 31
0
  0
LINE
  8
1
 62
7
 10
-412.5916849107473
 20
335.8913534496143
 30
0
 11
-412.5916849107473
 21
239.3221942446043
 31
0
  0
LINE
  8
1
 62
7
 10
-411.6294218204305
 20
340.8913534496143
 30
0
 11
-411.6294218204305
 21
335.8913534496143
 31
0
  0
LINE
  8
1
 62
7
 10
-412.0345509075964
 20
340.8913534496143
 30
0
 11
-412.0345509075964
 21
335.8913534496143
 31
0
  0
LINE
  8
1
 62
7
 10
-410.8915081259495
 20
340.8913534496143
 30
0
 11
-410.8915081259495
 21
335.8913534496143
 31
0
  0
LINE
  8
1
 62
7
 10
-410.5153168307245
 20
340.8913534496143
 30
0
 11
-410.5153168307245
 21
335.8913534496143
 31
0
  0
LINE
  8
1
 62
7
 10
-412.5916849107473
 20
335.8913534496143
 30
0
 11
-409.9616849107474
 21
335.8913534496143
 31
0
  0
LINE
  8
1
 62
7
 10
-411.2766849107475
 20
340.8913534496143
 30
0
 11
-411.2766849107475
 21
335.8913534496143
 31
0
  0
LINE
  8
1
 62
7
 10
-401.7916849107473
 20
311.0071942446042
 30
0
 11
-401.7916849107473
 21
215.0071942446043
 31
0
  0
LINE
  8
1
 62
7
 10
-856.7916849107473
 20
-132.9928057553957
 30
0
 11
-872.7916849107473
 21
-132.9928057553957
 31
0
  0
LINE
  8
1
 62
7
 10
-872.7916849107473
 20
-132.287074191785
 30
0
 11
-872.7916849107473
 21
215.0071942446043
 31
0
  0
LINE
  8
1
 62
7
 10
-872.7916849107473
 20
-53.99280575539569
 30
0
 11
-888.7916849107473
 21
-53.99280575539569
 31
0
  0
LINE
  8
1
 62
7
 10
-888.7916849107473
 20
136.0071942446043
 30
0
 11
-888.7916849107473
 21
-53.99280575539569
 31
0
  0
LINE
  8
1
 62
7
 10
-856.7916849107473
 20
255.0071942446042
 30
0
 11
-856.7916849107473
 21
-172.9928057553956
 31
0
  0
LINE
  8
1
 62
7
 10
-723.7916849107473
 20
-156.4928057553957
 30
0
 11
-713.7916849107473
 21
-156.4928057553957
 31
0
  0
LINE
  8
1
 62
7
 10
-713.7916849107473
 20
-178.9928057553957
 30
0
 11
-713.7916849107473
 21
261.0071942446043
 31
0
  0
LINE
  8
1
 62
7
 10
-660.7916849107473
 20
-178.9928057553957
 30
0
 11
-660.7916849107473
 21
261.0071942446043
 31
0
  0
LINE
  8
1
 62
7
 10
-713.7916849107473
 20
-178.9928057553957
 30
0
 11
-660.7916849107473
 21
-178.9928057553957
 31
0
  0
LINE
  8
1
 62
7
 10
-713.7916849107473
 20
-178.9928057553957
 30
0
 11
-660.7916849107473
 21
41.00719424460431
 31
0
  0
LINE
  8
1
 62
7
 10
-713.7916849107473
 20
41.00719424460431
 30
0
 11
-660.7916849107473
 21
-178.9928057553957
 31
0
  0
LINE
  8
1
 62
7
 10
-660.7916849107473
 20
-156.4928057553957
 30
0
 11
-648.7916849107473
 21
-156.4928057553957
 31
0
  0
LINE
  8
1
 62
7
 10
-638.7916849107473
 20
-146.4928057553957
 30
0
 11
-648.7916849107473
 21
-156.4928057553957
 31
0
  0
LINE
  8
1
 62
7
 10
-638.7916849107473
 20
-146.4928057553957
 30
0
 11
-638.7916849107473
 21
228.5071942446043
 31
0
  0
LINE
  8
1
 62
7
 10
-648.7916849107473
 20
238.5071942446043
 30
0
 11
-648.7916849107473
 21
-156.4928057553957
 31
0
  0
LINE
  8
1
 62
7
 10
-633.7916849107473
 20
-78.99280575539569
 30
0
 11
-633.7916849107473
 21
161.0071942446043
 31
0
  0
LINE
  8
1
 62
7
 10
-638.7916849107473
 20
-78.99280575539569
 30
0
 11
-633.7916849107473
 21
-78.99280575539569
 31
0
  0
LINE
  8
1
 62
7
 10
-733.7916849107473
 20
-172.9928057553957
 30
0
 11
-856.7916849107473
 21
-172.9928057553956
 31
0
  0
LINE
  8
1
 62
7
 10
-723.7916849107473
 20
-162.9928057553957
 30
0
 11
-733.7916849107473
 21
-172.9928057553957
 31
0
  0
LINE
  8
1
 62
7
 10
-723.7916849107473
 20
-162.9928057553957
 30
0
 11
-733.7916849107473
 21
-172.9928057553957
 31
0
  0
LINE
  8
1
 62
7
 10
-723.7916849107473
 20
-162.9928057553957
 30
0
 11
-723.7916849107473
 21
245.0071942446043
 31
0
  0
LINE
  8
1
 62
7
 10
-733.7916849107473
 20
255.0071942446043
 30
0
 11
-733.7916849107473
 21
-172.9928057553957
 31
0
  0
LINE
  8
1
 62
7
 10
-872.7916849107473
 20
215.0071942446043
 30
0
 11
-859.9916849107472
 21
215.0071942446043
 31
0
  0
LINE
  8
1
 62
7
 10
-888.7916849107473
 20
136.0071942446043
 30
0
 11
-872.7916849107473
 21
136.0071942446043
 31
0
  0
LINE
  8
1
 62
7
 10
-713.7916849107473
 20
238.5071942446043
 30
0
 11
-723.7916849107473
 21
238.5071942446043
 31
0
  0
LINE
  8
1
 62
7
 10
-660.7916849107473
 20
261.0071942446043
 30
0
 11
-713.7916849107473
 21
261.0071942446043
 31
0
  0
LINE
  8
1
 62
7
 10
-660.7916849107473
 20
41.00719424460431
 30
0
 11
-713.7916849107473
 21
261.0071942446043
 31
0
  0
LINE
  8
1
 62
7
 10
-660.7916849107473
 20
261.0071942446043
 30
0
 11
-713.7916849107473
 21
41.00719424460431
 31
0
  0
LINE
  8
1
 62
7
 10
-648.7916849107473
 20
238.5071942446043
 30
0
 11
-660.7916849107473
 21
238.5071942446043
 31
0
  0
LINE
  8
1
 62
7
 10
-648.7916849107473
 20
238.5071942446043
 30
0
 11
-638.7916849107473
 21
228.5071942446043
 31
0
  0
LINE
  8
1
 62
7
 10
-633.7916849107473
 20
161.0071942446043
 30
0
 11
-638.7916849107473
 21
161.0071942446043
 31
0
  0
LINE
  8
1
 62
7
 10
-856.7916849107473
 20
255.0071942446042
 30
0
 11
-733.7916849107473
 21
255.0071942446043
 31
0
  0
LINE
  8
1
 62
7
 10
-733.7916849107473
 20
255.0071942446043
 30
0
 11
-723.7916849107473
 21
245.0071942446043
 31
0
  0
LINE
  8
1
 62
7
 10
-733.7916849107473
 20
255.0071942446043
 30
0
 11
-723.7916849107473
 21
245.0071942446043
 31
0
  0
LINE
  8
1
 62
7
 10
-859.9916849107472
 20
214.4130287906256
 30
0
 11
-856.791684910746
 21
214.413028790626
 31
0
  0
LINE
  8
1
 62
7
 10
-861.2916849107473
 20
222.4071942446043
 30
0
 11
-861.2916849107473
 21
231.6071942446042
 31
0
  0
LINE
  8
1
 62
7
 10
-859.9916849107472
 20
214.4130287906256
 30
0
 11
-859.9916849107472
 21
239.0071942446042
 31
0
  0
LINE
  8
1
 62
7
 10
-865.9916849107472
 20
222.7571942446043
 30
0
 11
-865.9916849107472
 21
231.2571942446043
 31
0
  0
LINE
  8
1
 62
7
 10
-861.2916849107473
 20
222.7571942446043
 30
0
 11
-865.9916849107472
 21
222.7571942446043
 31
0
  0
LINE
  8
1
 62
7
 10
-865.9916849107472
 20
222.7571942446043
 30
0
 11
-866.2916849107473
 21
223.2768094868749
 31
0
  0
LINE
  8
1
 62
7
 10
-866.2916849107473
 20
223.2768094868749
 30
0
 11
-866.2916849107473
 21
230.7375790023335
 31
0
  0
LINE
  8
1
 62
7
 10
-866.2916849107473
 20
230.7375790023335
 30
0
 11
-865.9916849107472
 21
231.2571942446043
 31
0
  0
LINE
  8
1
 62
7
 10
-865.9916849107472
 20
231.2571942446043
 30
0
 11
-861.2916849107473
 21
231.2571942446043
 31
0
  0
LINE
  8
1
 62
7
 10
-859.9916849107472
 20
222.4071942446043
 30
0
 11
-861.2916849107473
 21
222.4071942446043
 31
0
  0
LINE
  8
1
 62
7
 10
-861.2916849107473
 20
231.6071942446042
 30
0
 11
-859.9916849107472
 21
231.6071942446042
 31
0
  0
LINE
  8
1
 62
7
 10
-861.2916849107473
 20
227.0071942446043
 30
0
 11
-859.9916849107472
 21
225.7071942446042
 31
0
  0
LINE
  8
1
 62
7
 10
-861.2916849107473
 20
228.3071942446043
 30
0
 11
-859.9916849107472
 21
227.0071942446043
 31
0
  0
LINE
  8
1
 62
7
 10
-859.9916849107472
 20
218.0071942446043
 30
0
 11
-871.7916849107473
 21
218.0071942446043
 31
0
  0
LINE
  8
1
 62
7
 10
-856.7916849107473
 20
239.0071942446042
 30
0
 11
-859.9916849107472
 21
239.0071942446042
 31
0
  0
LINE
  8
1
 62
7
 10
-871.7916849107473
 20
218.0071942446043
 30
0
 11
-871.7916849107473
 21
311.0071942446042
 31
0
  0
LINE
  8
1
 62
7
 10
-871.7916849107473
 20
311.0071942446042
 30
0
 11
-856.7916849107473
 21
311.0071942446042
 31
0
  0
LINE
  8
1
 62
7
 10
-856.7916849107473
 20
239.7571942446042
 30
0
 11
-856.7916849107473
 21
311.0071942446042
 31
0
  0
LINE
  8
1
 62
7
 10
-865.9616849107472
 20
311.0071942446042
 30
0
 11
-865.9616849107472
 21
335.8913534496143
 31
0
  0
LINE
  8
1
 62
7
 10
-868.5916849107473
 20
311.0071942446042
 30
0
 11
-868.5916849107473
 21
335.8913534496143
 31
0
  0
LINE
  8
1
 62
7
 10
-867.6294218204303
 20
340.8913534496143
 30
0
 11
-867.6294218204303
 21
335.8913534496143
 31
0
  0
LINE
  8
1
 62
7
 10
-868.0345509075962
 20
340.8913534496143
 30
0
 11
-868.0345509075962
 21
335.8913534496143
 31
0
  0
LINE
  8
1
 62
7
 10
-866.8915081259493
 20
340.8913534496143
 30
0
 11
-866.8915081259493
 21
335.8913534496143
 31
0
  0
LINE
  8
1
 62
7
 10
-866.5153168307243
 20
340.8913534496143
 30
0
 11
-866.5153168307243
 21
335.8913534496143
 31
0
  0
LINE
  8
1
 62
7
 10
-868.5916849107473
 20
335.8913534496143
 30
0
 11
-865.9616849107472
 21
335.8913534496143
 31
0
  0
LINE
  8
1
 62
7
 10
-867.2766849107472
 20
340.8913534496143
 30
0
 11
-867.2766849107472
 21
335.8913534496143
 31
0
  0
ARC
  8
1
 62
7
 10
-1334.966527399973
 20
220.6181505716062
 30
0
 40
5
 50
180
 51
280.9174173158169
  0
ARC
  8
1
 62
7
 10
-1284.966527399973
 20
220.6181505716062
 30
0
 40
5.00000000000011
 50
259.0825826841831
 51
0
  0
ARC
  8
1
 62
7
 10
-1335.966527399973
 20
232.6405236554461
 30
0
 40
3.999999999999811
 50
100.4021210089483
 51
180
  0
ARC
  8
1
 62
7
 10
-1283.966527399973
 20
232.6405236554461
 30
0
 40
4
 50
0
 51
79.5978789910487
  0
ARC
  8
1
 62
7
 10
242.2168332962174
 20
41.0071942446043
 30
0
 40
70
 50
104.4775121859299
 51
75.5224878140701
  0
ARC
  8
1
 62
7
 10
242.2168332962174
 20
41.0071942446043
 30
0
 40
220
 50
141.5249788441438
 51
173.4750211558562
  0
ARC
  8
1
 62
7
 10
242.2168332962174
 20
41.0071942446043
 30
0
 40
220
 50
186.5249788441438
 51
218.4750211558562
  0
ARC
  8
1
 62
7
 10
242.2168332962174
 20
41.0071942446043
 30
0
 40
220.0000000000001
 50
231.5249788441438
 51
263.4750211558562
  0
ARC
  8
1
 62
7
 10
242.2168332962174
 20
41.0071942446043
 30
0
 40
220
 50
276.5249788441438
 51
308.4750211558562
  0
ARC
  8
1
 62
7
 10
242.2168332962174
 20
41.0071942446043
 30
0
 40
220
 50
321.5249788441438
 51
353.4750211558563
  0
ARC
  8
1
 62
7
 10
242.2168332962174
 20
41.0071942446043
 30
0
 40
220
 50
6.524978844143799
 51
38.47502115585619
  0
ARC
  8
1
 62
7
 10
242.2168332962174
 20
41.0071942446043
 30
0
 40
219.9999999999999
 50
51.5249788441438
 51
83.47502115585621
  0
ARC
  8
1
 62
7
 10
242.2168332962174
 20
41.0071942446043
 30
0
 40
220
 50
96.5249788441438
 51
128.4750211558562
  0
ARC
  8
1
 62
7
 10
242.2168332962174
 20
41.0071942446043
 30
0
 40
214.0000000000001
 50
128.2912487993413
 51
141.7087512006587
  0
ARC
  8
1
 62
7
 10
242.2168332962174
 20
41.0071942446043
 30
0
 40
214
 50
173.2912487993413
 51
186.7087512006587
  0
ARC
  8
1
 62
7
 10
242.2168332962174
 20
41.0071942446043
 30
0
 40
214
 50
218.2912487993413
 51
231.7087512006587
  0
ARC
  8
1
 62
7
 10
242.2168332962174
 20
41.0071942446043
 30
0
 40
214.0000000000001
 50
263.2912487993414
 51
276.7087512006586
  0
ARC
  8
1
 62
7
 10
242.2168332962174
 20
41.0071942446043
 30
0
 40
214
 50
308.2912487993413
 51
321.7087512006586
  0
ARC
  8
1
 62
7
 10
242.2168332962174
 20
41.0071942446043
 30
0
 40
214.0000000000001
 50
353.2912487993414
 51
6.708751200658671
  0
ARC
  8
1
 62
7
 10
242.2168332962174
 20
41.0071942446043
 30
0
 40
214
 50
38.29124879934133
 51
51.70875120065873
  0
ARC
  8
1
 62
7
 10
242.2168332962174
 20
41.0071942446043
 30
0
 40
213.9999999999999
 50
83.29124879934135
 51
96.70875120065868
  0
ARC
  8
1
 62
7
 10
-1309.966527399973
 20
41.0071942446043
 30
0
 40
70
 50
104.4775121859299
 51
75.52248781407008
  0
ARC
  8
1
 62
7
 10
-1309.966527399973
 20
41.0071942446043
 30
0
 40
220
 50
96.5249788441438
 51
128.4750211558561
  0
ARC
  8
1
 62
7
 10
-1309.966527399973
 20
41.0071942446043
 30
0
 40
219.9999999999999
 50
141.5249788441438
 51
173.4750211558562
  0
ARC
  8
1
 62
7
 10
-1309.966527399973
 20
41.0071942446043
 30
0
 40
220.0000000000001
 50
186.5249788441438
 51
218.4750211558562
  0
ARC
  8
1
 62
7
 10
-1309.966527399973
 20
41.0071942446043
 30
0
 40
219.9999999999996
 50
231.5249788441439
 51
263.4750211558562
  0
ARC
  8
1
 62
7
 10
-1309.966527399973
 20
41.0071942446043
 30
0
 40
220
 50
276.5249788441438
 51
308.4750211558563
  0
ARC
  8
1
 62
7
 10
-1309.966527399973
 20
41.0071942446043
 30
0
 40
220.0000000000001
 50
321.5249788441439
 51
353.4750211558563
  0
ARC
  8
1
 62
7
 10
-1309.966527399973
 20
41.0071942446043
 30
0
 40
220
 50
6.524978844143766
 51
38.47502115585617
  0
ARC
  8
1
 62
7
 10
-1309.966527399973
 20
41.0071942446043
 30
0
 40
220.0000000000003
 50
51.52497884414369
 51
83.47502115585621
  0
ARC
  8
1
 62
7
 10
-1309.966527399973
 20
91.00719424460431
 30
0
 40
147.9999999999999
 50
97.18075578145829
 51
100.4021210089518
  0
ARC
  8
1
 62
7
 10
-1309.966527399973
 20
91.00719424460431
 30
0
 40
148
 50
79.59787899104816
 51
82.81924421854173
  0
ARC
  8
1
 62
7
 10
-1309.966527399973
 20
91.00719424460431
 30
0
 40
126.9999999999999
 50
79.08258268418622
 51
100.9174173158138
  0
ARC
  8
1
 62
7
 10
-1328.519015688656
 20
244.2469958203505
 30
0
 40
6.385003960923388
 50
271.6142459321608
 51
303.8058161252537
  0
ARC
  8
1
 62
7
 10
-1291.41403911129
 20
244.2469958203505
 30
0
 40
6.385003960923237
 50
236.1941838747459
 51
268.3857540678392
  0
ARC
  8
1
 62
7
 10
-1309.966527399973
 20
41.0071942446043
 30
0
 40
214
 50
94.01935514899581
 51
85.98064485100417
  0
ARC
  8
1
 62
7
 10
-1309.966527399973
 20
41.0071942446043
 30
0
 40
211
 50
94.07659832586707
 51
85.92340167413293
  0
ARC
  8
1
 62
7
 10
-1309.966527399973
 20
41.0071942446043
 30
0
 40
202
 50
94.25855695570232
 51
85.7414430442977
  0
ARC
  8
1
 62
7
 10
-1309.966527399973
 20
41.0071942446043
 30
0
 40
200
 50
94.30122230467036
 51
85.69877769532963
  0
ARC
  8
1
 62
7
 10
-406.9616849107474
 20
239.3221942446042
 30
0
 40
5.629999999999882
 50
180
 51
270
  0
ARC
  8
1
 62
7
 10
-406.9616849107474
 20
239.3221942446042
 30
0
 40
3
 50
180
 51
270
  0
CIRCLE
  8
1
 62
7
 10
242.2168332962174
 20
41.0071942446043
 30
0
 40
120
  0
CIRCLE
  8
1
 62
7
 10
242.2168332962174
 20
41.0071942446043
 30
0
 40
136
  0
CIRCLE
  8
1
 62
7
 10
242.2168332962174
 20
41.0071942446043
 30
0
 40
139
  0
CIRCLE
  8
1
 62
7
 10
242.2168332962174
 20
41.0071942446043
 30
0
 40
187.5
  0
CIRCLE
  8
1
 62
7
 10
242.2168332962174
 20
41.0071942446043
 30
0
 40
197.5
  0
CIRCLE
  8
1
 62
7
 10
-1287.966527399973
 20
227.0071942446043
 30
0
 40
4.25
  0
CIRCLE
  8
1
 62
7
 10
-1331.966527399973
 20
227.0071942446043
 30
0
 40
4.25
  0
CIRCLE
  8
1
 62
7
 10
-1309.966527399973
 20
41.0071942446043
 30
0
 40
145
  0
CIRCLE
  8
1
 62
7
 10
-1309.966527399973
 20
41.0071942446043
 30
0
 40
174
  0
CIRCLE
  8
1
 62
7
 10
-1309.966527399973
 20
41.0071942446043
 30
0
 40
95
  0
CIRCLE
  8
1
 62
7
 10
-382.8916849107473
 20
161.0071942446043
 30
0
 40
15
  0
CIRCLE
  8
1
 62
7
 10
-336.8916849107473
 20
161.0071942446043
 30
0
 40
15
  0
CIRCLE
  8
1
 62
7
 10
-382.8916849107473
 20
-78.99280575539569
 30
0
 40
15
  0
CIRCLE
  8
1
 62
7
 10
-336.8916849107473
 20
-78.99280575539569
 30
0
 40
15
  0
ARC
  8
1
 62
7
 10
-190.7916849107473
 20
175.0071942446043
 30
0
 40
2
 50
90
 51
180
  0
ARC
  8
1
 62
7
 10
-313.8916849107473
 20
154.0071942446043
 30
0
 40
3
 50
270
 51
0
  0
ARC
  8
1
 62
7
 10
-190.7916849107473
 20
-92.99280575539569
 30
0
 40
2
 50
180
 51
270
  0
ARC
  8
1
 62
7
 10
-313.8916849107473
 20
-71.99280575539569
 30
0
 40
3
 50
0
 51
90
  0
TEXT
  8
1
 62
7
 10
-1461.80184669184
 20
436.522630631888
 30
0
 40
24
  1
DC4332
 41
0.9
  7
SIMPLEX
  0
TEXT
  8
1
 62
7
 10
-1457.37212765425
 20
482.026647263418
 30
0
 40
24
  1
MWC 600
 41
0.9
  7
SIMPLEX
  0
ENDSEC
  0
EOF
