  0
SECTION
  2
HEADER
  9
$ACADVER
  1
AC1009
  9
$INSBASE
 10
0
 20
0
  9
$EXTMIN
 10
-224.9981927293974
 20
-41
  9
$EXTMAX
 10
3
 20
67.3082686526559
  9
$LIMMIN
 10
-224.9981927293974
 20
-41
  9
$LIMMAX
 10
3
 20
67.3082686526559
  9
$VIEWCTR
 10
10
 20
10
  9
$VIEWSIZE
 40
10
  9
$SNAPMODE
 70
0
  9
$SNAPUNIT
 10
1
 20
1
  9
$SNAPBASE
 10
0
 20
0
  9
$SNAPANG
 50
0
  9
$SNAPSTYLE
 70
0
  9
$SNAPISOPAIR
 70
0
  9
$GRIDMODE
 70
0
  9
$GRIDUNIT
 10
0
 20
0
  9
$ORTHOMODE
 70
0
  9
$REGENMODE
 70
1
  9
$FILLMODE
 70
1
  9
$QTEXTMODE
 70
0
  9
$DRAGMODE
 70
2
  9
$LTSCALE
 40
1
  9
$OSMODE
 70
0
  9
$ATTMODE
 70
1
  9
$TEXTSIZE
 40
3.5
  9
$TRACEWID
 40
0.5
  9
$TEXTSTYLE
  7
STANDARD
  9
$CLAYER
  8
0
  9
$CELTYPE
  6
BYLAYER
  9
$CECOLOR
 62
256
  9
$DIMSCALE
 40
1
  9
$DIMASZ
 40
0.18
  9
$DIMEXO
 40
0.0625
  9
$DIMDLI
 40
0.38
  9
$DIMRND
 40
0
  9
$DIMDLE
 40
0
  9
$DIMEXE
 40
0.18
  9
$DIMTP
 40
0
  9
$DIMTM
 40
0
  9
$DIMTXT
 40
0.18
  9
$DIMCEN
 40
0.09
  9
$DIMTSZ
 40
0
  9
$DIMTOL
 70
0
  9
$DIMLIM
 70
0
  9
$DIMTIH
 70
1
  9
$DIMTOH
 70
1
  9
$DIMSE1
 70
0
  9
$DIMSE2
 70
0
  9
$DIMTAD
 70
0
  9
$DIMZIN
 70
0
  9
$DIMBLK
  1

  9
$DIMASO
 70
1
  9
$DIMSHO
 70
1
  9
$DIMPOST
  1

  9
$DIMAPOST
  1

  9
$DIMALT
 70
0
  9
$DIMALTD
 70
2
  9
$DIMALTF
 40
25.4
  9
$DIMLFAC
 40
1
  9
$DIMTOFL
 70
0
  9
$DIMTVP
 40
0
  9
$DIMTIX
 70
0
  9
$DIMSOXD
 70
0
  9
$DIMSAH
 70
0
  9
$DIMBLK1
  1

  9
$DIMBLK2
  1

  9
$DIMSTYLE
  2
*UNNAMED
  9
$DIMCLRD
 70
0
  9
$DIMCLRE
 70
0
  9
$DIMCLRT
 70
0
  9
$DIMTFAC
 40
1
  9
$DIMGAP
 40
0.09
  9
$LUNITS
 70
2
  9
$LUPREC
 70
4
  9
$AXISMODE
 70
0
  9
$AXISUNIT
 10
0
 20
0
  9
$SKETCHINC
 40
0.1
  9
$FILLETRAD
 40
2
  9
$AUNITS
 70
0
  9
$AUPREC
 70
0
  9
$MENU
  1
ACAD
  9
$ELEVATION
 40
0
  9
$THICKNESS
 40
0
  9
$VIEWDIR
 10
0
 20
0
 30
1
  9
$LIMCHECK
 70
0
  9
$BLIPMODE
 70
1
  9
$CHAMFERA
 40
0
  9
$CHAMFERB
 40
0
  9
$FASTZOOM
 70
1
  9
$SKPOLY
 70
0
  9
$ANGBASE
 50
0
  9
$ANGDIR
 70
0
  9
$PDMODE
 70
0
  9
$PDSIZE
 40
0
  9
$PLINEWID
 40
0
  9
$COORDS
 70
2
  0
ENDSEC
  0
SECTION
  2
TABLES
  0
TABLE
  2
DIMSTYLE
 70
0
  0
ENDTAB
  0
TABLE
  2
LTYPE
 70
9
  0
LTYPE
  2
CONTINUOUS
 70
64
  3
Solid line
 72
65
 73
0
 40
0
  0
LTYPE
  2
BORDER
 70
64
  3
__ __ . __ __ .
 72
65
 73
6
 40
10.49991677043278
 49
2.99997622012365
 49
-1.499988110061825
 49
2.99997622012365
 49
-1.499988110061825
 49
0
 49
-1.499988110061825
  0
LTYPE
  2
CENTER
 70
64
  3
____ _ ____ _
 72
65
 73
4
 40
11.9999048804946
 49
7.499940550309125
 49
-1.499988110061825
 49
1.499988110061825
 49
-1.499988110061825
  0
LTYPE
  2
DASHDOT
 70
64
  3
__ . __ . __ .
 72
65
 73
4
 40
5.9999524402473
 49
2.99997622012365
 49
-1.499988110061825
 49
0
 49
-1.499988110061825
  0
LTYPE
  2
DASHED
 70
64
  3
__ __ __ __ __
 72
65
 73
2
 40
4.499964330185476
 49
2.99997622012365
 49
-1.499988110061825
  0
LTYPE
  2
DIVIDE
 70
64
  3
__ . . __ . . 
 72
65
 73
6
 40
7.499940550309125
 49
2.99997622012365
 49
-1.499988110061825
 49
0
 49
-1.499988110061825
 49
0
 49
-1.499988110061825
  0
LTYPE
  2
DOT
 70
64
  3
..............
 72
65
 73
4
 40
2.99997622012365
 49
0
 49
-1.499988110061825
 49
0
 49
-1.499988110061825
  0
LTYPE
  2
HIDDEN
 70
64
  3
_ _ _ _ _ _ _
 72
65
 73
2
 40
2.249982165092738
 49
1.499988110061825
 49
-0.7499940550309125
  0
LTYPE
  2
PHANTOM
 70
64
  3
_____ _ _ _____ _ _ 
 72
65
 73
6
 40
14.99988110061825
 49
7.499940550309125
 49
-1.499988110061825
 49
1.499988110061825
 49
-1.499988110061825
 49
1.499988110061825
 49
-1.499988110061825
  0
ENDTAB
  0
TABLE
  2
LAYER
 70
3
  0
LAYER
  2
1
 70
0
 62
7
  6
CONTINUOUS
  0
LAYER
  2
0
 70
0
 62
7
  6
CONTINUOUS
  0
ENDTAB
  0
TABLE
  2
STYLE
 70
4
  0
STYLE
  2
STANDARD
 70
0
 40
0
 41
1
 50
0
 71
0
 42
3.5
  3
txt
  4

  0
STYLE
  2
SIMPLEX
 70
0
 40
0
 41
1
 50
0
 71
0
 42
3.5
  3
simplex
  4

  0
STYLE
  2
COMPLEX
 70
0
 40
0
 41
1
 50
0
 71
0
 42
3.5
  3
complex
  4

  0
STYLE
  2
ITALIC
 70
0
 40
0
 41
1
 50
0
 71
0
 42
3.5
  3
italic
  4

  0
ENDTAB
  0
TABLE
  2
VIEW
 70
0
  0
ENDTAB
  0
ENDSEC
  0
SECTION
  2
BLOCKS
  0
ENDSEC
  0
SECTION
  2
ENTITIES
  0
LINE
  8
1
 62
7
 10
-187.9981927293974
 20
40.80441152620628
 30
0
 11
-187.9981927293974
 21
37.28605637500428
 31
0
  0
LINE
  8
1
 62
7
 10
-179.9981927293974
 20
40.80441152620628
 30
0
 11
-179.9981927293974
 21
37.28605637500428
 31
0
  0
LINE
  8
1
 62
7
 10
-221.3358496975666
 20
16.93810414796528
 30
0
 11
-218.2888647570899
 21
15.17892657236439
 31
0
  0
LINE
  8
1
 62
7
 10
-217.3358496975666
 20
23.86630737824089
 30
0
 11
-214.2888647570898
 21
22.10712980263989
 31
0
  0
LINE
  8
1
 62
7
 10
-217.3358496975665
 20
-23.86630737824092
 30
0
 11
-214.2888647570898
 21
-22.10712980263992
 31
0
  0
LINE
  8
1
 62
7
 10
-221.3358496975665
 20
-16.93810414796542
 30
0
 11
-218.2888647570899
 21
-15.17892657236442
 31
0
  0
LINE
  8
1
 62
7
 10
-179.9981927293973
 20
-40.80441152620622
 30
0
 11
-179.9981927293973
 21
-37.28605637500431
 31
0
  0
LINE
  8
1
 62
7
 10
-187.9981927293973
 20
-40.80441152620622
 30
0
 11
-187.9981927293973
 21
-37.28605637500431
 31
0
  0
LINE
  8
1
 62
7
 10
-146.6605357612284
 20
-16.93810414796542
 30
0
 11
-149.7075207017049
 21
-15.17892657236442
 31
0
  0
LINE
  8
1
 62
7
 10
-150.6605357612284
 20
-23.86630737824092
 30
0
 11
-153.7075207017051
 21
-22.10712980263992
 31
0
  0
LINE
  8
1
 62
7
 10
-150.6605357612282
 20
23.86630737824078
 30
0
 11
-153.7075207017049
 21
22.10712980263989
 31
0
  0
LINE
  8
1
 62
7
 10
-146.6605357612284
 20
16.93810414796528
 30
0
 11
-149.7075207017049
 21
15.17892657236428
 31
0
  0
LINE
  8
1
 62
7
 10
-82.00000000000003
 20
16.93810414796539
 30
0
 11
-93.00000000000003
 21
16.93810414796539
 31
0
  0
LINE
  8
1
 62
7
 10
-82.00000000000003
 20
23.86630737824089
 30
0
 11
-93.00000000000003
 21
23.86630737824089
 31
0
  0
LINE
  8
1
 62
7
 10
-93.00000000000003
 20
15.93306312613308
 30
0
 11
-93.00000000000003
 21
23.86630737824089
 31
0
  0
LINE
  8
1
 62
7
 10
-91.00000000000003
 20
14.9274725426117
 30
0
 11
-93.00000000000003
 21
15.93306312613308
 31
0
  0
LINE
  8
1
 62
7
 10
-80.00000000000003
 20
14.93810414796539
 30
0
 11
-80.00000000000003
 21
-14.93810414796542
 31
0
  0
LINE
  8
1
 62
7
 10
-93.00000000000003
 20
39
 30
0
 11
-93.00000000000003
 21
40.5
 31
0
  0
LINE
  8
1
 62
7
 10
-81.00000000000003
 20
37
 30
0
 11
-91.00000000000003
 21
37
 31
0
  0
LINE
  8
1
 62
7
 10
-91.00000000000003
 20
37
 30
0
 11
-93.00000000000003
 21
39
 31
0
  0
LINE
  8
1
 62
7
 10
-93.00000000000003
 20
40.5
 30
0
 11
-92.50000000000003
 21
41
 31
0
  0
LINE
  8
1
 62
7
 10
-82.00000000000003
 20
14.9274725426117
 30
0
 11
-91.00000000000003
 21
14.9274725426117
 31
0
  0
LINE
  8
1
 62
7
 10
-71.50000000000003
 20
40
 30
0
 11
-72.50000000000003
 21
41
 31
0
  0
LINE
  8
1
 62
7
 10
-72.50000000000003
 20
41
 30
0
 11
-92.50000000000003
 21
41
 31
0
  0
LINE
  8
1
 62
7
 10
-72.50000000000003
 20
41
 30
0
 11
-72.50000000000003
 21
-41
 31
0
  0
LINE
  8
1
 62
7
 10
-80.00000000000003
 20
39
 30
0
 11
-80.00000000000003
 21
25.86630737824089
 31
0
  0
LINE
  8
1
 62
7
 10
-214.2888647570898
 20
22.10712980263989
 30
0
 11
-214.1474482066025
 21
21.4481326499585
 31
0
  0
LINE
  8
1
 62
7
 10
-218.2888647570899
 20
15.17892657236439
 30
0
 11
-217.6474482066025
 21
15.38595482346739
 31
0
  0
LINE
  8
1
 62
7
 10
-187.9981927293974
 20
37.28605637500428
 30
0
 11
-187.4981927293974
 21
36.834087473426
 31
0
  0
LINE
  8
1
 62
7
 10
-179.9981927293974
 20
37.28605637500428
 30
0
 11
-180.4981927293974
 21
36.834087473426
 31
0
  0
LINE
  8
1
 62
7
 10
-153.7075207017049
 20
22.10712980263989
 30
0
 11
-153.8489372521923
 21
21.4481326499585
 31
0
  0
LINE
  8
1
 62
7
 10
-150.3489372521922
 20
15.38595482346739
 30
0
 11
-149.7075207017049
 21
15.17892657236428
 31
0
  0
LINE
  8
1
 62
7
 10
-150.3489372521926
 20
-15.38595482346813
 30
0
 11
-149.7075207017049
 21
-15.17892657236442
 31
0
  0
LINE
  8
1
 62
7
 10
-153.8489372521917
 20
-21.44813264995761
 30
0
 11
-153.7075207017051
 21
-22.10712980263992
 31
0
  0
LINE
  8
1
 62
7
 10
-180.4981927293974
 20
-36.83408747342602
 30
0
 11
-179.9981927293973
 21
-37.28605637500431
 31
0
  0
LINE
  8
1
 62
7
 10
-187.9981927293973
 20
-37.28605637500431
 30
0
 11
-187.4981927293974
 21
-36.83408747342602
 31
0
  0
LINE
  8
1
 62
7
 10
-218.2888647570899
 20
-15.17892657236442
 30
0
 11
-217.647448206603
 21
-15.38595482346642
 31
0
  0
LINE
  8
1
 62
7
 10
-214.1474482066015
 20
-21.44813264996012
 30
0
 11
-214.2888647570898
 21
-22.10712980263992
 31
0
  0
LINE
  8
1
 62
7
 10
-5
 20
-28
 30
0
 11
-5.5
 21
-32.07217321398733
 31
0
  0
LINE
  8
1
 62
7
 10
-1
 20
-41
 30
0
 11
-21
 21
-41
 31
0
  0
LINE
  8
1
 62
7
 10
-6.5
 20
-37
 30
0
 11
-19.5
 21
-37
 31
0
  0
LINE
  8
1
 62
7
 10
-21.5
 20
-40.5
 30
0
 11
-21.5
 21
-39
 31
0
  0
LINE
  8
1
 62
7
 10
-8.5
 20
-37
 30
0
 11
-8.5
 21
-23.85567577288722
 31
0
  0
LINE
  8
1
 62
7
 10
-21.5
 20
-39
 30
0
 11
-19.5
 21
-37
 31
0
  0
LINE
  8
1
 62
7
 10
-21.5
 20
-40.5
 30
0
 11
-21
 21
-41
 31
0
  0
LINE
  8
1
 62
7
 10
0
 20
-40
 30
0
 11
-1
 21
-41
 31
0
  0
LINE
  8
1
 62
7
 10
-21.5
 20
-23.8663073782408
 30
0
 11
-21.5
 21
-15.93306312613291
 31
0
  0
LINE
  8
1
 62
7
 10
-19.5
 20
-21.85567577288722
 30
0
 11
-19.5
 21
-14.92747254261161
 31
0
  0
LINE
  8
1
 62
7
 10
-10.5
 20
-21.85567577288722
 30
0
 11
-19.5
 21
-21.85567577288722
 31
0
  0
LINE
  8
1
 62
7
 10
-10.5
 20
-14.92747254261161
 30
0
 11
-19.5
 21
-14.92747254261161
 31
0
  0
LINE
  8
1
 62
7
 10
-19.5
 20
-14.92747254261161
 30
0
 11
-21.5
 21
-15.93306312613291
 31
0
  0
LINE
  8
1
 62
7
 10
-19.5
 20
-21.85567577288722
 30
0
 11
-21.5
 21
-22.86126635640841
 31
0
  0
LINE
  8
1
 62
7
 10
-10.5
 20
-23.8663073782408
 30
0
 11
-21.5
 21
-23.8663073782408
 31
0
  0
LINE
  8
1
 62
7
 10
-0.5
 20
-28
 30
0
 11
-5
 21
-28
 31
0
  0
LINE
  8
1
 62
7
 10
-5.5
 20
32.0721732139873
 30
0
 11
-5
 21
28
 31
0
  0
LINE
  8
1
 62
7
 10
-21
 20
41
 30
0
 11
-1
 21
41
 31
0
  0
LINE
  8
1
 62
7
 10
0
 20
40
 30
0
 11
0
 21
-40
 31
0
  0
LINE
  8
1
 62
7
 10
-19.5
 20
37
 30
0
 11
-6.5
 21
37
 31
0
  0
LINE
  8
1
 62
7
 10
-21.5
 20
39
 30
0
 11
-21.5
 21
40.5
 31
0
  0
LINE
  8
1
 62
7
 10
-8.5
 20
23.8556757728872
 30
0
 11
-8.5
 21
37
 31
0
  0
LINE
  8
1
 62
7
 10
-19.5
 20
37
 30
0
 11
-21.5
 21
39
 31
0
  0
LINE
  8
1
 62
7
 10
-21
 20
41
 30
0
 11
-21.5
 21
40.5
 31
0
  0
LINE
  8
1
 62
7
 10
-1
 20
41
 30
0
 11
0
 21
40
 31
0
  0
LINE
  8
1
 62
7
 10
-21.5
 20
15.93306312613288
 30
0
 11
-21.5
 21
23.86630737824078
 31
0
  0
LINE
  8
1
 62
7
 10
-19.5
 20
14.92747254261158
 30
0
 11
-19.5
 21
21.8556757728872
 31
0
  0
LINE
  8
1
 62
7
 10
-19.5
 20
21.8556757728872
 30
0
 11
-10.5
 21
21.8556757728872
 31
0
  0
LINE
  8
1
 62
7
 10
-19.5
 20
14.92747254261158
 30
0
 11
-10.5
 21
14.92747254261158
 31
0
  0
LINE
  8
1
 62
7
 10
-21.5
 20
15.93306312613288
 30
0
 11
-19.5
 21
14.92747254261158
 31
0
  0
LINE
  8
1
 62
7
 10
-21.5
 20
22.86126635640838
 30
0
 11
-19.5
 21
21.8556757728872
 31
0
  0
LINE
  8
1
 62
7
 10
-5.5
 20
36
 30
0
 11
-5.5
 21
-36
 31
0
  0
LINE
  8
1
 62
7
 10
-8.5
 20
12.92747254261158
 30
0
 11
-8.5
 21
-12.92747254261161
 31
0
  0
LINE
  8
1
 62
7
 10
-21.5
 20
23.86630737824078
 30
0
 11
-10.5
 21
23.86630737824078
 31
0
  0
LINE
  8
1
 62
3
  6
DASHDOT
 10
-6.332014461115023
 20
34
 30
0
 11
0.8155985430389592
 21
34
 31
0
  0
LINE
  8
1
 62
3
 10
-5.633974596215637
 20
36.5
 30
0
 11
0
 21
36.5
 31
0
  0
LINE
  8
1
 62
7
 10
-5.5
 20
36
 30
0
 11
0
 21
36
 31
0
  0
LINE
  8
1
 62
7
 10
-5.491138243611601
 20
32
 30
0
 11
0
 21
32
 31
0
  0
LINE
  8
1
 62
3
 10
-5.429745963160144
 20
31.5
 30
0
 11
0
 21
31.5
 31
0
  0
LINE
  8
1
 62
3
 10
3
 20
0
 30
0
 11
0
 21
0
 31
0
  0
LINE
  8
1
 62
3
 10
-11.5
 20
0
 30
0
 11
-8.5
 21
0
 31
0
  0
LINE
  8
1
 62
7
 10
-0.6151666372739442
 20
-28
 30
0
 11
0
 21
-28
 31
0
  0
LINE
  8
1
 62
7
 10
-5
 20
28
 30
0
 11
-5
 21
-28
 31
0
  0
LINE
  8
1
 62
7
 10
-5
 20
28
 30
0
 11
0
 21
28
 31
0
  0
LINE
  8
1
 62
7
 10
-71.50000000000003
 20
40
 30
0
 11
-71.50000000000003
 21
-40
 31
0
  0
LINE
  8
1
 62
7
 10
-93.00000000000003
 20
-16.93810414796542
 30
0
 11
-82.00000000000003
 21
-16.93810414796542
 31
0
  0
LINE
  8
1
 62
7
 10
-93.00000000000003
 20
-23.8663073782408
 30
0
 11
-82.00000000000003
 21
-23.86630737824092
 31
0
  0
LINE
  8
1
 62
7
 10
-93.00000000000003
 20
-23.8663073782408
 30
0
 11
-93.00000000000003
 21
-15.93306312613311
 31
0
  0
LINE
  8
1
 62
7
 10
-93.00000000000003
 20
-15.93306312613311
 30
0
 11
-91.00000000000003
 21
-14.92747254261172
 31
0
  0
LINE
  8
1
 62
7
 10
-80.00000000000003
 20
-25.86630737824092
 30
0
 11
-80.00000000000003
 21
-39
 31
0
  0
LINE
  8
1
 62
7
 10
-93.00000000000003
 20
-40.5
 30
0
 11
-93.00000000000003
 21
-39
 31
0
  0
LINE
  8
1
 62
7
 10
-91.00000000000003
 20
-37
 30
0
 11
-81.00000000000003
 21
-37
 31
0
  0
LINE
  8
1
 62
7
 10
-93.00000000000003
 20
-39
 30
0
 11
-91.00000000000003
 21
-37
 31
0
  0
LINE
  8
1
 62
7
 10
-92.50000000000003
 20
-41
 30
0
 11
-93.00000000000003
 21
-40.5
 31
0
  0
LINE
  8
1
 62
7
 10
-91.00000000000003
 20
-14.92747254261172
 30
0
 11
-82.00000000000003
 21
-14.92747254261172
 31
0
  0
LINE
  8
1
 62
7
 10
-72.50000000000003
 20
-41
 30
0
 11
-71.50000000000003
 21
-40
 31
0
  0
LINE
  8
1
 62
7
 10
-92.50000000000003
 20
-41
 30
0
 11
-72.50000000000003
 21
-41
 31
0
  0
LINE
  8
1
 62
3
 10
-68.50000000000003
 20
0
 30
0
 11
-71.50000000000003
 21
0
 31
0
  0
LINE
  8
1
 62
3
 10
-80.00000000000003
 20
0
 30
0
 11
-83.00000000000003
 21
0
 31
0
  0
LINE
  8
1
 62
3
  6
DASHDOT
 10
-183.9981927293974
 20
37.36506436792789
 30
0
 11
-183.9981927293974
 21
30.36116392904188
 31
0
  0
LINE
  8
1
 62
3
  6
DASHDOT
 10
-221.3632570973253
 20
0
 30
0
 11
-214.3593566584393
 21
0
 31
0
  0
LINE
  8
1
 62
3
  6
DASHDOT
 10
-183.9981927293974
 20
-37.36506436792791
 30
0
 11
-183.9981927293974
 21
-30.36116392904191
 31
0
  0
LINE
  8
1
 62
3
  6
DASHDOT
 10
-146.6331283614695
 20
0
 30
0
 11
-153.6370288003555
 21
0
 31
0
  0
LINE
  8
1
 62
3
  6
DASHDOT
 10
-181.9984369421433
 20
0
 30
0
 11
-185.9979485166515
 21
0
 31
0
  0
LINE
  8
1
 62
3
  6
DASHDOT
 10
-183.9981927293974
 20
1.999755787254088
 30
0
 11
-183.9981927293974
 21
-1.999755787254117
 31
0
  0
ARC
  8
1
 62
7
 10
-81.00000000000003
 20
36
 30
0
 40
1
 50
0
 51
90
  0
ARC
  8
1
 62
7
 10
-82.00000000000003
 20
25.86630737824089
 30
0
 40
2
 50
270
 51
0
  0
ARC
  8
1
 62
7
 10
-82.00000000000003
 20
14.93810414796539
 30
0
 40
2
 50
0
 51
90
  0
ARC
  8
1
 62
7
 10
-10.5
 20
-23.85567577288722
 30
0
 40
2
 50
0
 51
90
  0
ARC
  8
1
 62
7
 10
-10.5
 20
-12.92747254261161
 30
0
 40
2
 50
270
 51
0
  0
ARC
  8
1
 62
7
 10
-6.5
 20
-36
 30
0
 40
1
 50
270
 51
0
  0
ARC
  8
1
 62
7
 10
-10.5
 20
23.8556757728872
 30
0
 40
2
 50
270
 51
0
  0
ARC
  8
1
 62
7
 10
-10.5
 20
12.92747254261158
 30
0
 40
2
 50
0
 51
90
  0
ARC
  8
1
 62
7
 10
-6.5
 20
36
 30
0
 40
1
 50
0
 51
90
  0
ARC
  8
1
 62
7
 10
-81.00000000000003
 20
-36
 30
0
 40
1
 50
270
 51
0
  0
ARC
  8
1
 62
7
 10
-82.00000000000003
 20
-25.86630737824092
 30
0
 40
2
 50
0
 51
90
  0
ARC
  8
1
 62
7
 10
-82.00000000000003
 20
-14.93810414796542
 30
0
 40
1.999999999999998
 50
270
 51
0
  0
ARC
  8
1
 62
7
 10
-183.9981927293974
 20
0
 30
0
 40
32.07217321398742
 50
182.7619772907146
 51
267.238022709286
  0
ARC
  8
1
 62
7
 10
-183.9981927293974
 20
0
 30
0
 40
32.07217321398741
 50
272.7619772907146
 51
357.2380227092865
  0
ARC
  8
1
 62
7
 10
-183.9981927293974
 20
0
 30
0
 40
32.07217321398731
 50
2.761977290713466
 51
87.23802270928597
  0
ARC
  8
1
 62
7
 10
-183.9981927293974
 20
0
 30
0
 40
38.99999999999995
 50
84.11315786129227
 51
95.88684213870775
  0
ARC
  8
1
 62
7
 10
-183.9981927293974
 20
0
 30
0
 40
38.99999999999999
 50
144.1131578612923
 51
155.8868421387078
  0
ARC
  8
1
 62
7
 10
-183.9981927293974
 20
0
 30
0
 40
38.99999999999995
 50
204.1131578612924
 51
215.8868421387077
  0
ARC
  8
1
 62
7
 10
-183.9981927293974
 20
0
 30
0
 40
38.99999999999985
 50
264.1131578612924
 51
275.886842138708
  0
ARC
  8
1
 62
7
 10
-183.9981927293974
 20
0
 30
0
 40
38.99999999999982
 50
324.1131578612922
 51
335.8868421387077
  0
ARC
  8
1
 62
7
 10
-183.9981927293974
 20
0
 30
0
 40
38.99999999999985
 50
24.11315786129207
 51
35.88684213870757
  0
ARC
  8
1
 62
7
 10
-82.00000000000003
 20
12.9274725426117
 30
0
 40
2
 50
0
 51
90
  0
ARC
  8
1
 62
7
 10
-82.00000000000003
 20
39
 30
0
 40
2
 50
0
 51
90
  0
ARC
  8
1
 62
7
 10
-10.5
 20
-25.8663073782408
 30
0
 40
2
 50
0
 51
90
  0
ARC
  8
1
 62
7
 10
-10.5
 20
25.86630737824078
 30
0
 40
2
 50
270
 51
0
  0
ARC
  8
1
 62
7
 10
-82.00000000000003
 20
-12.92747254261172
 30
0
 40
2
 50
270
 51
0
  0
ARC
  8
1
 62
7
 10
-82.00000000000003
 20
-39
 30
0
 40
2
 50
270
 51
0
  0
ARC
  8
1
 62
7
 10
-183.9981927293974
 20
0
 30
0
 40
32.0721732139873
 50
92.76197729071402
 51
177.2380227092855
  0
ARC
  8
1
 62
3
  6
DASHDOT
 10
-183.9981927293974
 20
0
 30
0
 40
34.00000000000011
 50
83.96768870666318
 51
96.13208081942311
  0
ARC
  8
1
 62
3
  6
DASHDOT
 10
-183.9981927293974
 20
0
 30
0
 40
34.00000000000009
 50
173.9676887066632
 51
186.132080819423
  0
ARC
  8
1
 62
3
  6
DASHDOT
 10
-183.9981927293974
 20
0
 30
0
 40
34.0000000000001
 50
263.9676887066633
 51
276.1320808194231
  0
ARC
  8
1
 62
3
  6
DASHDOT
 10
-183.9981927293974
 20
0
 30
0
 40
34.00000000000009
 50
353.9676887066633
 51
6.132080819423078
  0
CIRCLE
  8
1
 62
7
 10
-183.9981927293974
 20
0
 30
0
 40
41
  0
CIRCLE
  8
1
 62
7
 10
-183.9981927293974
 20
0
 30
0
 40
28
  0
CIRCLE
  8
1
 62
7
 10
-183.9981927293974
 20
0
 30
0
 40
37
  0
CIRCLE
  8
1
 62
3
 10
-183.9981927293974
 20
34
 30
0
 40
2.5
  0
CIRCLE
  8
1
 62
7
 10
-183.9981927293974
 20
34
 30
0
 40
2
  0
CIRCLE
  8
1
 62
7
 10
-217.9981927293973
 20
0
 30
0
 40
2
  0
CIRCLE
  8
1
 62
7
 10
-183.9981927293972
 20
-34
 30
0
 40
2
  0
CIRCLE
  8
1
 62
7
 10
-149.9981927293974
 20
0
 30
0
 40
1.999999999999801
  0
CIRCLE
  8
1
 62
3
 10
-217.9981927293973
 20
0
 30
0
 40
2.5
  0
CIRCLE
  8
1
 62
3
 10
-183.9981927293972
 20
-34
 30
0
 40
2.5
  0
CIRCLE
  8
1
 62
3
 10
-149.9981927293974
 20
0
 30
0
 40
2.499999999999801
  0
TEXT
  8
1
 62
7
 10
-193.0472156187403
 20
58.5582686526559
 30
0
 40
3.5
  1
DC4401
 41
0.9
  7
SIMPLEX
  0
TEXT
  8
1
 62
7
 10
-193.0472156187403
 20
63.8082686526559
 30
0
 40
3.5
  1
UN 1.2
 41
0.9
  7
SIMPLEX
  0
ENDSEC
  0
EOF
