  0
SECTION
  2
HEADER
  9
$ACADVER
  1
AC1009
  9
$INSBASE
 10
0
 20
0
  9
$EXTMIN
 10
-242.9746439042932
 20
-48.50000000000009
  9
$EXTMAX
 10
3
 20
84.17037201289199
  9
$LIMMIN
 10
-242.9746439042932
 20
-48.50000000000009
  9
$LIMMAX
 10
3
 20
84.17037201289199
  9
$VIEWCTR
 10
10
 20
10
  9
$VIEWSIZE
 40
10
  9
$SNAPMODE
 70
0
  9
$SNAPUNIT
 10
1
 20
1
  9
$SNAPBASE
 10
0
 20
0
  9
$SNAPANG
 50
0
  9
$SNAPSTYLE
 70
0
  9
$SNAPISOPAIR
 70
0
  9
$GRIDMODE
 70
0
  9
$GRIDUNIT
 10
0
 20
0
  9
$ORTHOMODE
 70
0
  9
$REGENMODE
 70
1
  9
$FILLMODE
 70
1
  9
$QTEXTMODE
 70
0
  9
$DRAGMODE
 70
2
  9
$LTSCALE
 40
1
  9
$OSMODE
 70
0
  9
$ATTMODE
 70
1
  9
$TEXTSIZE
 40
3.5
  9
$TRACEWID
 40
0.5
  9
$TEXTSTYLE
  7
STANDARD
  9
$CLAYER
  8
0
  9
$CELTYPE
  6
BYLAYER
  9
$CECOLOR
 62
256
  9
$DIMSCALE
 40
1
  9
$DIMASZ
 40
0.18
  9
$DIMEXO
 40
0.0625
  9
$DIMDLI
 40
0.38
  9
$DIMRND
 40
0
  9
$DIMDLE
 40
0
  9
$DIMEXE
 40
0.18
  9
$DIMTP
 40
0
  9
$DIMTM
 40
0
  9
$DIMTXT
 40
0.18
  9
$DIMCEN
 40
0.09
  9
$DIMTSZ
 40
0
  9
$DIMTOL
 70
0
  9
$DIMLIM
 70
0
  9
$DIMTIH
 70
1
  9
$DIMTOH
 70
1
  9
$DIMSE1
 70
0
  9
$DIMSE2
 70
0
  9
$DIMTAD
 70
0
  9
$DIMZIN
 70
0
  9
$DIMBLK
  1

  9
$DIMASO
 70
1
  9
$DIMSHO
 70
1
  9
$DIMPOST
  1

  9
$DIMAPOST
  1

  9
$DIMALT
 70
0
  9
$DIMALTD
 70
2
  9
$DIMALTF
 40
25.4
  9
$DIMLFAC
 40
1
  9
$DIMTOFL
 70
0
  9
$DIMTVP
 40
0
  9
$DIMTIX
 70
0
  9
$DIMSOXD
 70
0
  9
$DIMSAH
 70
0
  9
$DIMBLK1
  1

  9
$DIMBLK2
  1

  9
$DIMSTYLE
  2
*UNNAMED
  9
$DIMCLRD
 70
0
  9
$DIMCLRE
 70
0
  9
$DIMCLRT
 70
0
  9
$DIMTFAC
 40
1
  9
$DIMGAP
 40
0.09
  9
$LUNITS
 70
2
  9
$LUPREC
 70
4
  9
$AXISMODE
 70
0
  9
$AXISUNIT
 10
0
 20
0
  9
$SKETCHINC
 40
0.1
  9
$FILLETRAD
 40
2
  9
$AUNITS
 70
0
  9
$AUPREC
 70
0
  9
$MENU
  1
ACAD
  9
$ELEVATION
 40
0
  9
$THICKNESS
 40
0
  9
$VIEWDIR
 10
0
 20
0
 30
1
  9
$LIMCHECK
 70
0
  9
$BLIPMODE
 70
1
  9
$CHAMFERA
 40
0
  9
$CHAMFERB
 40
0
  9
$FASTZOOM
 70
1
  9
$SKPOLY
 70
0
  9
$ANGBASE
 50
0
  9
$ANGDIR
 70
0
  9
$PDMODE
 70
0
  9
$PDSIZE
 40
0
  9
$PLINEWID
 40
0
  9
$COORDS
 70
2
  0
ENDSEC
  0
SECTION
  2
TABLES
  0
TABLE
  2
DIMSTYLE
 70
0
  0
ENDTAB
  0
TABLE
  2
LTYPE
 70
9
  0
LTYPE
  2
CONTINUOUS
 70
64
  3
Solid line
 72
65
 73
0
 40
0
  0
LTYPE
  2
BORDER
 70
64
  3
__ __ . __ __ .
 72
65
 73
6
 40
11.32777965348719
 49
3.236508472424911
 49
-1.618254236212455
 49
3.236508472424911
 49
-1.618254236212455
 49
0
 49
-1.618254236212455
  0
LTYPE
  2
CENTER
 70
64
  3
____ _ ____ _
 72
65
 73
4
 40
12.94603388969964
 49
8.091271181062275
 49
-1.618254236212455
 49
1.618254236212455
 49
-1.618254236212455
  0
LTYPE
  2
DASHDOT
 70
64
  3
__ . __ . __ .
 72
65
 73
4
 40
6.473016944849821
 49
3.236508472424911
 49
-1.618254236212455
 49
0
 49
-1.618254236212455
  0
LTYPE
  2
DASHED
 70
64
  3
__ __ __ __ __
 72
65
 73
2
 40
4.854762708637366
 49
3.236508472424911
 49
-1.618254236212455
  0
LTYPE
  2
DIVIDE
 70
64
  3
__ . . __ . . 
 72
65
 73
6
 40
8.091271181062275
 49
3.236508472424911
 49
-1.618254236212455
 49
0
 49
-1.618254236212455
 49
0
 49
-1.618254236212455
  0
LTYPE
  2
DOT
 70
64
  3
..............
 72
65
 73
4
 40
3.236508472424911
 49
0
 49
-1.618254236212455
 49
0
 49
-1.618254236212455
  0
LTYPE
  2
HIDDEN
 70
64
  3
_ _ _ _ _ _ _
 72
65
 73
2
 40
2.427381354318683
 49
1.618254236212455
 49
-0.8091271181062276
  0
LTYPE
  2
PHANTOM
 70
64
  3
_____ _ _ _____ _ _ 
 72
65
 73
6
 40
16.18254236212455
 49
8.091271181062275
 49
-1.618254236212455
 49
1.618254236212455
 49
-1.618254236212455
 49
1.618254236212455
 49
-1.618254236212455
  0
ENDTAB
  0
TABLE
  2
LAYER
 70
3
  0
LAYER
  2
1
 70
0
 62
7
  6
CONTINUOUS
  0
LAYER
  2
0
 70
0
 62
7
  6
CONTINUOUS
  0
ENDTAB
  0
TABLE
  2
STYLE
 70
4
  0
STYLE
  2
STANDARD
 70
0
 40
0
 41
1
 50
0
 71
0
 42
3.5
  3
txt
  4

  0
STYLE
  2
SIMPLEX
 70
0
 40
0
 41
1
 50
0
 71
0
 42
3.5
  3
simplex
  4

  0
STYLE
  2
COMPLEX
 70
0
 40
0
 41
1
 50
0
 71
0
 42
3.5
  3
complex
  4

  0
STYLE
  2
ITALIC
 70
0
 40
0
 41
1
 50
0
 71
0
 42
3.5
  3
italic
  4

  0
ENDTAB
  0
TABLE
  2
VIEW
 70
0
  0
ENDTAB
  0
ENDSEC
  0
SECTION
  2
BLOCKS
  0
ENDSEC
  0
SECTION
  2
ENTITIES
  0
LINE
  8
1
 62
7
 10
-95.00000000000006
 20
28.45091680698673
 30
0
 11
-96.00000000000006
 21
27.45091680698673
 31
0
  0
LINE
  8
1
 62
7
 10
-154.1016931396955
 20
18.11318156921521
 30
0
 11
-153.4626733626552
 21
17.90476954031541
 31
0
  0
LINE
  8
1
 62
7
 10
-158.4626733626552
 20
26.56502357815972
 30
0
 11
-158.6016931396951
 21
25.90741020327411
 31
0
  0
LINE
  8
1
 62
7
 10
-158.6016931396957
 20
-25.90741020327499
 30
0
 11
-158.4626733626555
 21
-26.5650235781599
 31
0
  0
LINE
  8
1
 62
7
 10
-154.1016931396951
 20
-18.11318156921419
 30
0
 11
-153.4626733626552
 21
-17.90476954031558
 31
0
  0
LINE
  8
1
 62
7
 10
-199.4746439042935
 20
-44.46979311847528
 30
0
 11
-198.9746439042932
 21
-44.02059177248759
 31
0
  0
LINE
  8
1
 62
7
 10
-189.4746439042935
 20
-44.50373528212199
 30
0
 11
-189.4746439042935
 21
-44.46979311847528
 31
0
  0
LINE
  8
1
 62
7
 10
-189.9746439042932
 20
-44.02059177248759
 30
0
 11
-189.4746439042935
 21
-44.46979311847528
 31
0
  0
LINE
  8
1
 62
7
 10
-199.4746439042932
 20
44.46979311847522
 30
0
 11
-198.9746439042932
 21
44.02059177248762
 31
0
  0
LINE
  8
1
 62
7
 10
-189.4746439042932
 20
44.46979311847522
 30
0
 11
-189.9746439042932
 21
44.02059177248762
 31
0
  0
LINE
  8
1
 62
7
 10
-235.4866144459312
 20
-17.9047695403155
 30
0
 11
-234.8475946688917
 21
-18.11318156921379
 31
0
  0
LINE
  8
1
 62
7
 10
-230.3475946688917
 20
-25.90741020327368
 30
0
 11
-230.4866144459312
 21
-26.56502357815978
 31
0
  0
LINE
  8
1
 62
7
 10
-235.4866144459312
 20
17.90476954031541
 30
0
 11
-238.7530773359096
 21
19.79066276914241
 31
0
  0
LINE
  8
1
 62
7
 10
-235.4866144459312
 20
17.90476954031541
 30
0
 11
-234.8475946688917
 21
18.11318156921371
 31
0
  0
LINE
  8
1
 62
7
 10
-230.4866144459312
 20
26.56502357815981
 30
0
 11
-230.3475946688917
 21
25.90741020327383
 31
0
  0
LINE
  8
1
 62
7
 10
-199.4746439042932
 20
48.24157957612911
 30
0
 11
-199.4746439042932
 21
44.46979311847522
 31
0
  0
LINE
  8
1
 62
7
 10
-189.4746439042932
 20
48.24157957612911
 30
0
 11
-189.4746439042932
 21
44.46979311847522
 31
0
  0
LINE
  8
1
 62
7
 10
-233.7530773359096
 20
28.45091680698681
 30
0
 11
-230.4866144459312
 21
26.56502357815981
 31
0
  0
LINE
  8
1
 62
7
 10
-233.7530773359096
 20
-28.4509168069867
 30
0
 11
-230.4866144459312
 21
-26.56502357815978
 31
0
  0
LINE
  8
1
 62
7
 10
-238.7530773359096
 20
-19.79066276914239
 30
0
 11
-235.4866144459312
 21
-17.9047695403155
 31
0
  0
LINE
  8
1
 62
7
 10
-189.4746439042935
 20
-48.24157957612908
 30
0
 11
-189.4746439042935
 21
-44.50373528212199
 31
0
  0
LINE
  8
1
 62
7
 10
-199.4746439042935
 20
-48.24157957612908
 30
0
 11
-199.4746439042935
 21
-44.46979311847528
 31
0
  0
LINE
  8
1
 62
7
 10
-150.1962104726772
 20
-19.79066276914239
 30
0
 11
-153.4626733626552
 21
-17.90476954031558
 31
0
  0
LINE
  8
1
 62
7
 10
-155.1962104726772
 20
-28.45091680698678
 30
0
 11
-158.4626733626555
 21
-26.5650235781599
 31
0
  0
LINE
  8
1
 62
7
 10
-155.196210472677
 20
28.45091680698661
 30
0
 11
-158.4626733626552
 21
26.56502357815972
 31
0
  0
LINE
  8
1
 62
7
 10
-150.196210472677
 20
19.79066276914222
 30
0
 11
-153.4626733626552
 21
17.90476954031541
 31
0
  0
LINE
  8
1
 62
7
 10
-83.00000000000006
 20
19.79066276914241
 30
0
 11
-95.00000000000006
 21
19.79066276914241
 31
0
  0
LINE
  8
1
 62
7
 10
-83.00000000000006
 20
28.45091680698673
 30
0
 11
-95.00000000000006
 21
28.45091680698673
 31
0
  0
LINE
  8
1
 62
7
 10
-96.00000000000006
 20
18.15632723691812
 30
0
 11
-96.00000000000006
 21
27.45091680698673
 31
0
  0
LINE
  8
1
 62
7
 10
-94.00000000000006
 20
17.65317630428203
 30
0
 11
-96.00000000000006
 21
18.15632723691812
 31
0
  0
LINE
  8
1
 62
7
 10
-81.00000000000006
 20
17.91751762864911
 30
0
 11
-81.00000000000006
 21
-17.91751762864919
 31
0
  0
LINE
  8
1
 62
7
 10
-96.00000000000006
 20
45.25000000000011
 30
0
 11
-96.00000000000006
 21
47.5
 31
0
  0
LINE
  8
1
 62
7
 10
-94.00000000000006
 20
44.25000000000011
 30
0
 11
-96.00000000000006
 21
45.25000000000011
 31
0
  0
LINE
  8
1
 62
7
 10
-83.00000000000006
 20
17.65317630428203
 30
0
 11
-94.00000000000006
 21
17.65317630428203
 31
0
  0
LINE
  8
1
 62
7
 10
-73.00000000000006
 20
47.5
 30
0
 11
-74.00000000000006
 21
48.5
 31
0
  0
LINE
  8
1
 62
7
 10
-74.00000000000006
 20
48.5
 30
0
 11
-95.00000000000006
 21
48.5
 31
0
  0
LINE
  8
1
 62
7
 10
-74.00000000000006
 20
48.5
 30
0
 11
-74.00000000000006
 21
-48.50000000000009
 31
0
  0
LINE
  8
1
 62
7
 10
-96.00000000000006
 20
19.28792751569182
 30
0
 11
-95.00000000000006
 21
19.79066276914241
 31
0
  0
LINE
  8
1
 62
7
 10
-95.00000000000006
 20
19.79066276914241
 30
0
 11
-95.00000000000006
 21
28.45091680698673
 31
0
  0
LINE
  8
1
 62
7
 10
-81.00000000000006
 20
44.50000000000011
 30
0
 11
-81.00000000000006
 21
30.45091680698673
 31
0
  0
LINE
  8
1
 62
7
 10
-96.00000000000006
 20
47.5
 30
0
 11
-95.00000000000006
 21
48.5
 31
0
  0
LINE
  8
1
 62
7
 10
-84.00000000000006
 20
47.5
 30
0
 11
-96.00000000000006
 21
47.5
 31
0
  0
LINE
  8
1
 62
7
 10
-82.50000000000006
 20
44.25
 30
0
 11
-94.00000000000006
 21
44.25000000000011
 31
0
  0
LINE
  8
1
 62
7
 10
-23
 20
-27.45091680698658
 30
0
 11
-23
 21
-18.15632723691789
 31
0
  0
LINE
  8
1
 62
7
 10
-22
 20
-28.45091680698658
 30
0
 11
-23
 21
-27.45091680698658
 31
0
  0
LINE
  8
1
 62
7
 10
-5
 20
-32.5
 30
0
 11
-6
 21
-40.1443464279746
 31
0
  0
LINE
  8
1
 62
7
 10
0
 20
-32.5
 30
0
 11
-5
 21
-32.5
 31
0
  0
LINE
  8
1
 62
7
 10
-23
 20
-47.5
 30
0
 11
-23
 21
-46.25
 31
0
  0
LINE
  8
1
 62
7
 10
-22
 20
-48.5
 30
0
 11
-23
 21
-47.5
 31
0
  0
LINE
  8
1
 62
7
 10
-21
 20
-44.25
 30
0
 11
-23
 21
-46.25
 31
0
  0
LINE
  8
1
 62
7
 10
-9.999999999999996
 20
-28.45091680698658
 30
0
 11
-22
 21
-28.45091680698658
 31
0
  0
LINE
  8
1
 62
7
 10
-9.999999999999996
 20
-17.6531763042818
 30
0
 11
-21
 21
-17.6531763042818
 31
0
  0
LINE
  8
1
 62
7
 10
-9.999999999999996
 20
-26.3134303421262
 30
0
 11
-21
 21
-26.3134303421262
 31
0
  0
LINE
  8
1
 62
7
 10
-21
 20
-17.6531763042818
 30
0
 11
-23
 21
-18.15632723691789
 31
0
  0
LINE
  8
1
 62
7
 10
-21
 20
-26.3134303421262
 30
0
 11
-23
 21
-26.81658127476229
 31
0
  0
LINE
  8
1
 62
7
 10
-21
 20
-26.3134303421262
 30
0
 11
-21
 21
-17.6531763042818
 31
0
  0
LINE
  8
1
 62
7
 10
-8
 20
-28.3134303421262
 30
0
 11
-8
 21
-41.25
 31
0
  0
LINE
  8
1
 62
7
 10
-1
 20
-48.5
 30
0
 11
-22
 21
-48.5
 31
0
  0
LINE
  8
1
 62
7
 10
-21
 20
-44.25
 30
0
 11
-7.5
 21
-44.25
 31
0
  0
LINE
  8
1
 62
7
 10
0
 20
-47.5
 30
0
 11
-1
 21
-48.5
 31
0
  0
LINE
  8
1
 62
7
 10
-23
 20
18.15632723691792
 30
0
 11
-23
 21
27.45091680698661
 31
0
  0
LINE
  8
1
 62
7
 10
-23
 20
27.45091680698661
 30
0
 11
-22
 21
28.45091680698661
 31
0
  0
LINE
  8
1
 62
3
 10
-5.613922804514573
 20
37
 30
0
 11
0
 21
37
 31
0
  0
LINE
  8
1
 62
7
 10
-6
 20
40.14434642797463
 30
0
 11
-5
 21
32.5
 31
0
  0
LINE
  8
1
 62
7
 10
-5
 20
32.5
 30
0
 11
0
 21
32.5
 31
0
  0
LINE
  8
1
 62
7
 10
-5
 20
32.5
 30
0
 11
-5
 21
-32.5
 31
0
  0
LINE
  8
1
 62
7
 10
-23
 20
46.25
 30
0
 11
-23
 21
47.5
 31
0
  0
LINE
  8
1
 62
7
 10
-23
 20
47.5
 30
0
 11
-22
 21
48.5
 31
0
  0
LINE
  8
1
 62
7
 10
-23
 20
46.25
 30
0
 11
-21
 21
44.25
 31
0
  0
LINE
  8
1
 62
7
 10
-22
 20
28.45091680698661
 30
0
 11
-9.999999999999996
 21
28.45091680698661
 31
0
  0
LINE
  8
1
 62
7
 10
-8
 20
15.6531763042818
 30
0
 11
-8
 21
-15.6531763042818
 31
0
  0
LINE
  8
1
 62
7
 10
-5.675315084965973
 20
37.5
 30
0
 11
0
 21
37.5
 31
0
  0
LINE
  8
1
 62
3
  6
DASHDOT
 10
-6.608073833688991
 20
40
 30
0
 11
0.6668449097210214
 21
40
 31
0
  0
LINE
  8
1
 62
7
 10
-6
 20
42.5
 30
0
 11
0
 21
42.5
 31
0
  0
LINE
  8
1
 62
3
 10
-6
 20
43
 30
0
 11
0
 21
43
 31
0
  0
LINE
  8
1
 62
7
 10
-21
 20
17.6531763042818
 30
0
 11
-9.999999999999996
 21
17.6531763042818
 31
0
  0
LINE
  8
1
 62
7
 10
-21
 20
26.31343034212622
 30
0
 11
-9.999999999999996
 21
26.31343034212622
 31
0
  0
LINE
  8
1
 62
7
 10
-23
 20
18.15632723691792
 30
0
 11
-21
 21
17.6531763042818
 31
0
  0
LINE
  8
1
 62
7
 10
-23
 20
26.81658127476231
 30
0
 11
-21
 21
26.31343034212622
 31
0
  0
LINE
  8
1
 62
7
 10
-21
 20
17.6531763042818
 30
0
 11
-21
 21
26.31343034212622
 31
0
  0
LINE
  8
1
 62
7
 10
-8
 20
28.31343034212622
 30
0
 11
-8
 21
41.25
 31
0
  0
LINE
  8
1
 62
7
 10
-22
 20
48.5
 30
0
 11
-1
 21
48.5
 31
0
  0
LINE
  8
1
 62
7
 10
0
 20
47.5
 30
0
 11
0
 21
-47.5
 31
0
  0
LINE
  8
1
 62
7
 10
-7.5
 20
44.25
 30
0
 11
-21
 21
44.25
 31
0
  0
LINE
  8
1
 62
7
 10
-1
 20
48.5
 30
0
 11
0
 21
47.5
 31
0
  0
LINE
  8
1
 62
7
 10
-6
 20
43
 30
0
 11
-6
 21
-42.90226191518508
 31
0
  0
LINE
  8
1
 62
3
 10
3
 20
0
 30
0
 11
0
 21
0
 31
0
  0
LINE
  8
1
 62
3
 10
-8
 20
0
 30
0
 11
-11
 21
0
 31
0
  0
LINE
  8
1
 62
7
 10
-73.00000000000006
 20
47.5
 30
0
 11
-73.00000000000006
 21
-47.50000000000009
 31
0
  0
LINE
  8
1
 62
7
 10
-96.00000000000006
 20
-27.45091680698678
 30
0
 11
-95.00000000000006
 21
-28.45091680698678
 31
0
  0
LINE
  8
1
 62
7
 10
-95.00000000000006
 20
-19.7906627691425
 30
0
 11
-83.00000000000006
 21
-19.7906627691425
 31
0
  0
LINE
  8
1
 62
7
 10
-95.00000000000006
 20
-28.45091680698678
 30
0
 11
-83.00000000000006
 21
-28.45091680698678
 31
0
  0
LINE
  8
1
 62
7
 10
-96.00000000000006
 20
-27.45091680698678
 30
0
 11
-96.00000000000006
 21
-18.15632723691817
 31
0
  0
LINE
  8
1
 62
7
 10
-96.00000000000006
 20
-18.15632723691817
 30
0
 11
-94.00000000000006
 21
-17.65317630428208
 31
0
  0
LINE
  8
1
 62
7
 10
-96.00000000000006
 20
-47.50000000000009
 30
0
 11
-96.00000000000006
 21
-45.2500000000002
 31
0
  0
LINE
  8
1
 62
7
 10
-96.00000000000006
 20
-45.2500000000002
 30
0
 11
-94.00000000000006
 21
-44.2500000000002
 31
0
  0
LINE
  8
1
 62
7
 10
-94.00000000000006
 20
-17.65317630428208
 30
0
 11
-83.00000000000006
 21
-17.65317630428208
 31
0
  0
LINE
  8
1
 62
7
 10
-74.00000000000006
 20
-48.50000000000009
 30
0
 11
-73.00000000000006
 21
-47.50000000000009
 31
0
  0
LINE
  8
1
 62
7
 10
-95.00000000000006
 20
-48.50000000000009
 30
0
 11
-74.00000000000006
 21
-48.50000000000009
 31
0
  0
LINE
  8
1
 62
7
 10
-95.00000000000006
 20
-19.7906627691425
 30
0
 11
-96.00000000000006
 21
-19.28792751569188
 31
0
  0
LINE
  8
1
 62
7
 10
-95.00000000000006
 20
-28.45091680698678
 30
0
 11
-95.00000000000006
 21
-19.7906627691425
 31
0
  0
LINE
  8
1
 62
7
 10
-81.00000000000006
 20
-44.5000000000002
 30
0
 11
-81.00000000000006
 21
-30.45091680698678
 31
0
  0
LINE
  8
1
 62
7
 10
-95.00000000000006
 20
-48.50000000000009
 30
0
 11
-96.00000000000006
 21
-47.50000000000009
 31
0
  0
LINE
  8
1
 62
7
 10
-96.00000000000006
 20
-47.50000000000009
 30
0
 11
-84.00000000000006
 21
-47.50000000000009
 31
0
  0
LINE
  8
1
 62
7
 10
-94.00000000000006
 20
-44.2500000000002
 30
0
 11
-82.50000000000006
 21
-44.25000000000009
 31
0
  0
LINE
  8
1
 62
3
 10
-70.00000000000006
 20
0
 30
0
 11
-73.00000000000006
 21
0
 31
0
  0
LINE
  8
1
 62
3
 10
-81.00000000000006
 20
0
 30
0
 11
-84.00000000000006
 21
0
 31
0
  0
LINE
  8
1
 62
3
  6
DASHDOT
 10
-194.4746439042932
 20
44.25
 30
0
 11
-194.4746439042933
 21
36.05779586005502
 31
0
  0
LINE
  8
1
 62
3
  6
DASHDOT
 10
-238.7246439042932
 20
0
 30
0
 11
-230.5324397643482
 21
-8.526512829121202e-014
 31
0
  0
LINE
  8
1
 62
3
  6
DASHDOT
 10
-194.4746439042932
 20
-44.25
 30
0
 11
-194.4746439042932
 21
-36.05779586005508
 31
0
  0
LINE
  8
1
 62
3
  6
DASHDOT
 10
-150.2246439042932
 20
0
 30
0
 11
-158.4168480442382
 21
0
 31
0
  0
LINE
  8
1
 62
3
  6
DASHDOT
 10
-191.1172860890433
 20
0
 30
0
 11
-197.8320017195431
 21
0
 31
0
  0
LINE
  8
1
 62
3
  6
DASHDOT
 10
-194.4746439042932
 20
3.357357815249912
 30
0
 11
-194.4746439042932
 21
-3.357357815249884
 31
0
  0
ARC
  8
1
 62
7
 10
-83.00000000000006
 20
30.45091680698673
 30
0
 40
2
 50
270
 51
0
  0
ARC
  8
1
 62
7
 10
-83.00000000000006
 20
17.79066276914241
 30
0
 40
2
 50
0
 51
90
  0
ARC
  8
1
 62
7
 10
-9.999999999999996
 20
-15.6531763042818
 30
0
 40
2
 50
270
 51
0
  0
ARC
  8
1
 62
7
 10
-9.999999999999996
 20
-28.3134303421262
 30
0
 40
1.999999999999996
 50
0
 51
90
  0
ARC
  8
1
 62
7
 10
-9.999999999999996
 20
15.6531763042818
 30
0
 40
1.999999999999996
 50
0
 51
90
  0
ARC
  8
1
 62
7
 10
-9.999999999999996
 20
28.31343034212622
 30
0
 40
2
 50
270
 51
0
  0
ARC
  8
1
 62
7
 10
-83.00000000000006
 20
-30.45091680698678
 30
0
 40
2
 50
0
 51
90
  0
ARC
  8
1
 62
7
 10
-83.00000000000006
 20
-17.7906627691425
 30
0
 40
2
 50
270
 51
0
  0
ARC
  8
1
 62
7
 10
-7.5
 20
-42.74139903699498
 30
0
 40
1.508600963005023
 50
270
 51
353.878885094684
  0
ARC
  8
1
 62
7
 10
-194.4746439042932
 20
0
 30
0
 40
47.49999999999996
 50
83.95767158094589
 51
96.04232841905412
  0
ARC
  8
1
 62
7
 10
-194.4746439042932
 20
0
 30
0
 40
45.24999999999993
 50
83.65602007949313
 51
96.34397992050688
  0
ARC
  8
1
 62
7
 10
-194.4746439042932
 20
0
 30
0
 40
47.50000000000015
 50
143.957671580946
 51
156.0423284190541
  0
ARC
  8
1
 62
7
 10
-194.4746439042932
 20
0
 30
0
 40
45.25000000000009
 50
143.6560200794932
 51
156.343979920507
  0
ARC
  8
1
 62
7
 10
-194.4746439042932
 20
0
 30
0
 40
47.50000000000014
 50
203.9576715809458
 51
216.042328419054
  0
ARC
  8
1
 62
7
 10
-194.4746439042932
 20
0
 30
0
 40
45.25000000000009
 50
203.656020079493
 51
216.3439799205067
  0
ARC
  8
1
 62
7
 10
-194.4746439042932
 20
0
 30
0
 40
47.49999999999996
 50
263.9576715809455
 51
276.0423284190538
  0
ARC
  8
1
 62
7
 10
-194.4746439042932
 20
0
 30
0
 40
45.24999999999994
 50
263.6560200794926
 51
276.3439799205065
  0
ARC
  8
1
 62
7
 10
-194.4746439042932
 20
0
 30
0
 40
47.49999999999982
 50
323.9576715809458
 51
336.0423284190539
  0
ARC
  8
1
 62
7
 10
-194.4746439042932
 20
0
 30
0
 40
45.24999999999974
 50
323.6560200794929
 51
336.3439799205068
  0
ARC
  8
1
 62
7
 10
-194.4746439042932
 20
0
 30
0
 40
47.49999999999972
 50
23.95767158094583
 51
36.04232841905413
  0
ARC
  8
1
 62
7
 10
-194.4746439042932
 20
0
 30
0
 40
45.24999999999976
 50
23.65602007949296
 51
36.3439799205068
  0
ARC
  8
1
 62
7
 10
-83.00000000000006
 20
15.65317630428203
 30
0
 40
2
 50
0
 51
90
  0
ARC
  8
1
 62
7
 10
-84.00000000000006
 20
44.5
 30
0
 40
3
 50
0
 51
90
  0
ARC
  8
1
 62
7
 10
-82.50000000000006
 20
42.75
 30
0
 40
1.5
 50
0
 51
90
  0
ARC
  8
1
 62
7
 10
-11
 20
-41.25
 30
0
 40
3
 50
270
 51
0
  0
ARC
  8
1
 62
7
 10
-9.999999999999996
 20
-30.45091680698658
 30
0
 40
1.999999999999996
 50
0
 51
90
  0
ARC
  8
1
 62
7
 10
-11
 20
41.25
 30
0
 40
3
 50
0
 51
90
  0
ARC
  8
1
 62
7
 10
-7.5
 20
42.74139903699501
 30
0
 40
1.508600963004952
 50
10.06796081763346
 51
90
  0
ARC
  8
1
 62
7
 10
-9.999999999999996
 20
30.45091680698661
 30
0
 40
2
 50
270
 51
0
  0
ARC
  8
1
 62
7
 10
-83.00000000000006
 20
-15.65317630428208
 30
0
 40
2
 50
270
 51
0
  0
ARC
  8
1
 62
7
 10
-84.00000000000006
 20
-44.50000000000009
 30
0
 40
3
 50
270
 51
0
  0
ARC
  8
1
 62
7
 10
-82.50000000000006
 20
-42.75000000000009
 30
0
 40
1.5
 50
270
 51
0
  0
ARC
  8
1
 62
3
  6
DASHDOT
 10
-194.4746439042932
 20
0
 30
0
 40
40.00000000000006
 50
82.90855772247264
 51
97.00282543415808
  0
ARC
  8
1
 62
3
  6
DASHDOT
 10
-194.4746439042932
 20
0
 30
0
 40
40.00000000000004
 50
172.9085577224726
 51
187.002825434158
  0
ARC
  8
1
 62
3
  6
DASHDOT
 10
-194.4746439042932
 20
0
 30
0
 40
40.00000000000004
 50
262.9085577224726
 51
277.0028254341581
  0
ARC
  8
1
 62
3
  6
DASHDOT
 10
-194.4746439042932
 20
0
 30
0
 40
40.00000000000002
 50
352.9085577224727
 51
7.002825434158088
  0
ARC
  8
1
 62
7
 10
-194.4746439042932
 20
0
 30
0
 40
39.07013866692096
 50
4.134783132748789
 51
85.86521686725108
  0
ARC
  8
1
 62
7
 10
-194.4746439042932
 20
0
 30
0
 40
39.07013866692095
 50
94.13478313274891
 51
175.8652168672509
  0
ARC
  8
1
 62
7
 10
-194.4746439042932
 20
0
 30
0
 40
39.07013866692104
 50
184.1347831327487
 51
265.8652168672509
  0
ARC
  8
1
 62
7
 10
-194.4746439042932
 20
0
 30
0
 40
39.07013866692106
 50
274.1347831327491
 51
355.8652168672513
  0
CIRCLE
  8
1
 62
7
 10
-194.4746439042932
 20
0
 30
0
 40
48.5
  0
CIRCLE
  8
1
 62
7
 10
-194.4746439042932
 20
0
 30
0
 40
44.25
  0
CIRCLE
  8
1
 62
3
 10
-194.4746439042932
 20
40
 30
0
 40
3
  0
CIRCLE
  8
1
 62
7
 10
-194.4746439042932
 20
40
 30
0
 40
2.5
  0
CIRCLE
  8
1
 62
7
 10
-234.4746439042932
 20
1.13686837721616e-013
 30
0
 40
2.5
  0
CIRCLE
  8
1
 62
7
 10
-194.4746439042932
 20
-39.99999999999989
 30
0
 40
2.5
  0
CIRCLE
  8
1
 62
7
 10
-154.4746439042932
 20
0
 30
0
 40
2.499999999999915
  0
CIRCLE
  8
1
 62
3
 10
-234.4746439042932
 20
1.13686837721616e-013
 30
0
 40
3
  0
CIRCLE
  8
1
 62
3
 10
-194.4746439042932
 20
-39.99999999999989
 30
0
 40
3
  0
CIRCLE
  8
1
 62
3
 10
-154.4746439042932
 20
0
 30
0
 40
2.999999999999915
  0
CIRCLE
  8
1
 62
7
 10
-194.4746439042932
 20
0
 30
0
 40
32.5
  0
TEXT
  8
1
 62
7
 10
-204.360787882088
 20
75.42037201289199
 30
0
 40
3.5
  1
DC4402
 41
0.9
  7
SIMPLEX
  0
TEXT
  8
1
 62
7
 10
-204.360787882088
 20
80.67037201289199
 30
0
 40
3.5
  1
UN 2.5
 41
0.9
  7
SIMPLEX
  0
ENDSEC
  0
EOF
