  0
SECTION
  2
HEADER
  9
$ACADVER
  1
AC1009
  9
$INSBASE
 10
0
 20
0
  9
$EXTMIN
 10
-265.9584948779413
 20
-57.00000000000002
  9
$EXTMAX
 10
3
 20
85.07599155568799
  9
$LIMMIN
 10
-265.9584948779413
 20
-57.00000000000002
  9
$LIMMAX
 10
3
 20
85.07599155568799
  9
$VIEWCTR
 10
10
 20
10
  9
$VIEWSIZE
 40
10
  9
$SNAPMODE
 70
0
  9
$SNAPUNIT
 10
1
 20
1
  9
$SNAPBASE
 10
0
 20
0
  9
$SNAPANG
 50
0
  9
$SNAPSTYLE
 70
0
  9
$SNAPISOPAIR
 70
0
  9
$GRIDMODE
 70
0
  9
$GRIDUNIT
 10
0
 20
0
  9
$ORTHOMODE
 70
0
  9
$REGENMODE
 70
1
  9
$FILLMODE
 70
1
  9
$QTEXTMODE
 70
0
  9
$DRAGMODE
 70
2
  9
$LTSCALE
 40
1
  9
$OSMODE
 70
0
  9
$ATTMODE
 70
1
  9
$TEXTSIZE
 40
3.5
  9
$TRACEWID
 40
0.5
  9
$TEXTSTYLE
  7
STANDARD
  9
$CLAYER
  8
0
  9
$CELTYPE
  6
BYLAYER
  9
$CECOLOR
 62
256
  9
$DIMSCALE
 40
1
  9
$DIMASZ
 40
0.18
  9
$DIMEXO
 40
0.0625
  9
$DIMDLI
 40
0.38
  9
$DIMRND
 40
0
  9
$DIMDLE
 40
0
  9
$DIMEXE
 40
0.18
  9
$DIMTP
 40
0
  9
$DIMTM
 40
0
  9
$DIMTXT
 40
0.18
  9
$DIMCEN
 40
0.09
  9
$DIMTSZ
 40
0
  9
$DIMTOL
 70
0
  9
$DIMLIM
 70
0
  9
$DIMTIH
 70
1
  9
$DIMTOH
 70
1
  9
$DIMSE1
 70
0
  9
$DIMSE2
 70
0
  9
$DIMTAD
 70
0
  9
$DIMZIN
 70
0
  9
$DIMBLK
  1

  9
$DIMASO
 70
1
  9
$DIMSHO
 70
1
  9
$DIMPOST
  1

  9
$DIMAPOST
  1

  9
$DIMALT
 70
0
  9
$DIMALTD
 70
2
  9
$DIMALTF
 40
25.4
  9
$DIMLFAC
 40
1
  9
$DIMTOFL
 70
0
  9
$DIMTVP
 40
0
  9
$DIMTIX
 70
0
  9
$DIMSOXD
 70
0
  9
$DIMSAH
 70
0
  9
$DIMBLK1
  1

  9
$DIMBLK2
  1

  9
$DIMSTYLE
  2
*UNNAMED
  9
$DIMCLRD
 70
0
  9
$DIMCLRE
 70
0
  9
$DIMCLRT
 70
0
  9
$DIMTFAC
 40
1
  9
$DIMGAP
 40
0.09
  9
$LUNITS
 70
2
  9
$LUPREC
 70
4
  9
$AXISMODE
 70
0
  9
$AXISUNIT
 10
0
 20
0
  9
$SKETCHINC
 40
0.1
  9
$FILLETRAD
 40
2
  9
$AUNITS
 70
0
  9
$AUPREC
 70
0
  9
$MENU
  1
ACAD
  9
$ELEVATION
 40
0
  9
$THICKNESS
 40
0
  9
$VIEWDIR
 10
0
 20
0
 30
1
  9
$LIMCHECK
 70
0
  9
$BLIPMODE
 70
1
  9
$CHAMFERA
 40
0
  9
$CHAMFERB
 40
0
  9
$FASTZOOM
 70
1
  9
$SKPOLY
 70
0
  9
$ANGBASE
 50
0
  9
$ANGDIR
 70
0
  9
$PDMODE
 70
0
  9
$PDSIZE
 40
0
  9
$PLINEWID
 40
0
  9
$COORDS
 70
2
  0
ENDSEC
  0
SECTION
  2
TABLES
  0
TABLE
  2
DIMSTYLE
 70
0
  0
ENDTAB
  0
TABLE
  2
LTYPE
 70
9
  0
LTYPE
  2
CONTINUOUS
 70
64
  3
Solid line
 72
65
 73
0
 40
0
  0
LTYPE
  2
BORDER
 70
64
  3
__ __ . __ __ .
 72
65
 73
6
 40
12.38624647464203
 49
3.538927564183438
 49
-1.769463782091719
 49
3.538927564183438
 49
-1.769463782091719
 49
0
 49
-1.769463782091719
  0
LTYPE
  2
CENTER
 70
64
  3
____ _ ____ _
 72
65
 73
4
 40
14.15571025673375
 49
8.847318910458595
 49
-1.769463782091719
 49
1.769463782091719
 49
-1.769463782091719
  0
LTYPE
  2
DASHDOT
 70
64
  3
__ . __ . __ .
 72
65
 73
4
 40
7.077855128366876
 49
3.538927564183438
 49
-1.769463782091719
 49
0
 49
-1.769463782091719
  0
LTYPE
  2
DASHED
 70
64
  3
__ __ __ __ __
 72
65
 73
2
 40
5.308391346275156
 49
3.538927564183438
 49
-1.769463782091719
  0
LTYPE
  2
DIVIDE
 70
64
  3
__ . . __ . . 
 72
65
 73
6
 40
8.847318910458595
 49
3.538927564183438
 49
-1.769463782091719
 49
0
 49
-1.769463782091719
 49
0
 49
-1.769463782091719
  0
LTYPE
  2
DOT
 70
64
  3
..............
 72
65
 73
4
 40
3.538927564183438
 49
0
 49
-1.769463782091719
 49
0
 49
-1.769463782091719
  0
LTYPE
  2
HIDDEN
 70
64
  3
_ _ _ _ _ _ _
 72
65
 73
2
 40
2.654195673137578
 49
1.769463782091719
 49
-0.8847318910458595
  0
LTYPE
  2
PHANTOM
 70
64
  3
_____ _ _ _____ _ _ 
 72
65
 73
6
 40
17.69463782091719
 49
8.847318910458595
 49
-1.769463782091719
 49
1.769463782091719
 49
-1.769463782091719
 49
1.769463782091719
 49
-1.769463782091719
  0
ENDTAB
  0
TABLE
  2
LAYER
 70
3
  0
LAYER
  2
1
 70
0
 62
7
  6
CONTINUOUS
  0
LAYER
  2
0
 70
0
 62
7
  6
CONTINUOUS
  0
ENDTAB
  0
TABLE
  2
STYLE
 70
4
  0
STYLE
  2
STANDARD
 70
0
 40
0
 41
1
 50
0
 71
0
 42
3.5
  3
txt
  4

  0
STYLE
  2
SIMPLEX
 70
0
 40
0
 41
1
 50
0
 71
0
 42
3.5
  3
simplex
  4

  0
STYLE
  2
COMPLEX
 70
0
 40
0
 41
1
 50
0
 71
0
 42
3.5
  3
complex
  4

  0
STYLE
  2
ITALIC
 70
0
 40
0
 41
1
 50
0
 71
0
 42
3.5
  3
italic
  4

  0
ENDTAB
  0
TABLE
  2
VIEW
 70
0
  0
ENDTAB
  0
ENDSEC
  0
SECTION
  2
BLOCKS
  0
ENDSEC
  0
SECTION
  2
ENTITIES
  0
LINE
  8
1
 62
7
 10
-85.99999999999997
 20
53.99999999999999
 30
0
 11
-85.99999999999997
 21
34.72026615207899
 31
0
  0
LINE
  8
1
 62
7
 10
-102
 20
55.99999999999999
 30
0
 11
-87.99999999999997
 21
55.99999999999999
 31
0
  0
LINE
  8
1
 62
7
 10
-85.99999999999997
 20
22.0600121142346
 30
0
 11
-85.99999999999997
 21
-22.06001211423457
 31
0
  0
LINE
  8
1
 62
7
 10
-101
 20
24.0600121142346
 30
0
 11
-87.99999999999997
 21
24.0600121142346
 31
0
  0
LINE
  8
1
 62
7
 10
-101
 20
24.0600121142346
 30
0
 11
-101
 21
32.72026615207899
 31
0
  0
LINE
  8
1
 62
7
 10
-102
 20
23.55804251584649
 30
0
 11
-101
 21
24.0600121142346
 31
0
  0
LINE
  8
1
 62
7
 10
-101
 20
32.72026615207899
 30
0
 11
-87.99999999999997
 21
32.72026615207899
 31
0
  0
LINE
  8
1
 62
7
 10
-102
 20
32.21829655369089
 30
0
 11
-101
 21
32.72026615207899
 31
0
  0
LINE
  8
1
 62
7
 10
-76.99999999999997
 20
56.99999999999999
 30
0
 11
-76.99999999999997
 21
-56.99999999999999
 31
0
  0
LINE
  8
1
 62
7
 10
-87.99999999999997
 20
21.5494015702929
 30
0
 11
-99.49999999999996
 21
21.5494015702929
 31
0
  0
LINE
  8
1
 62
7
 10
-102
 20
22.8049517537661
 30
0
 11
-99.49999999999996
 21
21.5494015702929
 31
0
  0
LINE
  8
1
 62
7
 10
-102
 20
31.4652057916105
 30
0
 11
-102
 21
22.8049517537661
 31
0
  0
LINE
  8
1
 62
7
 10
-102
 20
32.21829655369089
 30
0
 11
-102
 21
22.8049517537661
 31
0
  0
LINE
  8
1
 62
7
 10
-87.99999999999997
 20
32.72026615207899
 30
0
 11
-99.49999999999996
 21
32.72026615207899
 31
0
  0
LINE
  8
1
 62
7
 10
-87.99999999999997
 20
51.99999999999999
 30
0
 11
-99.49999999999996
 21
51.99999999999999
 31
0
  0
LINE
  8
1
 62
7
 10
-102
 20
54.49999999999999
 30
0
 11
-99.49999999999996
 21
51.99999999999999
 31
0
  0
LINE
  8
1
 62
7
 10
-102
 20
54.49999999999999
 30
0
 11
-102
 21
55.99999999999999
 31
0
  0
LINE
  8
1
 62
7
 10
-101
 20
56.99999999999999
 30
0
 11
-102
 21
55.99999999999999
 31
0
  0
LINE
  8
1
 62
7
 10
-101
 20
56.99999999999999
 30
0
 11
-76.99999999999997
 21
56.99999999999999
 31
0
  0
LINE
  8
1
 62
7
 10
-75.99999999999997
 20
55.99999999999999
 30
0
 11
-75.99999999999997
 21
-55.99999999999999
 31
0
  0
LINE
  8
1
 62
7
 10
-75.99999999999997
 20
55.99999999999999
 30
0
 11
-76.99999999999997
 21
56.99999999999999
 31
0
  0
LINE
  8
1
 62
7
 10
-75.99999999999997
 20
55.99999999999999
 30
0
 11
-75.99999999999997
 21
-55.99999999999999
 31
0
  0
LINE
  8
1
 62
7
 10
-101
 20
56.99999999999999
 30
0
 11
-76.99999999999997
 21
56.99999999999999
 31
0
  0
LINE
  8
1
 62
7
 10
-161.6338364854895
 20
21.5494015702929
 30
0
 11
-157.2853314653643
 21
24.0600121142346
 31
0
  0
LINE
  8
1
 62
7
 10
-161.8262123500725
 20
21.96697393163559
 30
0
 11
-161.2008237835974
 21
21.7994015702929
 31
0
  0
LINE
  8
1
 62
7
 10
-166.2008237835974
 20
30.4596556081372
 30
0
 11
-166.36839614494
 21
29.834267041662
 31
0
  0
LINE
  8
1
 62
7
 10
-166.6338364854896
 20
30.2096556081372
 30
0
 11
-162.2853314653643
 21
32.72026615207889
 31
0
  0
LINE
  8
1
 62
7
 10
-166.6338364854896
 20
-30.20965560813728
 30
0
 11
-162.2853314653643
 21
-32.72026615207898
 31
0
  0
LINE
  8
1
 62
7
 10
-166.36839614494
 20
-29.83426704166201
 30
0
 11
-166.2008237835974
 21
-30.45965560813726
 31
0
  0
LINE
  8
1
 62
7
 10
-161.2008237835974
 20
-21.79940157029289
 30
0
 11
-161.8262123500725
 21
-21.96697393163559
 31
0
  0
LINE
  8
1
 62
7
 10
-161.6338364854895
 20
-21.54940157029289
 30
0
 11
-157.2853314653643
 21
-24.0600121142346
 31
0
  0
LINE
  8
1
 62
7
 10
-213.9584948779413
 20
-51.75905717843012
 30
0
 11
-213.9584948779413
 21
-56.78027826631354
 31
0
  0
LINE
  8
1
 62
7
 10
-213.5006786728088
 20
-51.80124097329756
 30
0
 11
-213.9584948779413
 21
-52.25905717843012
 31
0
  0
LINE
  8
1
 62
7
 10
-203.9584948779413
 20
-52.25905717843012
 30
0
 11
-204.4163110830739
 21
-51.80124097329756
 31
0
  0
LINE
  8
1
 62
7
 10
-203.9584948779413
 20
-51.75905717843012
 30
0
 11
-203.9584948779413
 21
-56.78027826631354
 31
0
  0
LINE
  8
1
 62
7
 10
-256.2831532703931
 20
-21.54940157029286
 30
0
 11
-260.6316582905184
 21
-24.06001211423457
 31
0
  0
LINE
  8
1
 62
7
 10
-256.0907774058102
 20
-21.96697393163556
 30
0
 11
-256.7161659722854
 21
-21.79940157029287
 31
0
  0
LINE
  8
1
 62
7
 10
-251.7161659722854
 20
-30.45965560813724
 30
0
 11
-251.5485936109427
 21
-29.83426704166198
 31
0
  0
LINE
  8
1
 62
7
 10
-251.2831532703932
 20
-30.20965560813724
 30
0
 11
-255.6316582905184
 21
-32.72026615207895
 31
0
  0
LINE
  8
1
 62
7
 10
-251.5485936109427
 20
29.834267041662
 30
0
 11
-251.7161659722854
 21
30.4596556081373
 31
0
  0
LINE
  8
1
 62
7
 10
-256.7161659722854
 20
21.7994015702929
 30
0
 11
-256.0907774058102
 21
21.96697393163559
 31
0
  0
LINE
  8
1
 62
7
 10
-256.2831532703931
 20
21.5494015702929
 30
0
 11
-260.6316582905184
 21
24.0600121142346
 31
0
  0
LINE
  8
1
 62
7
 10
-251.2831532703932
 20
30.2096556081373
 30
0
 11
-255.6316582905184
 21
32.72026615207899
 31
0
  0
LINE
  8
1
 62
7
 10
-204.4163110830739
 20
51.8012409732976
 30
0
 11
-203.9584948779413
 21
52.2590571784301
 31
0
  0
LINE
  8
1
 62
7
 10
-213.9584948779413
 20
52.2590571784301
 30
0
 11
-213.5006786728088
 21
51.8012409732976
 31
0
  0
LINE
  8
1
 62
7
 10
-213.9584948779413
 20
51.7590571784301
 30
0
 11
-213.9584948779413
 21
56.78027826631349
 31
0
  0
LINE
  8
1
 62
7
 10
-203.9584948779413
 20
51.7590571784301
 30
0
 11
-203.9584948779413
 21
56.78027826631349
 31
0
  0
LINE
  8
1
 62
7
 10
-25
 20
-32.72026615207899
 30
0
 11
-12
 21
-32.72026615207899
 31
0
  0
LINE
  8
1
 62
7
 10
-26
 20
-32.21829655369089
 30
0
 11
-25
 21
-32.72026615207899
 31
0
  0
LINE
  8
1
 62
7
 10
-5.499999999999999
 20
-38.99999999999999
 30
0
 11
0
 21
-38.99999999999999
 31
0
  0
LINE
  8
1
 62
7
 10
-5.499999999999999
 20
-38.99999999999999
 30
0
 11
-6.499999999999999
 21
-47.14434642797461
 31
0
  0
LINE
  8
1
 62
7
 10
-26
 20
-22.8049517537661
 30
0
 11
-26
 21
-32.21829655369089
 31
0
  0
LINE
  8
1
 62
7
 10
-23.5
 20
-21.5494015702929
 30
0
 11
-26
 21
-22.8049517537661
 31
0
  0
LINE
  8
1
 62
7
 10
-23.5
 20
-30.20965560813729
 30
0
 11
-26
 21
-31.4652057916105
 31
0
  0
LINE
  8
1
 62
7
 10
-23.5
 20
-21.5494015702929
 30
0
 11
-12
 21
-21.5494015702929
 31
0
  0
LINE
  8
1
 62
7
 10
-23.5
 20
-30.20965560813729
 30
0
 11
-23.5
 21
-21.5494015702929
 31
0
  0
LINE
  8
1
 62
7
 10
-12
 20
-30.20965560813729
 30
0
 11
-23.5
 21
-30.20965560813729
 31
0
  0
LINE
  8
1
 62
7
 10
-10
 20
-49.99999999999999
 30
0
 11
-10
 21
-32.20965560813729
 31
0
  0
LINE
  8
1
 62
7
 10
-0.9999999999999996
 20
-56.99999999999999
 30
0
 11
0
 21
-55.99999999999999
 31
0
  0
LINE
  8
1
 62
7
 10
-23.5
 20
-51.99999999999999
 30
0
 11
-26
 21
-54.49999999999999
 31
0
  0
LINE
  8
1
 62
7
 10
-26
 20
-55.99999999999999
 30
0
 11
-25
 21
-56.99999999999999
 31
0
  0
LINE
  8
1
 62
7
 10
-23.5
 20
-51.99999999999999
 30
0
 11
-8.5
 21
-51.99999999999999
 31
0
  0
LINE
  8
1
 62
7
 10
-26
 20
-55.99999999999999
 30
0
 11
-26
 21
-54.49999999999999
 31
0
  0
LINE
  8
1
 62
7
 10
-0.9999999999999996
 20
-56.99999999999999
 30
0
 11
-25
 21
-56.99999999999999
 31
0
  0
LINE
  8
1
 62
7
 10
-12
 20
32.72026615207899
 30
0
 11
-25
 21
32.72026615207899
 31
0
  0
LINE
  8
1
 62
7
 10
-25
 20
32.72026615207899
 30
0
 11
-26
 21
32.21829655369089
 31
0
  0
LINE
  8
1
 62
3
  6
DASHDOT
 10
-7.84826048116571
 20
47.49999999999999
 30
0
 11
1.440429277279634
 21
47.49999999999999
 31
0
  0
LINE
  8
1
 62
7
 10
0
 20
45.10000000000001
 30
0
 11
-6.248985821507802
 21
45.10000000000001
 31
0
  0
LINE
  8
1
 62
7
 10
-6.499999999999999
 20
49.89999999999999
 30
0
 11
0
 21
49.89999999999999
 31
0
  0
LINE
  8
1
 62
3
 10
0
 20
44.49999999999999
 30
0
 11
-6.175315084965973
 21
44.49999999999999
 31
0
  0
LINE
  8
1
 62
3
 10
0
 20
50.49999999999999
 30
0
 11
-6.563405138753467
 21
50.49999999999999
 31
0
  0
LINE
  8
1
 62
7
 10
-5.499999999999999
 20
38.99999999999999
 30
0
 11
-5.499999999999999
 21
-38.99999999999999
 31
0
  0
LINE
  8
1
 62
7
 10
-5.499999999999999
 20
38.99999999999999
 30
0
 11
0
 21
38.99999999999999
 31
0
  0
LINE
  8
1
 62
7
 10
-6.499999999999999
 20
47.14434642797461
 30
0
 11
-5.499999999999999
 21
38.99999999999999
 31
0
  0
LINE
  8
1
 62
7
 10
-26
 20
32.21829655369089
 30
0
 11
-26
 21
22.8049517537661
 31
0
  0
LINE
  8
1
 62
7
 10
-26
 20
22.8049517537661
 30
0
 11
-23.5
 21
21.5494015702929
 31
0
  0
LINE
  8
1
 62
7
 10
-26
 20
31.4652057916105
 30
0
 11
-23.5
 21
30.2096556081373
 31
0
  0
LINE
  8
1
 62
7
 10
-8.5
 20
51.99999999999999
 30
0
 11
-23.5
 21
51.99999999999999
 31
0
  0
LINE
  8
1
 62
7
 10
-10
 20
19.5494015702929
 30
0
 11
-10
 21
-19.5494015702929
 31
0
  0
LINE
  8
1
 62
7
 10
-12
 20
21.5494015702929
 30
0
 11
-23.5
 21
21.5494015702929
 31
0
  0
LINE
  8
1
 62
7
 10
-23.5
 20
21.5494015702929
 30
0
 11
-23.5
 21
30.2096556081373
 31
0
  0
LINE
  8
1
 62
7
 10
-23.5
 20
30.2096556081373
 30
0
 11
-12
 21
30.2096556081373
 31
0
  0
LINE
  8
1
 62
7
 10
-10
 20
49.99999999999999
 30
0
 11
-10
 21
32.2096556081373
 31
0
  0
LINE
  8
1
 62
7
 10
0
 20
55.99999999999999
 30
0
 11
-0.9999999999999996
 21
56.99999999999999
 31
0
  0
LINE
  8
1
 62
7
 10
-26
 20
54.49999999999999
 30
0
 11
-23.5
 21
51.99999999999999
 31
0
  0
LINE
  8
1
 62
7
 10
-25
 20
56.99999999999999
 30
0
 11
-26
 21
55.99999999999999
 31
0
  0
LINE
  8
1
 62
7
 10
-6.499999999999999
 20
-49.99999999999999
 30
0
 11
-6.499999999999999
 21
49.99999999999999
 31
0
  0
LINE
  8
1
 62
7
 10
-26
 20
54.49999999999999
 30
0
 11
-26
 21
55.99999999999999
 31
0
  0
LINE
  8
1
 62
7
 10
-25
 20
56.99999999999999
 30
0
 11
-0.9999999999999996
 21
56.99999999999999
 31
0
  0
LINE
  8
1
 62
7
 10
0
 20
55.99999999999999
 30
0
 11
0
 21
-55.99999999999999
 31
0
  0
LINE
  8
1
 62
3
 10
3
 20
0
 30
0
 11
0
 21
0
 31
0
  0
LINE
  8
1
 62
3
 10
-10
 20
0
 30
0
 11
-13
 21
0
 31
0
  0
LINE
  8
1
 62
7
 10
-87.99999999999997
 20
-56.00000000000002
 30
0
 11
-102
 21
-55.99999999999999
 31
0
  0
LINE
  8
1
 62
7
 10
-87.99999999999997
 20
-24.06001211423457
 30
0
 11
-101
 21
-24.06001211423457
 31
0
  0
LINE
  8
1
 62
7
 10
-101
 20
-32.72026615207896
 30
0
 11
-101
 21
-24.06001211423457
 31
0
  0
LINE
  8
1
 62
7
 10
-101
 20
-24.06001211423457
 30
0
 11
-102
 21
-23.55804251584648
 31
0
  0
LINE
  8
1
 62
7
 10
-87.99999999999997
 20
-32.72026615207896
 30
0
 11
-101
 21
-32.72026615207896
 31
0
  0
LINE
  8
1
 62
7
 10
-101
 20
-32.72026615207896
 30
0
 11
-102
 21
-32.21829655369087
 31
0
  0
LINE
  8
1
 62
7
 10
-99.49999999999996
 20
-21.54940157029286
 30
0
 11
-87.99999999999997
 21
-21.54940157029286
 31
0
  0
LINE
  8
1
 62
7
 10
-99.49999999999996
 20
-21.54940157029286
 30
0
 11
-102
 21
-22.8049517537661
 31
0
  0
LINE
  8
1
 62
7
 10
-102
 20
-22.8049517537661
 30
0
 11
-102
 21
-31.4652057916105
 31
0
  0
LINE
  8
1
 62
7
 10
-102
 20
-22.8049517537661
 30
0
 11
-102
 21
-32.21829655369087
 31
0
  0
LINE
  8
1
 62
7
 10
-99.49999999999996
 20
-32.72026615207896
 30
0
 11
-87.99999999999997
 21
-32.72026615207896
 31
0
  0
LINE
  8
1
 62
7
 10
-85.99999999999997
 20
-34.72026615207896
 30
0
 11
-85.99999999999997
 21
-54.00000000000002
 31
0
  0
LINE
  8
1
 62
7
 10
-99.49999999999996
 20
-52.00000000000001
 30
0
 11
-87.99999999999997
 21
-52.00000000000001
 31
0
  0
LINE
  8
1
 62
7
 10
-99.49999999999996
 20
-52.00000000000001
 30
0
 11
-102
 21
-54.50000000000002
 31
0
  0
LINE
  8
1
 62
7
 10
-102
 20
-55.99999999999999
 30
0
 11
-102
 21
-54.50000000000002
 31
0
  0
LINE
  8
1
 62
7
 10
-102
 20
-55.99999999999999
 30
0
 11
-101
 21
-57.00000000000002
 31
0
  0
LINE
  8
1
 62
7
 10
-76.99999999999997
 20
-56.99999999999999
 30
0
 11
-101
 21
-57.00000000000002
 31
0
  0
LINE
  8
1
 62
7
 10
-76.99999999999997
 20
-56.99999999999999
 30
0
 11
-75.99999999999997
 21
-55.99999999999999
 31
0
  0
LINE
  8
1
 62
7
 10
-76.99999999999997
 20
-56.99999999999999
 30
0
 11
-101
 21
-57.00000000000002
 31
0
  0
LINE
  8
1
 62
3
 10
-72.99999999999997
 20
0
 30
0
 11
-75.99999999999997
 21
0
 31
0
  0
LINE
  8
1
 62
3
 10
-85.99999999999997
 20
0
 30
0
 11
-88.99999999999997
 21
0
 31
0
  0
LINE
  8
1
 62
3
  6
DASHDOT
 10
-208.9584948779413
 20
43.647747996359
 30
0
 11
-208.9584948779413
 21
51.340782899422
 31
0
  0
LINE
  8
1
 62
3
  6
DASHDOT
 10
-252.6062428743004
 20
0
 30
0
 11
-260.2992777773634
 21
0
 31
0
  0
LINE
  8
1
 62
3
  6
DASHDOT
 10
-208.9584948779413
 20
-43.64774799635899
 30
0
 11
-208.9584948779413
 21
-51.340782899422
 31
0
  0
LINE
  8
1
 62
3
  6
DASHDOT
 10
-165.3107468815823
 20
0
 30
0
 11
-157.6177119785194
 21
0
 31
0
  0
LINE
  8
1
 62
3
  6
DASHDOT
 10
-206.31144176937
 20
0
 30
0
 11
-211.6055479865126
 21
0
 31
0
  0
LINE
  8
1
 62
3
  6
DASHDOT
 10
-208.9584948779413
 20
2.647053108571299
 30
0
 11
-208.9584948779413
 21
-2.647053108571299
 31
0
  0
ARC
  8
1
 62
7
 10
-87.99999999999997
 20
53.99999999999999
 30
0
 40
2
 50
0
 51
90
  0
ARC
  8
1
 62
7
 10
-87.99999999999997
 20
22.0600121142346
 30
0
 40
2
 50
0
 51
90
  0
ARC
  8
1
 62
7
 10
-87.99999999999997
 20
19.5494015702929
 30
0
 40
2
 50
0
 51
90
  0
ARC
  8
1
 62
7
 10
-87.99999999999997
 20
34.72026615207899
 30
0
 40
2
 50
270
 51
0
  0
ARC
  8
1
 62
7
 10
-87.99999999999997
 20
49.99999999999999
 30
0
 40
2
 50
0
 51
90
  0
ARC
  8
1
 62
7
 10
-12
 20
-34.72026615207899
 30
0
 40
2
 50
0
 51
90
  0
ARC
  8
1
 62
7
 10
-12
 20
-49.99999999999999
 30
0
 40
2
 50
270
 51
0
  0
ARC
  8
1
 62
7
 10
-12
 20
-19.5494015702929
 30
0
 40
2
 50
270
 51
0
  0
ARC
  8
1
 62
7
 10
-12
 20
-32.20965560813729
 30
0
 40
2
 50
0
 51
90
  0
ARC
  8
1
 62
7
 10
-8.5
 20
-49.99999999999999
 30
0
 40
2
 50
270
 51
0
  0
ARC
  8
1
 62
7
 10
-12
 20
34.72026615207899
 30
0
 40
2
 50
270
 51
0
  0
ARC
  8
1
 62
7
 10
-12
 20
49.99999999999999
 30
0
 40
2
 50
0
 51
90
  0
ARC
  8
1
 62
7
 10
-12
 20
19.5494015702929
 30
0
 40
2
 50
0
 51
90
  0
ARC
  8
1
 62
7
 10
-12
 20
32.2096556081373
 30
0
 40
1.999999999999996
 50
270
 51
0
  0
ARC
  8
1
 62
7
 10
-8.5
 20
49.99999999999999
 30
0
 40
2.000000000000001
 50
0
 51
90
  0
ARC
  8
1
 62
7
 10
-87.99999999999997
 20
-54.00000000000002
 30
0
 40
2
 50
270
 51
0
  0
ARC
  8
1
 62
7
 10
-87.99999999999997
 20
-22.06001211423457
 30
0
 40
2
 50
270
 51
0
  0
ARC
  8
1
 62
7
 10
-87.99999999999997
 20
-19.54940157029286
 30
0
 40
2
 50
270
 51
0
  0
ARC
  8
1
 62
7
 10
-87.99999999999997
 20
-34.72026615207899
 30
0
 40
2
 50
0
 51
90
  0
ARC
  8
1
 62
7
 10
-87.99999999999997
 20
-50.00000000000001
 30
0
 40
2
 50
270
 51
0
  0
ARC
  8
1
 62
7
 10
-208.9584948779413
 20
0
 30
0
 40
46.45969643242809
 50
273.4324481742835
 51
356.5675518257163
  0
ARC
  8
1
 62
7
 10
-208.9584948779413
 20
0
 30
0
 40
46.45969643242813
 50
93.43244817428371
 51
176.5675518257164
  0
ARC
  8
1
 62
7
 10
-208.9584948779413
 20
0
 30
0
 40
46.45969643242812
 50
3.432448174283718
 51
86.56755182571634
  0
ARC
  8
1
 62
7
 10
-208.9584948779413
 20
0
 30
0
 40
46.45969643242814
 50
183.4324481742836
 51
266.5675518257163
  0
ARC
  8
1
 62
7
 10
-208.9584948779413
 20
0
 30
0
 40
54.49999999999998
 50
24.73610458814659
 51
35.26389541185338
  0
ARC
  8
1
 62
7
 10
-208.9584948779413
 20
0
 30
0
 40
55.99999999999994
 50
24.87748390021913
 51
35.12251609978095
  0
ARC
  8
1
 62
7
 10
-208.9584948779413
 20
0
 30
0
 40
54.49999999999999
 50
324.7361045881466
 51
335.2638954118534
  0
ARC
  8
1
 62
7
 10
-208.9584948779413
 20
0
 30
0
 40
55.99999999999999
 50
324.877483900219
 51
335.1225160997809
  0
ARC
  8
1
 62
7
 10
-208.9584948779413
 20
0
 30
0
 40
54.49999999999999
 50
264.7361045881466
 51
275.2638954118534
  0
ARC
  8
1
 62
7
 10
-208.9584948779413
 20
0
 30
0
 40
55.99999999999999
 50
264.8774839002192
 51
275.1225160997809
  0
ARC
  8
1
 62
7
 10
-208.9584948779413
 20
0
 30
0
 40
54.49999999999998
 50
204.7361045881466
 51
215.2638954118533
  0
ARC
  8
1
 62
7
 10
-208.9584948779413
 20
0
 30
0
 40
56.00000000000011
 50
204.877483900219
 51
215.1225160997808
  0
ARC
  8
1
 62
7
 10
-208.9584948779413
 20
0
 30
0
 40
54.50000000000003
 50
144.7361045881466
 51
155.2638954118534
  0
ARC
  8
1
 62
7
 10
-208.9584948779413
 20
0
 30
0
 40
56.00000000000006
 50
144.8774839002191
 51
155.1225160997809
  0
ARC
  8
1
 62
7
 10
-208.9584948779413
 20
0
 30
0
 40
54.49999999999996
 50
84.7361045881466
 51
95.2638954118534
  0
ARC
  8
1
 62
7
 10
-208.9584948779413
 20
0
 30
0
 40
56.00000000000002
 50
84.8774839002191
 51
95.1225160997809
  0
ARC
  8
1
 62
3
  6
DASHDOT
 10
-208.9584948779413
 20
0
 30
0
 40
47.5
 50
84.40805425808696
 51
95.11715267962264
  0
ARC
  8
1
 62
3
  6
DASHDOT
 10
-208.9584948779413
 20
0
 30
0
 40
47.50000000000006
 50
174.4080542580869
 51
185.1171526796226
  0
ARC
  8
1
 62
3
  6
DASHDOT
 10
-208.9584948779413
 20
0
 30
0
 40
47.49999999999995
 50
264.4080542580871
 51
275.1171526796224
  0
ARC
  8
1
 62
3
  6
DASHDOT
 10
-208.9584948779413
 20
0
 30
0
 40
47.49999999999991
 50
354.408054258087
 51
5.117152679622589
  0
CIRCLE
  8
1
 62
7
 10
-161.4584948779413
 20
0
 30
0
 40
2.399999999999977
  0
CIRCLE
  8
1
 62
3
 10
-161.4584948779413
 20
0
 30
0
 40
3
  0
CIRCLE
  8
1
 62
7
 10
-208.9584948779413
 20
-47.50000000000001
 30
0
 40
2.400000000000091
  0
CIRCLE
  8
1
 62
3
 10
-208.9584948779413
 20
-47.50000000000001
 30
0
 40
3
  0
CIRCLE
  8
1
 62
7
 10
-256.4584948779413
 20
0
 30
0
 40
2.399999999999977
  0
CIRCLE
  8
1
 62
3
 10
-256.4584948779413
 20
0
 30
0
 40
3
  0
CIRCLE
  8
1
 62
3
 10
-208.9584948779413
 20
47.49999999999999
 30
0
 40
3
  0
CIRCLE
  8
1
 62
7
 10
-208.9584948779413
 20
47.49999999999999
 30
0
 40
2.399999999999977
  0
CIRCLE
  8
1
 62
7
 10
-208.9584948779413
 20
0
 30
0
 40
52
  0
CIRCLE
  8
1
 62
7
 10
-208.9584948779413
 20
0
 30
0
 40
57
  0
CIRCLE
  8
1
 62
7
 10
-208.9584948779413
 20
0
 30
0
 40
39
  0
TEXT
  8
1
 62
7
 10
-219.2777266105493
 20
76.32599155568799
 30
0
 40
3.5
  1
DC4403
 41
0.9
  7
SIMPLEX
  0
TEXT
  8
1
 62
7
 10
-219.2777266105493
 20
81.57599155568799
 30
0
 40
3.5
  1
UN 5
 41
0.9
  7
SIMPLEX
  0
ENDSEC
  0
EOF
