  0
SECTION
  2
HEADER
  9
$ACADVER
  1
AC1009
  9
$INSBASE
 10
0
 20
0
  9
$EXTMIN
 10
-298.9995542806104
 20
-67.5
  9
$EXTMAX
 10
3
 20
97.42372005969699
  9
$LIMMIN
 10
-298.9995542806104
 20
-67.5
  9
$LIMMAX
 10
3
 20
97.42372005969699
  9
$VIEWCTR
 10
10
 20
10
  9
$VIEWSIZE
 40
10
  9
$SNAPMODE
 70
0
  9
$SNAPUNIT
 10
1
 20
1
  9
$SNAPBASE
 10
0
 20
0
  9
$SNAPANG
 50
0
  9
$SNAPSTYLE
 70
0
  9
$SNAPISOPAIR
 70
0
  9
$GRIDMODE
 70
0
  9
$GRIDUNIT
 10
0
 20
0
  9
$ORTHOMODE
 70
0
  9
$REGENMODE
 70
1
  9
$FILLMODE
 70
1
  9
$QTEXTMODE
 70
0
  9
$DRAGMODE
 70
2
  9
$LTSCALE
 40
1
  9
$OSMODE
 70
0
  9
$ATTMODE
 70
1
  9
$TEXTSIZE
 40
3.5
  9
$TRACEWID
 40
0.5
  9
$TEXTSTYLE
  7
STANDARD
  9
$CLAYER
  8
0
  9
$CELTYPE
  6
BYLAYER
  9
$CECOLOR
 62
256
  9
$DIMSCALE
 40
1
  9
$DIMASZ
 40
0.18
  9
$DIMEXO
 40
0.0625
  9
$DIMDLI
 40
0.38
  9
$DIMRND
 40
0
  9
$DIMDLE
 40
0
  9
$DIMEXE
 40
0.18
  9
$DIMTP
 40
0
  9
$DIMTM
 40
0
  9
$DIMTXT
 40
0.18
  9
$DIMCEN
 40
0.09
  9
$DIMTSZ
 40
0
  9
$DIMTOL
 70
0
  9
$DIMLIM
 70
0
  9
$DIMTIH
 70
1
  9
$DIMTOH
 70
1
  9
$DIMSE1
 70
0
  9
$DIMSE2
 70
0
  9
$DIMTAD
 70
0
  9
$DIMZIN
 70
0
  9
$DIMBLK
  1

  9
$DIMASO
 70
1
  9
$DIMSHO
 70
1
  9
$DIMPOST
  1

  9
$DIMAPOST
  1

  9
$DIMALT
 70
0
  9
$DIMALTD
 70
2
  9
$DIMALTF
 40
25.4
  9
$DIMLFAC
 40
1
  9
$DIMTOFL
 70
0
  9
$DIMTVP
 40
0
  9
$DIMTIX
 70
0
  9
$DIMSOXD
 70
0
  9
$DIMSAH
 70
0
  9
$DIMBLK1
  1

  9
$DIMBLK2
  1

  9
$DIMSTYLE
  2
*UNNAMED
  9
$DIMCLRD
 70
0
  9
$DIMCLRE
 70
0
  9
$DIMCLRT
 70
0
  9
$DIMTFAC
 40
1
  9
$DIMGAP
 40
0.09
  9
$LUNITS
 70
2
  9
$LUPREC
 70
4
  9
$AXISMODE
 70
0
  9
$AXISUNIT
 10
0
 20
0
  9
$SKETCHINC
 40
0.1
  9
$FILLETRAD
 40
2
  9
$AUNITS
 70
0
  9
$AUPREC
 70
0
  9
$MENU
  1
ACAD
  9
$ELEVATION
 40
0
  9
$THICKNESS
 40
0
  9
$VIEWDIR
 10
0
 20
0
 30
1
  9
$LIMCHECK
 70
0
  9
$BLIPMODE
 70
1
  9
$CHAMFERA
 40
0
  9
$CHAMFERB
 40
0
  9
$FASTZOOM
 70
1
  9
$SKPOLY
 70
0
  9
$ANGBASE
 50
0
  9
$ANGDIR
 70
0
  9
$PDMODE
 70
0
  9
$PDSIZE
 40
0
  9
$PLINEWID
 40
0
  9
$COORDS
 70
2
  0
ENDSEC
  0
SECTION
  2
TABLES
  0
TABLE
  2
DIMSTYLE
 70
0
  0
ENDTAB
  0
TABLE
  2
LTYPE
 70
9
  0
LTYPE
  2
CONTINUOUS
 70
64
  3
Solid line
 72
65
 73
0
 40
0
  0
LTYPE
  2
BORDER
 70
64
  3
__ __ . __ __ .
 72
65
 73
6
 40
13.90787421029127
 49
3.973678345797506
 49
-1.986839172898753
 49
3.973678345797506
 49
-1.986839172898753
 49
0
 49
-1.986839172898753
  0
LTYPE
  2
CENTER
 70
64
  3
____ _ ____ _
 72
65
 73
4
 40
15.89471338319002
 49
9.934195864493765
 49
-1.986839172898753
 49
1.986839172898753
 49
-1.986839172898753
  0
LTYPE
  2
DASHDOT
 70
64
  3
__ . __ . __ .
 72
65
 73
4
 40
7.947356691595012
 49
3.973678345797506
 49
-1.986839172898753
 49
0
 49
-1.986839172898753
  0
LTYPE
  2
DASHED
 70
64
  3
__ __ __ __ __
 72
65
 73
2
 40
5.960517518696259
 49
3.973678345797506
 49
-1.986839172898753
  0
LTYPE
  2
DIVIDE
 70
64
  3
__ . . __ . . 
 72
65
 73
6
 40
9.934195864493765
 49
3.973678345797506
 49
-1.986839172898753
 49
0
 49
-1.986839172898753
 49
0
 49
-1.986839172898753
  0
LTYPE
  2
DOT
 70
64
  3
..............
 72
65
 73
4
 40
3.973678345797506
 49
0
 49
-1.986839172898753
 49
0
 49
-1.986839172898753
  0
LTYPE
  2
HIDDEN
 70
64
  3
_ _ _ _ _ _ _
 72
65
 73
2
 40
2.980258759348129
 49
1.986839172898753
 49
-0.9934195864493765
  0
LTYPE
  2
PHANTOM
 70
64
  3
_____ _ _ _____ _ _ 
 72
65
 73
6
 40
19.86839172898753
 49
9.934195864493765
 49
-1.986839172898753
 49
1.986839172898753
 49
-1.986839172898753
 49
1.986839172898753
 49
-1.986839172898753
  0
ENDTAB
  0
TABLE
  2
LAYER
 70
3
  0
LAYER
  2
1
 70
0
 62
7
  6
CONTINUOUS
  0
LAYER
  2
0
 70
0
 62
7
  6
CONTINUOUS
  0
ENDTAB
  0
TABLE
  2
STYLE
 70
4
  0
STYLE
  2
STANDARD
 70
0
 40
0
 41
1
 50
0
 71
0
 42
3.5
  3
txt
  4

  0
STYLE
  2
SIMPLEX
 70
0
 40
0
 41
1
 50
0
 71
0
 42
3.5
  3
simplex
  4

  0
STYLE
  2
COMPLEX
 70
0
 40
0
 41
1
 50
0
 71
0
 42
3.5
  3
complex
  4

  0
STYLE
  2
ITALIC
 70
0
 40
0
 41
1
 50
0
 71
0
 42
3.5
  3
italic
  4

  0
ENDTAB
  0
TABLE
  2
VIEW
 70
0
  0
ENDTAB
  0
ENDSEC
  0
SECTION
  2
BLOCKS
  0
ENDSEC
  0
SECTION
  2
ENTITIES
  0
LINE
  8
1
 62
7
 10
-12
 20
38.79946106736151
 30
0
 11
-12
 21
58.49999999999991
 31
0
  0
LINE
  8
1
 62
7
 10
-7
 20
59.5
 30
0
 11
-7
 21
-59.49999999999999
 31
0
  0
LINE
  8
1
 62
7
 10
-94
 20
63.5
 30
0
 11
-94
 21
41.8125546692292
 31
0
  0
LINE
  8
1
 62
7
 10
-97
 20
61.5
 30
0
 11
-111
 21
61.5000000000002
 31
0
  0
LINE
  8
1
 62
7
 10
-97
 20
38.8125546692292
 30
0
 11
-113
 21
38.8125546692292
 31
0
  0
LINE
  8
1
 62
7
 10
-97
 20
28.42024982381591
 30
0
 11
-113
 21
28.42024982381591
 31
0
  0
LINE
  8
1
 62
7
 10
-97
 20
25.40715622194821
 30
0
 11
-111
 21
25.40715622194821
 31
0
  0
LINE
  8
1
 62
7
 10
-237.4995542806104
 20
67.23280449304491
 30
0
 11
-237.4995542806104
 21
61.7089944821661
 31
0
  0
LINE
  8
1
 62
7
 10
-225.4995542806104
 20
67.23280449304491
 30
0
 11
-225.4995542806104
 21
61.7089944821661
 31
0
  0
LINE
  8
1
 62
7
 10
-237.4995542806104
 20
61.7089944821661
 30
0
 11
-236.9995542806104
 21
61.25357132445421
 31
0
  0
LINE
  8
1
 62
7
 10
-225.4995542806104
 20
61.7089944821661
 30
0
 11
-225.9995542806104
 21
61.25357132445421
 31
0
  0
LINE
  8
1
 62
7
 10
-292.7248709392595
 20
28.42024982381582
 30
0
 11
-287.9411111441594
 21
25.65834481837641
 31
0
  0
LINE
  8
1
 62
7
 10
-286.7248709392595
 20
-38.8125546692292
 30
0
 11
-281.9411111441594
 21
-36.05064966378978
 31
0
  0
LINE
  8
1
 62
7
 10
-225.4995542806104
 20
-67.23280449304498
 30
0
 11
-225.4995542806104
 21
-61.70899448216609
 31
0
  0
LINE
  8
1
 62
7
 10
-170.2742376219605
 20
-28.42024982381568
 30
0
 11
-175.0579974170605
 21
-25.65834481837629
 31
0
  0
LINE
  8
1
 62
7
 10
-176.2742376219616
 20
38.8125546692292
 30
0
 11
-181.0579974170605
 21
36.05064966378981
 31
0
  0
LINE
  8
1
 62
7
 10
-286.7248709392595
 20
38.81255466922912
 30
0
 11
-281.9411111441594
 21
36.0506496637897
 31
0
  0
LINE
  8
1
 62
7
 10
-292.7248709392595
 20
-28.42024982381588
 30
0
 11
-287.9411111441594
 21
-25.65834481837649
 31
0
  0
LINE
  8
1
 62
7
 10
-237.4995542806104
 20
-67.23280449304498
 30
0
 11
-237.4995542806104
 21
-61.70899448216609
 31
0
  0
LINE
  8
1
 62
7
 10
-176.2742376219605
 20
-38.812554669229
 30
0
 11
-181.0579974170605
 21
-36.0506496637895
 31
0
  0
LINE
  8
1
 62
7
 10
-170.2742376219616
 20
28.42024982381602
 30
0
 11
-175.0579974170605
 21
25.65834481837661
 31
0
  0
LINE
  8
1
 62
7
 10
-287.9411111441594
 20
25.65834481837641
 30
0
 11
-287.2967031201095
 21
25.8636459414127
 31
0
  0
LINE
  8
1
 62
7
 10
-281.9411111441594
 20
-36.05064966378978
 30
0
 11
-281.7967031201095
 21
-35.3899253830416
 31
0
  0
LINE
  8
1
 62
7
 10
-225.4995542806104
 20
-61.70899448216609
 30
0
 11
-225.9995542806104
 21
-61.25357132445428
 31
0
  0
LINE
  8
1
 62
7
 10
-175.0579974170605
 20
-25.65834481837629
 30
0
 11
-175.7024054411115
 21
-25.8636459414125
 31
0
  0
LINE
  8
1
 62
7
 10
-181.0579974170605
 20
36.05064966378981
 30
0
 11
-181.2024054411115
 21
35.38992538304171
 31
0
  0
LINE
  8
1
 62
7
 10
-281.9411111441594
 20
36.0506496637897
 30
0
 11
-281.7967031201095
 21
35.38992538304151
 31
0
  0
LINE
  8
1
 62
7
 10
-287.9411111441594
 20
-25.65834481837649
 30
0
 11
-287.2967031201095
 21
-25.86364594141278
 31
0
  0
LINE
  8
1
 62
7
 10
-237.4995542806104
 20
-61.70899448216609
 30
0
 11
-236.9995542806104
 21
-61.25357132445428
 31
0
  0
LINE
  8
1
 62
7
 10
-181.0579974170605
 20
-36.0506496637895
 30
0
 11
-181.2024054411115
 21
-35.3899253830414
 31
0
  0
LINE
  8
1
 62
7
 10
-175.0579974170605
 20
25.65834481837661
 30
0
 11
-175.7024054411115
 21
25.86364594141293
 31
0
  0
LINE
  8
1
 62
7
 10
-97
 20
66.5
 30
0
 11
-114
 21
66.5
 31
0
  0
LINE
  8
1
 62
7
 10
-114
 20
66.5
 30
0
 11
-113
 21
67.5
 31
0
  0
LINE
  8
1
 62
7
 10
-113
 20
28.42024982381591
 30
0
 11
-113
 21
38.8125546692292
 31
0
  0
LINE
  8
1
 62
7
 10
-114
 20
27.91751457036531
 30
0
 11
-113
 21
28.42024982381591
 31
0
  0
LINE
  8
1
 62
7
 10
-83
 20
67.5
 30
0
 11
-83
 21
-67.49999999999989
 31
0
  0
LINE
  8
1
 62
7
 10
-83
 20
67.5
 30
0
 11
-113
 21
67.5
 31
0
  0
LINE
  8
1
 62
7
 10
-82
 20
66.5
 30
0
 11
-83
 21
67.5
 31
0
  0
LINE
  8
1
 62
7
 10
-111
 20
61.5000000000002
 30
0
 11
-114
 21
64.5
 31
0
  0
LINE
  8
1
 62
7
 10
-114
 20
64.5
 30
0
 11
-114
 21
66.5
 31
0
  0
LINE
  8
1
 62
7
 10
-94
 20
25.42024982381591
 30
0
 11
-94
 21
-25.42024982381579
 31
0
  0
LINE
  8
1
 62
7
 10
-111
 20
25.40715622194821
 30
0
 11
-114
 21
26.9140095202049
 31
0
  0
LINE
  8
1
 62
7
 10
-114
 20
26.9140095202049
 30
0
 11
-114
 21
38.31053751438552
 31
0
  0
LINE
  8
1
 62
7
 10
-113
 20
38.8125546692292
 30
0
 11
-114
 21
38.31053751438552
 31
0
  0
LINE
  8
1
 62
7
 10
-15
 20
-25.4071562219483
 30
0
 11
-29
 21
-25.4071562219483
 31
0
  0
LINE
  8
1
 62
7
 10
-15
 20
-35.79946106736148
 30
0
 11
-29
 21
-35.79946106736148
 31
0
  0
LINE
  8
1
 62
7
 10
-15
 20
-38.8125546692292
 30
0
 11
-31
 21
-38.8125546692292
 31
0
  0
LINE
  8
1
 62
7
 10
0
 20
-66.49999999999999
 30
0
 11
-0.9999999999999996
 21
-67.49999999999999
 31
0
  0
LINE
  8
1
 62
7
 10
-29
 20
-61.49999999999999
 30
0
 11
-9
 21
-61.49999999999999
 31
0
  0
LINE
  8
1
 62
7
 10
-0.9999999999999996
 20
-67.49999999999999
 30
0
 11
-31
 21
-67.49999999999999
 31
0
  0
LINE
  8
1
 62
7
 10
-12
 20
-38.79946106736148
 30
0
 11
-12
 21
-58.49999999999989
 31
0
  0
LINE
  8
1
 62
7
 10
-29
 20
-35.79946106736148
 30
0
 11
-29
 21
-25.4071562219483
 31
0
  0
LINE
  8
1
 62
7
 10
-29
 20
-35.79946106736148
 30
0
 11
-32
 21
-37.30631436561828
 31
0
  0
LINE
  8
1
 62
7
 10
-29
 20
-25.4071562219483
 30
0
 11
-32
 21
-26.91400952020498
 31
0
  0
LINE
  8
1
 62
7
 10
-29
 20
-61.49999999999999
 30
0
 11
-32
 21
-64.49999999999999
 31
0
  0
LINE
  8
1
 62
7
 10
-31
 20
-67.49999999999999
 30
0
 11
-32
 21
-66.49999999999999
 31
0
  0
LINE
  8
1
 62
7
 10
-32
 20
-66.49999999999999
 30
0
 11
-32
 21
-64.49999999999999
 31
0
  0
LINE
  8
1
 62
7
 10
0
 20
-47.5
 30
0
 11
-6
 21
-47.49999999999989
 31
0
  0
LINE
  8
1
 62
7
 10
-31
 20
-38.8125546692292
 30
0
 11
-32
 21
-38.3105375143856
 31
0
  0
LINE
  8
1
 62
7
 10
-32
 20
-38.3105375143856
 30
0
 11
-32
 21
-26.91400952020498
 31
0
  0
LINE
  8
1
 62
7
 10
-6
 20
-47.49999999999989
 30
0
 11
-7
 21
-55.64434642797269
 31
0
  0
LINE
  8
1
 62
7
 10
-12
 20
22.4071562219483
 30
0
 11
-12
 21
-22.4071562219483
 31
0
  0
LINE
  8
1
 62
7
 10
-29
 20
25.4071562219483
 30
0
 11
-15
 21
25.4071562219483
 31
0
  0
LINE
  8
1
 62
7
 10
-29
 20
35.79946106736151
 30
0
 11
-15
 21
35.79946106736151
 31
0
  0
LINE
  8
1
 62
7
 10
-31
 20
38.8125546692292
 30
0
 11
-15
 21
38.8125546692292
 31
0
  0
LINE
  8
1
 62
7
 10
-9
 20
61.5
 30
0
 11
-29
 21
61.5
 31
0
  0
LINE
  8
1
 62
7
 10
-0.9999999999999996
 20
67.5
 30
0
 11
0
 21
66.5
 31
0
  0
LINE
  8
1
 62
7
 10
0
 20
66.5
 30
0
 11
0
 21
-66.49999999999999
 31
0
  0
LINE
  8
1
 62
7
 10
-31
 20
67.5
 30
0
 11
-0.9999999999999996
 21
67.5
 31
0
  0
LINE
  8
1
 62
7
 10
-29
 20
25.4071562219483
 30
0
 11
-29
 21
35.79946106736151
 31
0
  0
LINE
  8
1
 62
7
 10
-32
 20
37.30631436561831
 30
0
 11
-29
 21
35.79946106736151
 31
0
  0
LINE
  8
1
 62
7
 10
-32
 20
26.91400952020501
 30
0
 11
-29
 21
25.4071562219483
 31
0
  0
LINE
  8
1
 62
3
 10
0
 20
60.5
 30
0
 11
-7.272974893900368
 21
60.5
 31
0
  0
LINE
  8
1
 62
7
 10
0
 20
60
 30
0
 11
-7.066189155985739
 21
60
 31
0
  0
LINE
  8
1
 62
3
  6
DASHDOT
 10
-7.608073833688877
 20
57.5
 30
0
 11
0.6668449097210214
 21
57.5
 31
0
  0
LINE
  8
1
 62
7
 10
-6.920884206771915
 20
54.99999999999991
 30
0
 11
0
 21
55
 31
0
  0
LINE
  8
1
 62
7
 10
-32
 20
64.5
 30
0
 11
-29
 21
61.5
 31
0
  0
LINE
  8
1
 62
7
 10
-32
 20
66.5
 30
0
 11
-31
 21
67.5
 31
0
  0
LINE
  8
1
 62
7
 10
-32
 20
64.5
 30
0
 11
-32
 21
66.5
 31
0
  0
LINE
  8
1
 62
7
 10
-6
 20
47.49999999999991
 30
0
 11
-6
 21
-47.49999999999989
 31
0
  0
LINE
  8
1
 62
7
 10
-6
 20
47.49999999999991
 30
0
 11
0
 21
47.5
 31
0
  0
LINE
  8
1
 62
3
 10
-6.85949192632097
 20
54.5
 30
0
 11
0
 21
54.5
 31
0
  0
LINE
  8
1
 62
7
 10
-32
 20
38.3105375143856
 30
0
 11
-31
 21
38.8125546692292
 31
0
  0
LINE
  8
1
 62
7
 10
-32
 20
26.91400952020501
 30
0
 11
-32
 21
38.3105375143856
 31
0
  0
LINE
  8
1
 62
7
 10
-7
 20
55.64434642797272
 30
0
 11
-6
 21
47.49999999999991
 31
0
  0
LINE
  8
1
 62
7
 10
-82
 20
66.5
 30
0
 11
-82
 21
-66.49999999999999
 31
0
  0
LINE
  8
1
 62
7
 10
-111
 20
-61.50000000000018
 30
0
 11
-97
 21
-61.49999999999989
 31
0
  0
LINE
  8
1
 62
7
 10
-94
 20
-41.8125546692292
 30
0
 11
-94
 21
-63.49999999999989
 31
0
  0
LINE
  8
1
 62
7
 10
-113
 20
-38.8125546692292
 30
0
 11
-97
 21
-38.8125546692292
 31
0
  0
LINE
  8
1
 62
7
 10
-113
 20
-28.42024982381579
 30
0
 11
-97
 21
-28.42024982381579
 31
0
  0
LINE
  8
1
 62
7
 10
-111
 20
-25.4071562219481
 30
0
 11
-97
 21
-25.4071562219481
 31
0
  0
LINE
  8
1
 62
7
 10
-114
 20
-66.49999999999989
 30
0
 11
-97
 21
-66.49999999999989
 31
0
  0
LINE
  8
1
 62
7
 10
-113
 20
-67.49999999999989
 30
0
 11
-114
 21
-66.49999999999989
 31
0
  0
LINE
  8
1
 62
7
 10
-113
 20
-38.8125546692292
 30
0
 11
-113
 21
-28.42024982381579
 31
0
  0
LINE
  8
1
 62
7
 10
-113
 20
-28.42024982381579
 30
0
 11
-114
 21
-27.9175145703652
 31
0
  0
LINE
  8
1
 62
7
 10
-113
 20
-67.49999999999989
 30
0
 11
-83
 21
-67.49999999999989
 31
0
  0
LINE
  8
1
 62
7
 10
-83
 20
-67.49999999999989
 30
0
 11
-82
 21
-66.49999999999999
 31
0
  0
LINE
  8
1
 62
7
 10
-114
 20
-64.49999999999989
 30
0
 11
-111
 21
-61.50000000000018
 31
0
  0
LINE
  8
1
 62
7
 10
-114
 20
-66.49999999999989
 30
0
 11
-114
 21
-64.49999999999989
 31
0
  0
LINE
  8
1
 62
7
 10
-114
 20
-26.9140095202049
 30
0
 11
-111
 21
-25.4071562219481
 31
0
  0
LINE
  8
1
 62
7
 10
-114
 20
-38.31053751438537
 30
0
 11
-114
 21
-26.9140095202049
 31
0
  0
LINE
  8
1
 62
7
 10
-114
 20
-38.31053751438537
 30
0
 11
-113
 21
-38.8125546692292
 31
0
  0
LINE
  8
1
 62
3
 10
-94
 20
0
 30
0
 11
-97
 21
0
 31
0
  0
LINE
  8
1
 62
3
 10
-79
 20
0
 30
0
 11
-82
 21
0
 31
0
  0
LINE
  8
1
 62
3
 10
3
 20
0
 30
0
 11
0
 21
0
 31
0
  0
LINE
  8
1
 62
3
 10
-12
 20
0
 30
0
 11
-15
 21
0
 31
0
  0
LINE
  8
1
 62
3
  6
DASHDOT
 10
-258.1466431772745
 20
46.15411184282652
 30
0
 11
-262.0550880327345
 21
52.92373691106442
 31
0
  0
LINE
  8
1
 62
3
  6
DASHDOT
 10
-284.7937320739384
 20
-8.526512829121202e-014
 30
0
 11
-292.6106217848584
 21
-8.526512829121202e-014
 31
0
  0
LINE
  8
1
 62
3
  6
DASHDOT
 10
-258.1466431772743
 20
-46.15411184282658
 30
0
 11
-262.0550880327343
 21
-52.92373691106448
 31
0
  0
LINE
  8
1
 62
3
  6
DASHDOT
 10
-204.8524653839462
 20
-46.1541118428265
 30
0
 11
-200.9440205284862
 21
-52.9237369110644
 31
0
  0
LINE
  8
1
 62
3
  6
DASHDOT
 10
-204.8524653839464
 20
46.15411184282672
 30
0
 11
-200.9440205284864
 21
52.92373691106462
 31
0
  0
LINE
  8
1
 62
3
  6
DASHDOT
 10
-178.2053764872822
 20
1.13686837721616e-013
 30
0
 11
-170.3884867763623
 21
1.13686837721616e-013
 31
0
  0
LINE
  8
1
 62
3
  6
DASHDOT
 10
-227.9167497944556
 20
0
 30
0
 11
-235.0823587667651
 21
0
 31
0
  0
LINE
  8
1
 62
3
  6
DASHDOT
 10
-231.4995542806104
 20
3.582804486154799
 30
0
 11
-231.4995542806104
 21
-3.582804486154799
 31
0
  0
ARC
  8
1
 62
7
 10
-97
 20
63.5
 30
0
 40
3
 50
0
 51
90
  0
ARC
  8
1
 62
7
 10
-97
 20
58.5
 30
0
 40
3
 50
0
 51
90
  0
ARC
  8
1
 62
7
 10
-97
 20
41.8125546692292
 30
0
 40
3
 50
270
 51
0
  0
ARC
  8
1
 62
7
 10
-97
 20
25.40715622194821
 30
0
 40
3.000028573598904
 50
0.2500677873625582
 51
90
  0
ARC
  8
1
 62
7
 10
-97
 20
22.40715622194821
 30
0
 40
3
 50
0
 51
90
  0
ARC
  8
1
 62
7
 10
-231.4995542806104
 20
0
 30
0
 40
55.64434642797251
 50
122.3878784959874
 51
177.6121215040124
  0
ARC
  8
1
 62
7
 10
-231.4995542806104
 20
0
 30
0
 40
55.64434642797294
 50
302.3878784959882
 51
357.6121215040124
  0
ARC
  8
1
 62
7
 10
-231.4995542806104
 20
0
 30
0
 40
55.64434642797273
 50
242.3878784959878
 51
297.612121504012
  0
ARC
  8
1
 62
7
 10
-231.4995542806104
 20
0
 30
0
 40
55.64434642797236
 50
182.3878784959877
 51
237.6121215040116
  0
ARC
  8
1
 62
7
 10
-231.4995542806104
 20
0
 30
0
 40
55.64434642797315
 50
2.38787849598771
 51
57.61212150401187
  0
ARC
  8
1
 62
7
 10
-231.4995542806104
 20
0
 30
0
 40
55.64434642797252
 50
62.38787849598803
 51
117.6121215040122
  0
ARC
  8
1
 62
7
 10
-231.4995542806104
 20
0
 30
0
 40
64.49999999999999
 50
84.66244315058515
 51
95.33755684941485
  0
ARC
  8
1
 62
7
 10
-231.4995542806104
 20
0
 30
0
 40
66.5
 50
84.82341625443699
 51
95.17658374556302
  0
ARC
  8
1
 62
7
 10
-231.4995542806104
 20
0
 30
0
 40
66.5
 50
144.8234162544368
 51
155.176583745563
  0
ARC
  8
1
 62
7
 10
-231.4995542806104
 20
0
 30
0
 40
66.50000000000001
 50
204.823416254437
 51
215.176583745563
  0
ARC
  8
1
 62
7
 10
-231.4995542806104
 20
0
 30
0
 40
66.49999999999996
 50
264.8234162544371
 51
275.176583745563
  0
ARC
  8
1
 62
7
 10
-231.4995542806104
 20
0
 30
0
 40
66.49999999999983
 50
324.8234162544371
 51
335.1765837455632
  0
ARC
  8
1
 62
7
 10
-231.4995542806104
 20
0
 30
0
 40
66.49999999999999
 50
24.82341625443711
 51
35.17658374556316
  0
ARC
  8
1
 62
7
 10
-231.4995542806104
 20
0
 30
0
 40
64.50000000000001
 50
144.6624431505851
 51
155.3375568494149
  0
ARC
  8
1
 62
7
 10
-231.4995542806104
 20
0
 30
0
 40
64.50000000000003
 50
204.6624431505852
 51
215.3375568494149
  0
ARC
  8
1
 62
7
 10
-231.4995542806104
 20
0
 30
0
 40
64.50000000000007
 50
264.662443150585
 51
275.3375568494149
  0
ARC
  8
1
 62
7
 10
-231.4995542806104
 20
0
 30
0
 40
64.49999999999974
 50
324.6624431505851
 51
335.3375568494149
  0
ARC
  8
1
 62
7
 10
-231.4995542806104
 20
0
 30
0
 40
64.49999999999986
 50
24.66244315058537
 51
35.33755684941517
  0
ARC
  8
1
 62
7
 10
-15
 20
-22.4071562219483
 30
0
 40
3
 50
270
 51
0
  0
ARC
  8
1
 62
7
 10
-15
 20
-38.8110432408691
 30
0
 40
3.000022357707215
 50
0.2212021208424951
 51
90
  0
ARC
  8
1
 62
7
 10
-15
 20
-41.8125546692292
 30
0
 40
3.001511428360103
 50
1.818359036055123
 51
90
  0
ARC
  8
1
 62
7
 10
-9
 20
-59.49999999999999
 30
0
 40
2
 50
270
 51
0
  0
ARC
  8
1
 62
7
 10
-15
 20
-58.49999999999979
 30
0
 40
3.000000000000206
 50
270
 51
0
  0
ARC
  8
1
 62
7
 10
-15
 20
22.4071562219483
 30
0
 40
3
 50
0
 51
90
  0
ARC
  8
1
 62
7
 10
-15
 20
38.81104324086911
 30
0
 40
3.000022357707309
 50
270
 51
359.7787978791579
  0
ARC
  8
1
 62
7
 10
-15
 20
41.8125546692292
 30
0
 40
3.001511428360089
 50
270
 51
358.1816409639456
  0
ARC
  8
1
 62
7
 10
-9
 20
59.5
 30
0
 40
2
 50
0
 51
90
  0
ARC
  8
1
 62
7
 10
-15
 20
58.4999999999998
 30
0
 40
3
 50
0
 51
90
  0
ARC
  8
1
 62
7
 10
-97
 20
-63.49999999999989
 30
0
 40
2.999999999999993
 50
270
 51
0
  0
ARC
  8
1
 62
7
 10
-97
 20
-58.49999999999989
 30
0
 40
3
 50
270
 51
0
  0
ARC
  8
1
 62
7
 10
-97
 20
-41.8125546692292
 30
0
 40
3
 50
0
 51
90
  0
ARC
  8
1
 62
7
 10
-97
 20
-25.4071562219481
 30
0
 40
3.000028573599
 50
270
 51
359.7499322126377
  0
ARC
  8
1
 62
7
 10
-97
 20
-22.4071562219481
 30
0
 40
3
 50
270
 51
0
  0
ARC
  8
1
 62
3
  6
DASHDOT
 10
-231.4995542806104
 20
0
 30
0
 40
57.50000000000027
 50
115.7434534901445
 51
124.1717594458615
  0
ARC
  8
1
 62
3
  6
DASHDOT
 10
-231.4995542806104
 20
0
 30
0
 40
57.50000000000027
 50
175.7434534901445
 51
184.1717594458615
  0
ARC
  8
1
 62
3
  6
DASHDOT
 10
-231.4995542806104
 20
0
 30
0
 40
57.50000000000021
 50
235.7434534901445
 51
244.1717594458616
  0
ARC
  8
1
 62
3
  6
DASHDOT
 10
-231.4995542806104
 20
0
 30
0
 40
57.50000000000027
 50
295.7434534901446
 51
304.1717594458617
  0
ARC
  8
1
 62
3
  6
DASHDOT
 10
-231.4995542806104
 20
0
 30
0
 40
57.50000000000036
 50
355.7434534901445
 51
4.17175944586157
  0
ARC
  8
1
 62
3
  6
DASHDOT
 10
-231.4995542806104
 20
0
 30
0
 40
57.50000000000035
 50
55.7434534901446
 51
64.17175944586157
  0
CIRCLE
  8
1
 62
7
 10
-231.4995542806104
 20
0
 30
0
 40
61.5
  0
CIRCLE
  8
1
 62
7
 10
-231.4995542806104
 20
0
 30
0
 40
67.5
  0
CIRCLE
  8
1
 62
7
 10
-231.4995542806104
 20
0
 30
0
 40
47.5
  0
CIRCLE
  8
1
 62
3
 10
-173.9995542806104
 20
0
 30
0
 40
3
  0
CIRCLE
  8
1
 62
7
 10
-173.9995542806104
 20
0
 30
0
 40
2.5
  0
CIRCLE
  8
1
 62
7
 10
-202.7495542806104
 20
49.79646071760521
 30
0
 40
2.5
  0
CIRCLE
  8
1
 62
7
 10
-260.2495542806104
 20
49.7964607176051
 30
0
 40
2.5
  0
CIRCLE
  8
1
 62
7
 10
-288.9995542806104
 20
0
 30
0
 40
2.5
  0
CIRCLE
  8
1
 62
7
 10
-260.2495542806104
 20
-49.79646071760499
 30
0
 40
2.5
  0
CIRCLE
  8
1
 62
7
 10
-202.7495542806104
 20
-49.7964607176051
 30
0
 40
2.5
  0
CIRCLE
  8
1
 62
3
 10
-202.7495542806104
 20
49.79646071760521
 30
0
 40
3
  0
CIRCLE
  8
1
 62
3
 10
-260.2495542806104
 20
49.7964607176051
 30
0
 40
3
  0
CIRCLE
  8
1
 62
3
 10
-288.9995542806104
 20
0
 30
0
 40
3
  0
CIRCLE
  8
1
 62
3
 10
-260.2495542806104
 20
-49.79646071760499
 30
0
 40
2.999999999999943
  0
CIRCLE
  8
1
 62
3
 10
-202.7495542806104
 20
-49.7964607176051
 30
0
 40
3
  0
TEXT
  8
1
 62
7
 10
-241.0520450950403
 20
88.17372005969699
 30
0
 40
4
  1
DC4404
 41
0.9
  7
SIMPLEX
  0
TEXT
  8
1
 62
7
 10
-241.0520450950403
 20
93.42372005969699
 30
0
 40
4
  1
UN 10
 41
0.9
  7
SIMPLEX
  0
ENDSEC
  0
EOF
