  0
SECTION
  2
HEADER
  9
$ACADVER
  1
AC1009
  9
$INSBASE
 10
0
 20
0
  9
$EXTMIN
 10
-362.658273806957
 20
-80.00000000000011
  9
$EXTMAX
 10
3
 20
108.618151910584
  9
$LIMMIN
 10
-362.658273806957
 20
-80.00000000000011
  9
$LIMMAX
 10
3
 20
108.618151910584
  9
$VIEWCTR
 10
10
 20
10
  9
$VIEWSIZE
 40
10
  9
$SNAPMODE
 70
0
  9
$SNAPUNIT
 10
1
 20
1
  9
$SNAPBASE
 10
0
 20
0
  9
$SNAPANG
 50
0
  9
$SNAPSTYLE
 70
0
  9
$SNAPISOPAIR
 70
0
  9
$GRIDMODE
 70
0
  9
$GRIDUNIT
 10
0
 20
0
  9
$ORTHOMODE
 70
0
  9
$REGENMODE
 70
1
  9
$FILLMODE
 70
1
  9
$QTEXTMODE
 70
0
  9
$DRAGMODE
 70
2
  9
$LTSCALE
 40
1
  9
$OSMODE
 70
0
  9
$ATTMODE
 70
1
  9
$TEXTSIZE
 40
3.5
  9
$TRACEWID
 40
0.5
  9
$TEXTSTYLE
  7
STANDARD
  9
$CLAYER
  8
0
  9
$CELTYPE
  6
BYLAYER
  9
$CECOLOR
 62
256
  9
$DIMSCALE
 40
1
  9
$DIMASZ
 40
0.18
  9
$DIMEXO
 40
0.0625
  9
$DIMDLI
 40
0.38
  9
$DIMRND
 40
0
  9
$DIMDLE
 40
0
  9
$DIMEXE
 40
0.18
  9
$DIMTP
 40
0
  9
$DIMTM
 40
0
  9
$DIMTXT
 40
0.18
  9
$DIMCEN
 40
0.09
  9
$DIMTSZ
 40
0
  9
$DIMTOL
 70
0
  9
$DIMLIM
 70
0
  9
$DIMTIH
 70
1
  9
$DIMTOH
 70
1
  9
$DIMSE1
 70
0
  9
$DIMSE2
 70
0
  9
$DIMTAD
 70
0
  9
$DIMZIN
 70
0
  9
$DIMBLK
  1

  9
$DIMASO
 70
1
  9
$DIMSHO
 70
1
  9
$DIMPOST
  1

  9
$DIMAPOST
  1

  9
$DIMALT
 70
0
  9
$DIMALTD
 70
2
  9
$DIMALTF
 40
25.4
  9
$DIMLFAC
 40
1
  9
$DIMTOFL
 70
0
  9
$DIMTVP
 40
0
  9
$DIMTIX
 70
0
  9
$DIMSOXD
 70
0
  9
$DIMSAH
 70
0
  9
$DIMBLK1
  1

  9
$DIMBLK2
  1

  9
$DIMSTYLE
  2
*UNNAMED
  9
$DIMCLRD
 70
0
  9
$DIMCLRE
 70
0
  9
$DIMCLRT
 70
0
  9
$DIMTFAC
 40
1
  9
$DIMGAP
 40
0.09
  9
$LUNITS
 70
2
  9
$LUPREC
 70
4
  9
$AXISMODE
 70
0
  9
$AXISUNIT
 10
0
 20
0
  9
$SKETCHINC
 40
0.1
  9
$FILLETRAD
 40
2
  9
$AUNITS
 70
0
  9
$AUPREC
 70
0
  9
$MENU
  1
ACAD
  9
$ELEVATION
 40
0
  9
$THICKNESS
 40
0
  9
$VIEWDIR
 10
0
 20
0
 30
1
  9
$LIMCHECK
 70
0
  9
$BLIPMODE
 70
1
  9
$CHAMFERA
 40
0
  9
$CHAMFERB
 40
0
  9
$FASTZOOM
 70
1
  9
$SKPOLY
 70
0
  9
$ANGBASE
 50
0
  9
$ANGDIR
 70
0
  9
$PDMODE
 70
0
  9
$PDSIZE
 40
0
  9
$PLINEWID
 40
0
  9
$COORDS
 70
2
  0
ENDSEC
  0
SECTION
  2
TABLES
  0
TABLE
  2
DIMSTYLE
 70
0
  0
ENDTAB
  0
TABLE
  2
LTYPE
 70
9
  0
LTYPE
  2
CONTINUOUS
 70
64
  3
Solid line
 72
65
 73
0
 40
0
  0
LTYPE
  2
BORDER
 70
64
  3
__ __ . __ __ .
 72
65
 73
6
 40
16.83952576742565
 49
4.811293076407329
 49
-2.405646538203665
 49
4.811293076407329
 49
-2.405646538203665
 49
0
 49
-2.405646538203665
  0
LTYPE
  2
CENTER
 70
64
  3
____ _ ____ _
 72
65
 73
4
 40
19.24517230562932
 49
12.02823269101832
 49
-2.405646538203665
 49
2.405646538203665
 49
-2.405646538203665
  0
LTYPE
  2
DASHDOT
 70
64
  3
__ . __ . __ .
 72
65
 73
4
 40
9.622586152814659
 49
4.811293076407329
 49
-2.405646538203665
 49
0
 49
-2.405646538203665
  0
LTYPE
  2
DASHED
 70
64
  3
__ __ __ __ __
 72
65
 73
2
 40
7.216939614610994
 49
4.811293076407329
 49
-2.405646538203665
  0
LTYPE
  2
DIVIDE
 70
64
  3
__ . . __ . . 
 72
65
 73
6
 40
12.02823269101832
 49
4.811293076407329
 49
-2.405646538203665
 49
0
 49
-2.405646538203665
 49
0
 49
-2.405646538203665
  0
LTYPE
  2
DOT
 70
64
  3
..............
 72
65
 73
4
 40
4.811293076407329
 49
0
 49
-2.405646538203665
 49
0
 49
-2.405646538203665
  0
LTYPE
  2
HIDDEN
 70
64
  3
_ _ _ _ _ _ _
 72
65
 73
2
 40
3.608469807305497
 49
2.405646538203665
 49
-1.202823269101832
  0
LTYPE
  2
PHANTOM
 70
64
  3
_____ _ _ _____ _ _ 
 72
65
 73
6
 40
24.05646538203665
 49
12.02823269101832
 49
-2.405646538203665
 49
2.405646538203665
 49
-2.405646538203665
 49
2.405646538203665
 49
-2.405646538203665
  0
ENDTAB
  0
TABLE
  2
LAYER
 70
3
  0
LAYER
  2
1
 70
0
 62
7
  6
CONTINUOUS
  0
LAYER
  2
0
 70
0
 62
7
  6
CONTINUOUS
  0
ENDTAB
  0
TABLE
  2
STYLE
 70
4
  0
STYLE
  2
STANDARD
 70
0
 40
0
 41
1
 50
0
 71
0
 42
3.5
  3
txt
  4

  0
STYLE
  2
SIMPLEX
 70
0
 40
0
 41
1
 50
0
 71
0
 42
3.5
  3
simplex
  4

  0
STYLE
  2
COMPLEX
 70
0
 40
0
 41
1
 50
0
 71
0
 42
3.5
  3
complex
  4

  0
STYLE
  2
ITALIC
 70
0
 40
0
 41
1
 50
0
 71
0
 42
3.5
  3
italic
  4

  0
ENDTAB
  0
TABLE
  2
VIEW
 70
0
  0
ENDTAB
  0
ENDSEC
  0
SECTION
  2
BLOCKS
  0
ENDSEC
  0
SECTION
  2
ENTITIES
  0
LINE
  8
1
 62
7
 10
-16
 20
-46.5726558280643
 30
0
 11
-16
 21
-68.00000000000003
 31
0
  0
LINE
  8
1
 62
7
 10
-9
 20
57.5
 30
0
 11
-9
 21
-57.5
 31
0
  0
LINE
  8
1
 62
7
 10
-10
 20
70
 30
0
 11
-10
 21
-70.1330479163167
 31
0
  0
LINE
  8
1
 62
7
 10
-128.149182368868
 20
29.69118892765169
 30
0
 11
-128.149182368868
 21
-29.69118892765169
 31
0
  0
LINE
  8
1
 62
3
  6
DASHDOT
 10
-222.169787207039
 20
1.13686837721616e-013
 30
0
 11
-207.7339096376311
 21
0
 31
0
  0
LINE
  8
1
 62
7
 10
-21
 20
45.0834937730649
 30
0
 11
-37
 21
45.0834937730649
 31
0
  0
LINE
  8
1
 62
7
 10
-38
 20
32.93601903395179
 30
0
 11
-38
 21
44.0834937730649
 31
0
  0
LINE
  8
1
 62
7
 10
-38
 20
44.0834937730649
 30
0
 11
-37
 21
45.0834937730649
 31
0
  0
LINE
  8
1
 62
7
 10
-216.8681080394079
 20
31.63311695483731
 30
0
 11
-216.2178489975346
 21
31.43119391851769
 31
0
  0
LINE
  8
1
 62
7
 10
-222.2178489975344
 20
41.8234987639309
 30
0
 11
-222.368108039409
 21
41.159396396468
 31
0
  0
LINE
  8
1
 62
7
 10
-222.2178489975346
 20
-41.823498763931
 30
0
 11
-222.3681080394078
 21
-41.15939639646619
 31
0
  0
LINE
  8
1
 62
7
 10
-216.8681080394088
 20
-31.63311695483901
 30
0
 11
-216.2178489975344
 21
-31.43119391851761
 31
0
  0
LINE
  8
1
 62
7
 10
-276.6582738069571
 20
-73.25469268244871
 30
0
 11
-277.1582738069571
 21
-72.79251335130573
 31
0
  0
LINE
  8
1
 62
7
 10
-288.1582738069571
 20
-72.79251335130573
 30
0
 11
-288.6582738069571
 21
-73.25469268244871
 31
0
  0
LINE
  8
1
 62
7
 10
-342.9484395745056
 20
-41.1593963964673
 30
0
 11
-343.0986986163796
 21
-41.823498763931
 31
0
  0
LINE
  8
1
 62
7
 10
-349.0986986163797
 20
-31.43119391851769
 30
0
 11
-348.4484395745056
 21
-31.63311695483839
 31
0
  0
LINE
  8
1
 62
7
 10
-349.0986986163797
 20
31.43119391851769
 30
0
 11
-348.4484395745056
 21
31.63311695483841
 31
0
  0
LINE
  8
1
 62
7
 10
-343.0986986163797
 20
41.8234987639309
 30
0
 11
-342.9484395745058
 21
41.1593963964672
 31
0
  0
LINE
  8
1
 62
7
 10
-276.6582738069571
 20
73.25469268244859
 30
0
 11
-277.1582738069571
 21
72.79251335130562
 31
0
  0
LINE
  8
1
 62
7
 10
-288.6582738069571
 20
73.25469268244859
 30
0
 11
-288.1582738069571
 21
72.79251335130562
 31
0
  0
LINE
  8
1
 62
7
 10
-16
 20
46.57265582806431
 30
0
 11
-16
 21
68
 31
0
  0
LINE
  8
1
 62
7
 10
-13
 20
73
 30
0
 11
-34.5
 21
73
 31
0
  0
LINE
  8
1
 62
7
 10
-10
 20
65.6443464279746
 30
0
 11
-9
 21
57.5
 31
0
  0
LINE
  8
1
 62
7
 10
-34.5
 20
73
 30
0
 11
-38
 21
76.5
 31
0
  0
LINE
  8
1
 62
7
 10
-36
 20
41.57265582806431
 30
0
 11
-21
 21
41.57265582806431
 31
0
  0
LINE
  8
1
 62
3
 10
-9.736707365417487
 20
63.5
 30
0
 11
0
 21
63.5
 31
0
  0
LINE
  8
1
 62
7
 10
-9.798099645868888
 20
64
 30
0
 11
0
 21
64
 31
0
  0
LINE
  8
1
 62
7
 10
0
 20
71
 30
0
 11
-10.177647648017
 21
71
 31
0
  0
LINE
  8
1
 62
3
 10
0
 20
71.5
 30
0
 11
-10.3950252877537
 21
71.5
 31
0
  0
LINE
  8
1
 62
7
 10
-1
 20
80
 30
0
 11
0
 21
79
 31
0
  0
LINE
  8
1
 62
7
 10
-37
 20
80
 30
0
 11
-1
 21
80
 31
0
  0
LINE
  8
1
 62
7
 10
-36
 20
31.18035098265111
 30
0
 11
-36
 21
41.57265582806431
 31
0
  0
LINE
  8
1
 62
7
 10
-38
 20
43.32832387936512
 30
0
 11
-36
 21
41.57265582806431
 31
0
  0
LINE
  8
1
 62
7
 10
-38
 20
32.93601903395179
 30
0
 11
-36
 21
31.18035098265111
 31
0
  0
LINE
  8
1
 62
7
 10
-36
 20
31.18035098265111
 30
0
 11
-19
 21
31.18035098265111
 31
0
  0
LINE
  8
1
 62
3
  6
DASHDOT
 10
-10.60807383368888
 20
67.5
 30
0
 11
0.6668449097210214
 21
67.5
 31
0
  0
LINE
  8
1
 62
7
 10
-16
 20
28.18035098265111
 30
0
 11
-16
 21
-28.18035098265111
 31
0
  0
LINE
  8
1
 62
7
 10
-38
 20
79
 30
0
 11
-37
 21
80
 31
0
  0
LINE
  8
1
 62
7
 10
-38
 20
79
 30
0
 11
-38
 21
76.5
 31
0
  0
LINE
  8
1
 62
7
 10
-9
 20
57.5
 30
0
 11
0
 21
57.5
 31
0
  0
LINE
  8
1
 62
3
  6
DASHDOT
 10
-252.414030506998
 20
-52.38456603200359
 30
0
 11
-245.1960917222941
 21
-64.8864027330329
 31
0
  0
LINE
  8
1
 62
3
  6
DASHDOT
 10
-312.902517106916
 20
-52.38456603200359
 30
0
 11
-320.1204558916201
 21
-64.8864027330328
 31
0
  0
LINE
  8
1
 62
3
  6
DASHDOT
 10
-343.146760406875
 20
0
 30
0
 11
-357.582637976283
 21
0
 31
0
  0
LINE
  8
1
 62
3
  6
DASHDOT
 10
-312.902517106916
 20
52.38456603200359
 30
0
 11
-320.1204558916201
 21
64.88640273303281
 31
0
  0
LINE
  8
1
 62
3
  6
DASHDOT
 10
-252.414030506998
 20
52.38456603200359
 30
0
 11
-245.196091722294
 21
64.88640273303281
 31
0
  0
LINE
  8
1
 62
7
 10
-216.5713720092936
 20
45.0834937730649
 30
0
 11
-222.2178489975344
 21
41.8234987639309
 31
0
  0
LINE
  8
1
 62
7
 10
-210.5713720092936
 20
34.69118892765161
 30
0
 11
-216.2178489975346
 21
31.43119391851769
 31
0
  0
LINE
  8
1
 62
7
 10
-210.5713720092934
 20
-34.69118892765161
 30
0
 11
-216.2178489975344
 21
-31.43119391851761
 31
0
  0
LINE
  8
1
 62
7
 10
-216.5713720092936
 20
-45.0834937730649
 30
0
 11
-222.2178489975346
 21
-41.823498763931
 31
0
  0
LINE
  8
1
 62
7
 10
-276.6582738069571
 20
-79.77468270071663
 30
0
 11
-276.6582738069571
 21
-73.25469268244871
 31
0
  0
LINE
  8
1
 62
7
 10
-288.6582738069571
 20
-79.77468270071663
 30
0
 11
-288.6582738069571
 21
-73.25469268244871
 31
0
  0
LINE
  8
1
 62
7
 10
-348.7451756046206
 20
-45.0834937730649
 30
0
 11
-343.0986986163796
 21
-41.823498763931
 31
0
  0
LINE
  8
1
 62
7
 10
-354.7451756046206
 20
-34.69118892765169
 30
0
 11
-349.0986986163797
 21
-31.43119391851769
 31
0
  0
LINE
  8
1
 62
7
 10
-354.7451756046206
 20
34.69118892765161
 30
0
 11
-349.0986986163797
 21
31.43119391851769
 31
0
  0
LINE
  8
1
 62
7
 10
-348.7451756046206
 20
45.0834937730649
 30
0
 11
-343.0986986163797
 21
41.8234987639309
 31
0
  0
LINE
  8
1
 62
7
 10
-288.6582738069571
 20
79.77468270071651
 30
0
 11
-288.6582738069571
 21
73.25469268244859
 31
0
  0
LINE
  8
1
 62
7
 10
-276.6582738069571
 20
79.77468270071651
 30
0
 11
-276.6582738069571
 21
73.25469268244859
 31
0
  0
LINE
  8
1
 62
7
 10
-150.149182368868
 20
-44.0834937730649
 30
0
 11
-149.149182368868
 21
-45.0834937730649
 31
0
  0
LINE
  8
1
 62
7
 10
-150.1491823688679
 20
-79.00000000000011
 30
0
 11
-133.149182368868
 21
-79.00000000000011
 31
0
  0
LINE
  8
1
 62
7
 10
-113.149182368868
 20
-80.00000000000011
 30
0
 11
-149.649182368868
 21
-80.00000000000011
 31
0
  0
LINE
  8
1
 62
7
 10
-148.149182368868
 20
-73.00000000000011
 30
0
 11
-133.149182368868
 21
-73.00000000000011
 31
0
  0
LINE
  8
1
 62
7
 10
-149.149182368868
 20
-34.69118892765169
 30
0
 11
-133.149182368868
 21
-34.69118892765169
 31
0
  0
LINE
  8
1
 62
7
 10
-148.149182368868
 20
-31.18035098265111
 30
0
 11
-133.149182368868
 21
-31.18035098265111
 31
0
  0
LINE
  8
1
 62
7
 10
-149.149182368868
 20
-45.0834937730649
 30
0
 11
-149.149182368868
 21
-34.69118892765169
 31
0
  0
LINE
  8
1
 62
7
 10
-149.149182368868
 20
-34.69118892765169
 30
0
 11
-150.149182368868
 21
-34.18845367420099
 31
0
  0
LINE
  8
1
 62
7
 10
-113.149182368868
 20
-80.00000000000011
 30
0
 11
-112.149182368868
 21
-79.00000000000011
 31
0
  0
LINE
  8
1
 62
7
 10
-149.649182368868
 20
-80.00000000000011
 30
0
 11
-150.1491823688679
 21
-79.00000000000011
 31
0
  0
LINE
  8
1
 62
7
 10
-150.149182368868
 20
-76.50000000000003
 30
0
 11
-148.149182368868
 21
-73.00000000000011
 31
0
  0
LINE
  8
1
 62
7
 10
-150.1491823688679
 20
-79.00000000000011
 30
0
 11
-150.149182368868
 21
-76.50000000000003
 31
0
  0
LINE
  8
1
 62
7
 10
-128.149182368868
 20
-50.0834937730649
 30
0
 11
-128.149182368868
 21
-74.00000000000011
 31
0
  0
LINE
  8
1
 62
7
 10
-150.149182368868
 20
-32.93601903395191
 30
0
 11
-148.149182368868
 21
-31.18035098265111
 31
0
  0
LINE
  8
1
 62
7
 10
-150.149182368868
 20
-44.0834937730649
 30
0
 11
-150.149182368868
 21
-32.93601903395191
 31
0
  0
LINE
  8
1
 62
7
 10
-149.149182368868
 20
-45.0834937730649
 30
0
 11
-133.149182368868
 21
-45.0834937730649
 31
0
  0
LINE
  8
1
 62
7
 10
-149.149182368868
 20
45.0834937730649
 30
0
 11
-150.149182368868
 21
44.0834937730649
 31
0
  0
LINE
  8
1
 62
7
 10
-133.149182368868
 20
79.00000000000011
 30
0
 11
-150.1491823688679
 21
79.00000000000011
 31
0
  0
LINE
  8
1
 62
7
 10
-128.149182368868
 20
74.00000000000011
 30
0
 11
-128.149182368868
 21
50.0834937730649
 31
0
  0
LINE
  8
1
 62
7
 10
-149.649182368868
 20
80.00000000000011
 30
0
 11
-113.149182368868
 21
80.00000000000011
 31
0
  0
LINE
  8
1
 62
7
 10
-133.149182368868
 20
73.00000000000011
 30
0
 11
-148.149182368868
 21
73.00000000000011
 31
0
  0
LINE
  8
1
 62
7
 10
-133.149182368868
 20
34.69118892765169
 30
0
 11
-149.149182368868
 21
34.69118892765169
 31
0
  0
LINE
  8
1
 62
7
 10
-133.149182368868
 20
31.18035098265111
 30
0
 11
-148.149182368868
 21
31.18035098265111
 31
0
  0
LINE
  8
1
 62
7
 10
-149.149182368868
 20
34.69118892765169
 30
0
 11
-149.149182368868
 21
45.0834937730649
 31
0
  0
LINE
  8
1
 62
7
 10
-150.149182368868
 20
34.18845367420101
 30
0
 11
-149.149182368868
 21
34.69118892765169
 31
0
  0
LINE
  8
1
 62
7
 10
-112.149182368868
 20
79.00000000000011
 30
0
 11
-113.149182368868
 21
80.00000000000011
 31
0
  0
LINE
  8
1
 62
7
 10
-150.1491823688679
 20
79.00000000000011
 30
0
 11
-149.649182368868
 21
80.00000000000011
 31
0
  0
LINE
  8
1
 62
7
 10
-148.149182368868
 20
73.00000000000011
 30
0
 11
-150.149182368868
 21
76.5
 31
0
  0
LINE
  8
1
 62
7
 10
-150.149182368868
 20
76.5
 30
0
 11
-150.1491823688679
 21
79.00000000000011
 31
0
  0
LINE
  8
1
 62
7
 10
-148.149182368868
 20
31.18035098265111
 30
0
 11
-150.149182368868
 21
32.93601903395191
 31
0
  0
LINE
  8
1
 62
7
 10
-150.149182368868
 20
32.93601903395191
 30
0
 11
-150.149182368868
 21
44.0834937730649
 31
0
  0
LINE
  8
1
 62
7
 10
-133.149182368868
 20
45.0834937730649
 30
0
 11
-149.149182368868
 21
45.0834937730649
 31
0
  0
LINE
  8
1
 62
7
 10
-113.149182368868
 20
80.00000000000011
 30
0
 11
-113.149182368868
 21
-80.00000000000011
 31
0
  0
LINE
  8
1
 62
7
 10
-112.149182368868
 20
79.00000000000011
 30
0
 11
-112.149182368868
 21
-79.00000000000011
 31
0
  0
LINE
  8
1
 62
7
 10
0
 20
79
 30
0
 11
0
 21
-79.00000000000003
 31
0
  0
LINE
  8
1
 62
7
 10
-37
 20
-45.0834937730649
 30
0
 11
-21
 21
-45.0834937730649
 31
0
  0
LINE
  8
1
 62
7
 10
-38
 20
-44.0834937730649
 30
0
 11
-38
 21
-32.93601903395179
 31
0
  0
LINE
  8
1
 62
7
 10
-37
 20
-45.0834937730649
 30
0
 11
-38
 21
-44.0834937730649
 31
0
  0
LINE
  8
1
 62
7
 10
-34.5
 20
-73.00000000000003
 30
0
 11
-13
 21
-73.00000000000003
 31
0
  0
LINE
  8
1
 62
7
 10
-9
 20
-57.5
 30
0
 11
-10
 21
-65.6443464279746
 31
0
  0
LINE
  8
1
 62
7
 10
-38
 20
-76.50000000000003
 30
0
 11
-34.5
 21
-73.00000000000003
 31
0
  0
LINE
  8
1
 62
7
 10
-21
 20
-41.5726558280643
 30
0
 11
-36
 21
-41.5726558280643
 31
0
  0
LINE
  8
1
 62
7
 10
0
 20
-79.00000000000003
 30
0
 11
-1
 21
-80.00000000000003
 31
0
  0
LINE
  8
1
 62
7
 10
-1
 20
-80.00000000000003
 30
0
 11
-37
 21
-80.00000000000003
 31
0
  0
LINE
  8
1
 62
7
 10
-36
 20
-41.5726558280643
 30
0
 11
-36
 21
-31.18035098265111
 31
0
  0
LINE
  8
1
 62
7
 10
-36
 20
-41.5726558280643
 30
0
 11
-38
 21
-43.3283238793651
 31
0
  0
LINE
  8
1
 62
7
 10
-36
 20
-31.18035098265111
 30
0
 11
-38
 21
-32.93601903395179
 31
0
  0
LINE
  8
1
 62
7
 10
-19
 20
-31.18035098265111
 30
0
 11
-36
 21
-31.18035098265111
 31
0
  0
LINE
  8
1
 62
7
 10
-37
 20
-80.00000000000003
 30
0
 11
-38
 21
-79.00000000000003
 31
0
  0
LINE
  8
1
 62
7
 10
-38
 20
-76.50000000000003
 30
0
 11
-38
 21
-79.00000000000003
 31
0
  0
LINE
  8
1
 62
7
 10
-9
 20
-57.5
 30
0
 11
0
 21
-57.5
 31
0
  0
LINE
  8
1
 62
3
 10
-19
 20
0
 30
0
 11
-16
 21
0
 31
0
  0
LINE
  8
1
 62
3
 10
0
 20
0
 30
0
 11
3
 21
0
 31
0
  0
LINE
  8
1
 62
3
 10
-131.149182368868
 20
0
 30
0
 11
-128.149182368868
 21
0
 31
0
  0
LINE
  8
1
 62
3
 10
-112.149182368868
 20
0
 30
0
 11
-109.149182368868
 21
0
 31
0
  0
LINE
  8
1
 62
3
  6
DASHDOT
 10
-278.386737708793
 20
0
 30
0
 11
-286.9298099051212
 21
0
 31
0
  0
LINE
  8
1
 62
3
  6
DASHDOT
 10
-282.6582738069571
 20
4.271536098164091
 30
0
 11
-282.6582738069571
 21
-4.271536098164091
 31
0
  0
ARC
  8
1
 62
7
 10
-19
 20
28.18035098265111
 30
0
 40
3
 50
0
 51
90
  0
ARC
  8
1
 62
7
 10
-133.149182368868
 20
-50.0834937730649
 30
0
 40
5
 50
0
 51
90
  0
ARC
  8
1
 62
7
 10
-133.149182368868
 20
50.0834937730649
 30
0
 40
5
 50
270
 51
0
  0
ARC
  8
1
 62
7
 10
-19
 20
-28.18035098265111
 30
0
 40
3
 50
270
 51
0
  0
ARC
  8
1
 62
7
 10
-282.6582738069571
 20
0
 30
0
 40
65.64434642797458
 50
3.050412250094159
 51
56.94958774990597
  0
ARC
  8
1
 62
7
 10
-282.6582738069571
 20
0
 30
0
 40
65.64434642797467
 50
303.0504122500942
 51
356.9495877499058
  0
ARC
  8
1
 62
7
 10
-282.6582738069571
 20
0
 30
0
 40
65.64434642797454
 50
243.050412250094
 51
296.949587749906
  0
ARC
  8
1
 62
7
 10
-282.6582738069571
 20
0
 30
0
 40
65.64434642797464
 50
183.0504122500942
 51
236.9495877499058
  0
ARC
  8
1
 62
7
 10
-282.6582738069571
 20
0
 30
0
 40
65.64434642797465
 50
63.05041225009409
 51
116.9495877499058
  0
ARC
  8
1
 62
7
 10
-282.6582738069571
 20
0
 30
0
 40
65.64434642797467
 50
123.0504122500942
 51
176.9495877499057
  0
ARC
  8
1
 62
7
 10
-21
 20
68
 30
0
 40
5
 50
0
 51
90
  0
ARC
  8
1
 62
7
 10
-13
 20
70
 30
0
 40
3
 50
0
 51
90
  0
ARC
  8
1
 62
7
 10
-21
 20
46.57265582806431
 30
0
 40
5
 50
270
 51
0
  0
ARC
  8
1
 62
7
 10
-21
 20
50.0834937730649
 30
0
 40
5
 50
270
 51
0
  0
ARC
  8
1
 62
7
 10
-282.6582738069571
 20
0
 30
0
 40
76.49999999999993
 50
25.50159333111141
 51
34.49840666888856
  0
ARC
  8
1
 62
7
 10
-282.6582738069571
 20
0
 30
0
 40
79.00000000000011
 50
25.64422737296869
 51
34.35577262703119
  0
ARC
  8
1
 62
7
 10
-282.6582738069571
 20
0
 30
0
 40
76.49999999999993
 50
325.5015933311115
 51
334.4984066688885
  0
ARC
  8
1
 62
7
 10
-282.6582738069571
 20
0
 30
0
 40
79.00000000000011
 50
325.6442273729688
 51
334.3557726270313
  0
ARC
  8
1
 62
7
 10
-282.6582738069571
 20
0
 30
0
 40
76.50000000000007
 50
265.5015933311115
 51
274.4984066688884
  0
ARC
  8
1
 62
7
 10
-282.6582738069571
 20
0
 30
0
 40
78.99999999999997
 50
265.6442273729688
 51
274.3557726270311
  0
ARC
  8
1
 62
7
 10
-282.6582738069571
 20
0
 30
0
 40
76.4999999999999
 50
205.5015933311115
 51
214.4984066688887
  0
ARC
  8
1
 62
7
 10
-282.6582738069571
 20
0
 30
0
 40
79
 50
205.6442273729688
 51
214.3557726270313
  0
ARC
  8
1
 62
7
 10
-282.6582738069571
 20
0
 30
0
 40
76.49999999999994
 50
145.5015933311115
 51
154.4984066688886
  0
ARC
  8
1
 62
7
 10
-282.6582738069571
 20
0
 30
0
 40
78.99999999999994
 50
145.6442273729687
 51
154.3557726270313
  0
ARC
  8
1
 62
7
 10
-282.6582738069571
 20
0
 30
0
 40
76.49999999999994
 50
85.50159333111144
 51
94.49840666888856
  0
ARC
  8
1
 62
7
 10
-282.6582738069571
 20
0
 30
0
 40
78.99999999999997
 50
85.64422737296874
 51
94.3557726270312
  0
ARC
  8
1
 62
7
 10
-133.149182368868
 20
-74.00000000000011
 30
0
 40
5
 50
270
 51
0
  0
ARC
  8
1
 62
7
 10
-133.149182368868
 20
-68.00000000000011
 30
0
 40
5
 50
270
 51
0
  0
ARC
  8
1
 62
7
 10
-133.149182368868
 20
-29.69118892765169
 30
0
 40
4.999999999999996
 50
270
 51
0
  0
ARC
  8
1
 62
7
 10
-133.149182368868
 20
-26.18035098265111
 30
0
 40
5
 50
270
 51
0
  0
ARC
  8
1
 62
7
 10
-133.149182368868
 20
74.00000000000011
 30
0
 40
5
 50
0
 51
90
  0
ARC
  8
1
 62
7
 10
-133.149182368868
 20
68.00000000000011
 30
0
 40
5
 50
0
 51
90
  0
ARC
  8
1
 62
7
 10
-133.149182368868
 20
29.69118892765169
 30
0
 40
5
 50
0
 51
90
  0
ARC
  8
1
 62
7
 10
-133.149182368868
 20
26.18035098265111
 30
0
 40
5
 50
0
 51
90
  0
ARC
  8
1
 62
7
 10
-21
 20
-68.00000000000003
 30
0
 40
5
 50
270
 51
0
  0
ARC
  8
1
 62
7
 10
-13
 20
-70.00000000000003
 30
0
 40
3
 50
270
 51
0
  0
ARC
  8
1
 62
7
 10
-21
 20
-46.5726558280643
 30
0
 40
5
 50
0
 51
90
  0
ARC
  8
1
 62
7
 10
-21
 20
-50.0834937730649
 30
0
 40
5
 50
0
 51
90
  0
ARC
  8
1
 62
3
  6
DASHDOT
 10
-282.6582738069571
 20
0
 30
0
 40
67.50000000000013
 50
115.4468628255929
 51
124.1192817698847
  0
ARC
  8
1
 62
3
  6
DASHDOT
 10
-282.6582738069571
 20
0
 30
0
 40
67.50000000000007
 50
54.93985091122008
 51
64.78201305393473
  0
ARC
  8
1
 62
3
  6
DASHDOT
 10
-282.6582738069571
 20
0
 30
0
 40
67.50000000000004
 50
354.7130219008436
 51
4.741171250216807
  0
ARC
  8
1
 62
3
  6
DASHDOT
 10
-282.6582738069571
 20
0
 30
0
 40
67.50000000000009
 50
295.7502997504428
 51
304.3400477124072
  0
ARC
  8
1
 62
3
  6
DASHDOT
 10
-282.6582738069571
 20
0
 30
0
 40
67.5000000000001
 50
235.901973057213
 51
244.24313707356
  0
ARC
  8
1
 62
3
  6
DASHDOT
 10
-282.6582738069571
 20
0
 30
0
 40
67.50000000000004
 50
174.873880524583
 51
185.2919573253848
  0
CIRCLE
  8
1
 62
7
 10
-248.9082738069571
 20
-58.4567147554496
 30
0
 40
3.5
  0
CIRCLE
  8
1
 62
3
 10
-248.9082738069571
 20
-58.4567147554496
 30
0
 40
3.999999999999915
  0
CIRCLE
  8
1
 62
7
 10
-316.4082738069571
 20
-58.4567147554496
 30
0
 40
3.5
  0
CIRCLE
  8
1
 62
3
 10
-316.4082738069571
 20
-58.4567147554496
 30
0
 40
4
  0
CIRCLE
  8
1
 62
7
 10
-350.1582738069571
 20
0
 30
0
 40
3.500000000000057
  0
CIRCLE
  8
1
 62
3
 10
-350.1582738069571
 20
0
 30
0
 40
4.000000000000057
  0
CIRCLE
  8
1
 62
7
 10
-316.4082738069571
 20
58.45671475544961
 30
0
 40
3.5
  0
CIRCLE
  8
1
 62
3
 10
-316.4082738069571
 20
58.45671475544961
 30
0
 40
4.000000000000057
  0
CIRCLE
  8
1
 62
7
 10
-248.9082738069571
 20
58.45671475544961
 30
0
 40
3.5
  0
CIRCLE
  8
1
 62
3
 10
-248.9082738069571
 20
58.45671475544961
 30
0
 40
4
  0
CIRCLE
  8
1
 62
7
 10
-215.1582738069571
 20
0
 30
0
 40
3.5
  0
CIRCLE
  8
1
 62
3
 10
-215.1582738069571
 20
0
 30
0
 40
4
  0
CIRCLE
  8
1
 62
7
 10
-282.6582738069571
 20
0
 30
0
 40
79.99999999999997
  0
CIRCLE
  8
1
 62
7
 10
-282.6582738069571
 20
0
 30
0
 40
57.49999999999997
  0
CIRCLE
  8
1
 62
7
 10
-282.6582738069571
 20
0
 30
0
 40
73.00000000000017
  0
TEXT
  8
1
 62
7
 10
-295.264882902876
 20
96.118151910584
 30
0
 40
5
  1
DC4405
 41
0.9
  7
SIMPLEX
  0
TEXT
  8
1
 62
7
 10
-295.264882902876
 20
103.618151910584
 30
0
 40
5
  1
UN 20
 41
0.9
  7
SIMPLEX
  0
ENDSEC
  0
EOF
