  0
SECTION
  2
HEADER
  9
$ACADVER
  1
AC1009
  9
$INSBASE
 10
0
 20
0
  9
$EXTMIN
 10
-465.4069749278489
 20
-99
  9
$EXTMAX
 10
3
 20
138.947463849953
  9
$LIMMIN
 10
-465.4069749278489
 20
-99
  9
$LIMMAX
 10
3
 20
138.947463849953
  9
$VIEWCTR
 10
10
 20
10
  9
$VIEWSIZE
 40
10
  9
$SNAPMODE
 70
0
  9
$SNAPUNIT
 10
1
 20
1
  9
$SNAPBASE
 10
0
 20
0
  9
$SNAPANG
 50
0
  9
$SNAPSTYLE
 70
0
  9
$SNAPISOPAIR
 70
0
  9
$GRIDMODE
 70
0
  9
$GRIDUNIT
 10
0
 20
0
  9
$ORTHOMODE
 70
0
  9
$REGENMODE
 70
1
  9
$FILLMODE
 70
1
  9
$QTEXTMODE
 70
0
  9
$DRAGMODE
 70
2
  9
$LTSCALE
 40
1
  9
$OSMODE
 70
0
  9
$ATTMODE
 70
1
  9
$TEXTSIZE
 40
3.5
  9
$TRACEWID
 40
0.5
  9
$TEXTSTYLE
  7
STANDARD
  9
$CLAYER
  8
0
  9
$CELTYPE
  6
BYLAYER
  9
$CECOLOR
 62
256
  9
$DIMSCALE
 40
1
  9
$DIMASZ
 40
0.18
  9
$DIMEXO
 40
0.0625
  9
$DIMDLI
 40
0.38
  9
$DIMRND
 40
0
  9
$DIMDLE
 40
0
  9
$DIMEXE
 40
0.18
  9
$DIMTP
 40
0
  9
$DIMTM
 40
0
  9
$DIMTXT
 40
0.18
  9
$DIMCEN
 40
0.09
  9
$DIMTSZ
 40
0
  9
$DIMTOL
 70
0
  9
$DIMLIM
 70
0
  9
$DIMTIH
 70
1
  9
$DIMTOH
 70
1
  9
$DIMSE1
 70
0
  9
$DIMSE2
 70
0
  9
$DIMTAD
 70
0
  9
$DIMZIN
 70
0
  9
$DIMBLK
  1

  9
$DIMASO
 70
1
  9
$DIMSHO
 70
1
  9
$DIMPOST
  1

  9
$DIMAPOST
  1

  9
$DIMALT
 70
0
  9
$DIMALTD
 70
2
  9
$DIMALTF
 40
25.4
  9
$DIMLFAC
 40
1
  9
$DIMTOFL
 70
0
  9
$DIMTVP
 40
0
  9
$DIMTIX
 70
0
  9
$DIMSOXD
 70
0
  9
$DIMSAH
 70
0
  9
$DIMBLK1
  1

  9
$DIMBLK2
  1

  9
$DIMSTYLE
  2
*UNNAMED
  9
$DIMCLRD
 70
0
  9
$DIMCLRE
 70
0
  9
$DIMCLRT
 70
0
  9
$DIMTFAC
 40
1
  9
$DIMGAP
 40
0.09
  9
$LUNITS
 70
2
  9
$LUPREC
 70
4
  9
$AXISMODE
 70
0
  9
$AXISUNIT
 10
0
 20
0
  9
$SKETCHINC
 40
0.1
  9
$FILLETRAD
 40
2
  9
$AUNITS
 70
0
  9
$AUPREC
 70
0
  9
$MENU
  1
ACAD
  9
$ELEVATION
 40
0
  9
$THICKNESS
 40
0
  9
$VIEWDIR
 10
0
 20
0
 30
1
  9
$LIMCHECK
 70
0
  9
$BLIPMODE
 70
1
  9
$CHAMFERA
 40
0
  9
$CHAMFERB
 40
0
  9
$FASTZOOM
 70
1
  9
$SKPOLY
 70
0
  9
$ANGBASE
 50
0
  9
$ANGDIR
 70
0
  9
$PDMODE
 70
0
  9
$PDSIZE
 40
0
  9
$PLINEWID
 40
0
  9
$COORDS
 70
2
  0
ENDSEC
  0
SECTION
  2
TABLES
  0
TABLE
  2
DIMSTYLE
 70
0
  0
ENDTAB
  0
TABLE
  2
LTYPE
 70
9
  0
LTYPE
  2
CONTINUOUS
 70
64
  3
Solid line
 72
65
 73
0
 40
0
  0
LTYPE
  2
BORDER
 70
64
  3
__ __ . __ __ .
 72
65
 73
6
 40
21.57137384536146
 49
6.163249670103276
 49
-3.081624835051638
 49
6.163249670103276
 49
-3.081624835051638
 49
0
 49
-3.081624835051638
  0
LTYPE
  2
CENTER
 70
64
  3
____ _ ____ _
 72
65
 73
4
 40
24.6529986804131
 49
15.40812417525819
 49
-3.081624835051638
 49
3.081624835051638
 49
-3.081624835051638
  0
LTYPE
  2
DASHDOT
 70
64
  3
__ . __ . __ .
 72
65
 73
4
 40
12.32649934020655
 49
6.163249670103276
 49
-3.081624835051638
 49
0
 49
-3.081624835051638
  0
LTYPE
  2
DASHED
 70
64
  3
__ __ __ __ __
 72
65
 73
2
 40
9.244874505154913
 49
6.163249670103276
 49
-3.081624835051638
  0
LTYPE
  2
DIVIDE
 70
64
  3
__ . . __ . . 
 72
65
 73
6
 40
15.40812417525819
 49
6.163249670103276
 49
-3.081624835051638
 49
0
 49
-3.081624835051638
 49
0
 49
-3.081624835051638
  0
LTYPE
  2
DOT
 70
64
  3
..............
 72
65
 73
4
 40
6.163249670103276
 49
0
 49
-3.081624835051638
 49
0
 49
-3.081624835051638
  0
LTYPE
  2
HIDDEN
 70
64
  3
_ _ _ _ _ _ _
 72
65
 73
2
 40
4.622437252577456
 49
3.081624835051638
 49
-1.540812417525819
  0
LTYPE
  2
PHANTOM
 70
64
  3
_____ _ _ _____ _ _ 
 72
65
 73
6
 40
30.81624835051638
 49
15.40812417525819
 49
-3.081624835051638
 49
3.081624835051638
 49
-3.081624835051638
 49
3.081624835051638
 49
-3.081624835051638
  0
ENDTAB
  0
TABLE
  2
LAYER
 70
3
  0
LAYER
  2
1
 70
0
 62
7
  6
CONTINUOUS
  0
LAYER
  2
0
 70
0
 62
7
  6
CONTINUOUS
  0
ENDTAB
  0
TABLE
  2
STYLE
 70
4
  0
STYLE
  2
STANDARD
 70
0
 40
0
 41
1
 50
0
 71
0
 42
3.5
  3
txt
  4

  0
STYLE
  2
SIMPLEX
 70
0
 40
0
 41
1
 50
0
 71
0
 42
3.5
  3
simplex
  4

  0
STYLE
  2
COMPLEX
 70
0
 40
0
 41
1
 50
0
 71
0
 42
3.5
  3
complex
  4

  0
STYLE
  2
ITALIC
 70
0
 40
0
 41
1
 50
0
 71
0
 42
3.5
  3
italic
  4

  0
ENDTAB
  0
TABLE
  2
VIEW
 70
0
  0
ENDTAB
  0
ENDSEC
  0
SECTION
  2
BLOCKS
  0
ENDSEC
  0
SECTION
  2
ENTITIES
  0
LINE
  8
1
 62
7
 10
-160.510711294802
 20
36.78098230620247
 30
0
 11
-160.510711294802
 21
-37.2779420944857
 31
0
  0
LINE
  8
1
 62
7
 10
-11.04366876767472
 20
76
 30
0
 11
0
 21
76
 31
0
  0
LINE
  8
1
 62
7
 10
-12
 20
84
 30
0
 11
0
 21
84
 31
0
  0
LINE
  8
1
 62
7
 10
-48
 20
40.2776293013091
 30
0
 11
-48
 21
54.76632236751061
 31
0
  0
LINE
  8
1
 62
7
 10
-27
 20
56.26632236751061
 30
0
 11
-46.5
 21
56.26632236751061
 31
0
  0
LINE
  8
1
 62
7
 10
-48
 20
54.76632236751061
 30
0
 11
-46.5
 21
56.26632236751061
 31
0
  0
LINE
  8
1
 62
3
 10
-10.9208842067718
 20
75
 30
0
 11
0
 21
75
 31
0
  0
LINE
  8
1
 62
3
 10
-12
 20
85
 30
0
 11
0
 21
85
 31
0
  0
LINE
  8
1
 62
7
 10
-12
 20
83.78869285594919
 30
0
 11
-10
 21
67.5
 31
0
  0
LINE
  8
1
 62
7
 10
-2.5
 20
99
 30
0
 11
0
 21
96.5
 31
0
  0
LINE
  8
1
 62
7
 10
-44
 20
90.75
 30
0
 11
-48
 21
94.75
 31
0
  0
LINE
  8
1
 62
7
 10
-46.5
 20
99
 30
0
 11
-48
 21
97.5
 31
0
  0
LINE
  8
1
 62
7
 10
-48
 20
97.5
 30
0
 11
-48
 21
94.75
 31
0
  0
LINE
  8
1
 62
7
 10
-10
 20
67.5
 30
0
 11
0
 21
67.5
 31
0
  0
LINE
  8
1
 62
7
 10
-22
 20
85.75
 30
0
 11
-22
 21
57.75548442250999
 31
0
  0
LINE
  8
1
 62
7
 10
-44
 20
52.12655082175286
 30
0
 11
-27
 21
52.12655082175286
 31
0
  0
LINE
  8
1
 62
7
 10
-12
 20
86.75
 30
0
 11
-12
 21
-86.74999999999994
 31
0
  0
LINE
  8
1
 62
7
 10
0
 20
96.5
 30
0
 11
0
 21
-96.49999999999994
 31
0
  0
LINE
  8
1
 62
7
 10
-2.5
 20
99
 30
0
 11
-46.5
 21
99
 31
0
  0
LINE
  8
1
 62
7
 10
-44
 20
38.2701443612018
 30
0
 11
-44
 21
52.12655082175286
 31
0
  0
LINE
  8
1
 62
7
 10
-48
 20
54.1340357618601
 30
0
 11
-44
 21
52.12655082175286
 31
0
  0
LINE
  8
1
 62
7
 10
-48
 20
40.2776293013091
 30
0
 11
-44
 21
38.2701443612018
 31
0
  0
LINE
  8
1
 62
7
 10
-44
 20
38.2701443612018
 30
0
 11
-25
 21
38.2701443612018
 31
0
  0
LINE
  8
1
 62
3
  6
DASHDOT
 10
-12.60807383368899
 20
80
 30
0
 11
0.6668449097210214
 21
80
 31
0
  0
LINE
  8
1
 62
7
 10
-22
 20
35.2701443612018
 30
0
 11
-22
 21
-35.27014436120169
 31
0
  0
LINE
  8
1
 62
7
 10
-10
 20
67.5
 30
0
 11
-10
 21
-67.49999999999994
 31
0
  0
LINE
  8
1
 62
3
  6
DASHDOT
 10
-330.5330222645145
 20
-62.13550868121609
 30
0
 11
-322.595847807069
 21
-75.88309811004962
 31
0
  0
LINE
  8
1
 62
3
  6
DASHDOT
 10
-402.2809275911833
 20
-62.13550868121609
 30
0
 11
-410.2181020486288
 21
-75.88309811004962
 31
0
  0
LINE
  8
1
 62
3
  6
DASHDOT
 10
-402.2809275911833
 20
62.13550868121621
 30
0
 11
-410.2181020486288
 21
75.88309811004967
 31
0
  0
LINE
  8
1
 62
3
  6
DASHDOT
 10
-330.5330222645145
 20
62.13550868121621
 30
0
 11
-322.595847807069
 21
75.88309811004967
 31
0
  0
LINE
  8
1
 62
7
 10
-276.9508458322714
 20
42.40991590695961
 30
0
 11
-283.6864447276528
 21
38.5211160715578
 31
0
  0
LINE
  8
1
 62
7
 10
-284.9508458322714
 20
56.26632236751061
 30
0
 11
-291.6864447276528
 21
52.37752253210891
 31
0
  0
LINE
  8
1
 62
7
 10
-284.9508458322714
 20
-56.26632236751061
 30
0
 11
-291.6864447276528
 21
-52.3775225321088
 31
0
  0
LINE
  8
1
 62
7
 10
-276.9508458322714
 20
-42.40991590695972
 30
0
 11
-283.6864447276528
 21
-38.52111607155791
 31
0
  0
LINE
  8
1
 62
7
 10
-374.4069749278489
 20
-98.67623827447011
 30
0
 11
-374.4069749278489
 21
-90.89863860366671
 31
0
  0
LINE
  8
1
 62
7
 10
-358.4069749278489
 20
-98.67623827447011
 30
0
 11
-358.4069749278489
 21
-90.89863860366671
 31
0
  0
LINE
  8
1
 62
7
 10
-455.8631040234264
 20
-42.40991590695972
 30
0
 11
-449.1275051280451
 21
-38.5211160715578
 31
0
  0
LINE
  8
1
 62
7
 10
-447.8631040234264
 20
-56.26632236751061
 30
0
 11
-441.1275051280451
 21
-52.3775225321088
 31
0
  0
LINE
  8
1
 62
7
 10
-447.8631040234264
 20
56.26632236751061
 30
0
 11
-441.1275051280451
 21
52.37752253210891
 31
0
  0
LINE
  8
1
 62
7
 10
-455.8631040234264
 20
42.40991590695961
 30
0
 11
-449.127505128045
 21
38.5211160715578
 31
0
  0
LINE
  8
1
 62
7
 10
-358.4069749278489
 20
98.67623827447011
 30
0
 11
-358.4069749278489
 21
90.89863860366671
 31
0
  0
LINE
  8
1
 62
7
 10
-374.4069749278489
 20
98.67623827447011
 30
0
 11
-374.4069749278489
 21
90.89863860366671
 31
0
  0
LINE
  8
1
 62
7
 10
-44
 20
90.75
 30
0
 11
-16
 21
90.75
 31
0
  0
LINE
  8
1
 62
7
 10
-449.127505128045
 20
38.5211160715578
 30
0
 11
-448.4799241509215
 21
38.72458528928297
 31
0
  0
LINE
  8
1
 62
7
 10
-441.1275051280451
 20
52.37752253210891
 30
0
 11
-440.9799241509215
 21
51.71496634604961
 31
0
  0
LINE
  8
1
 62
7
 10
-440.9799241509215
 20
-51.71496634604961
 30
0
 11
-441.1275051280451
 21
-52.3775225321088
 31
0
  0
LINE
  8
1
 62
7
 10
-449.1275051280451
 20
-38.5211160715578
 30
0
 11
-448.4799241509215
 21
-38.72458528928314
 31
0
  0
LINE
  8
1
 62
7
 10
-374.4069749278489
 20
-90.89863860366671
 30
0
 11
-373.9069749278489
 21
-90.43955163533269
 31
0
  0
LINE
  8
1
 62
7
 10
-358.9069749278489
 20
-90.43955163533269
 30
0
 11
-358.4069749278489
 21
-90.89863860366671
 31
0
  0
LINE
  8
1
 62
7
 10
-291.8340257047764
 20
-51.71496634604961
 30
0
 11
-291.6864447276528
 21
-52.3775225321088
 31
0
  0
LINE
  8
1
 62
7
 10
-284.3340257047764
 20
-38.72458528928314
 30
0
 11
-283.6864447276528
 21
-38.52111607155791
 31
0
  0
LINE
  8
1
 62
7
 10
-291.6864447276528
 20
52.37752253210891
 30
0
 11
-291.8340257047766
 21
51.71496634605006
 31
0
  0
LINE
  8
1
 62
7
 10
-284.3340257047766
 20
38.7245852892836
 30
0
 11
-283.6864447276528
 21
38.5211160715578
 31
0
  0
LINE
  8
1
 62
7
 10
-374.4069749278489
 20
90.89863860366671
 30
0
 11
-373.9069749278489
 21
90.43955163533258
 31
0
  0
LINE
  8
1
 62
7
 10
-358.4069749278489
 20
90.89863860366671
 30
0
 11
-358.9069749278489
 21
90.43955163533258
 31
0
  0
LINE
  8
1
 62
7
 10
-186.510711294802
 20
-54.76632236751061
 30
0
 11
-185.010711294802
 21
-56.26632236751061
 31
0
  0
LINE
  8
1
 62
7
 10
-182.510711294802
 20
-90.75
 30
0
 11
-165.510711294802
 21
-90.75
 31
0
  0
LINE
  8
1
 62
7
 10
-186.5107112948019
 20
-97.50000000000011
 30
0
 11
-165.510711294802
 21
-97.50000000000011
 31
0
  0
LINE
  8
1
 62
7
 10
-186.5107112948019
 20
-97.50000000000011
 30
0
 11
-186.5107112948019
 21
-94.75
 31
0
  0
LINE
  8
1
 62
7
 10
-185.010711294802
 20
-99
 30
0
 11
-186.5107112948019
 21
-97.50000000000011
 31
0
  0
LINE
  8
1
 62
7
 10
-186.5107112948019
 20
-94.75
 30
0
 11
-182.510711294802
 21
-90.75
 31
0
  0
LINE
  8
1
 62
7
 10
-185.010711294802
 20
-99
 30
0
 11
-141.010711294802
 21
-99
 31
0
  0
LINE
  8
1
 62
7
 10
-141.010711294802
 20
-99
 30
0
 11
-138.510711294802
 21
-96.5
 31
0
  0
LINE
  8
1
 62
7
 10
-185.010711294802
 20
-42.40991590695972
 30
0
 11
-165.510711294802
 21
-42.40991590695972
 31
0
  0
LINE
  8
1
 62
7
 10
-184.510711294802
 20
-38.2701443612018
 30
0
 11
-165.510711294802
 21
-38.2701443612018
 31
0
  0
LINE
  8
1
 62
7
 10
-185.010711294802
 20
-56.26632236751061
 30
0
 11
-185.010711294802
 21
-42.40991590695972
 31
0
  0
LINE
  8
1
 62
7
 10
-185.010711294802
 20
-42.40991590695972
 30
0
 11
-186.510711294802
 21
-41.65741707038552
 31
0
  0
LINE
  8
1
 62
7
 10
-160.510711294802
 20
-61.26632236751061
 30
0
 11
-160.510711294802
 21
-92.50000000000011
 31
0
  0
LINE
  8
1
 62
7
 10
-186.510711294802
 20
-40.27762930130899
 30
0
 11
-184.510711294802
 21
-38.2701443612018
 31
0
  0
LINE
  8
1
 62
7
 10
-186.510711294802
 20
-54.76632236751061
 30
0
 11
-186.510711294802
 21
-40.27762930130899
 31
0
  0
LINE
  8
1
 62
7
 10
-185.010711294802
 20
-56.26632236751061
 30
0
 11
-165.510711294802
 21
-56.26632236751061
 31
0
  0
LINE
  8
1
 62
7
 10
-185.010711294802
 20
56.26632236751067
 30
0
 11
-186.510711294802
 21
54.76632236751067
 31
0
  0
LINE
  8
1
 62
7
 10
-165.510711294802
 20
90.75000000000006
 30
0
 11
-182.510711294802
 21
90.75000000000006
 31
0
  0
LINE
  8
1
 62
7
 10
-165.510711294802
 20
97.50000000000017
 30
0
 11
-186.5107112948019
 21
97.50000000000017
 31
0
  0
LINE
  8
1
 62
7
 10
-160.510711294802
 20
92.50000000000017
 30
0
 11
-160.510711294802
 21
61.26632236751067
 31
0
  0
LINE
  8
1
 62
7
 10
-186.5107112948019
 20
94.75000000000006
 30
0
 11
-186.5107112948019
 21
97.50000000000017
 31
0
  0
LINE
  8
1
 62
7
 10
-186.5107112948019
 20
97.50000000000017
 30
0
 11
-185.010711294802
 21
99.00000000000006
 31
0
  0
LINE
  8
1
 62
7
 10
-182.510711294802
 20
90.75000000000006
 30
0
 11
-186.5107112948019
 21
94.75000000000006
 31
0
  0
LINE
  8
1
 62
7
 10
-141.010711294802
 20
99.00000000000006
 30
0
 11
-185.010711294802
 21
99.00000000000006
 31
0
  0
LINE
  8
1
 62
7
 10
-138.510711294802
 20
96.50000000000006
 30
0
 11
-141.010711294802
 21
99.00000000000006
 31
0
  0
LINE
  8
1
 62
7
 10
-165.510711294802
 20
42.40991590695978
 30
0
 11
-185.010711294802
 21
42.40991590695978
 31
0
  0
LINE
  8
1
 62
7
 10
-165.510711294802
 20
38.27014436120186
 30
0
 11
-184.510711294802
 21
38.27014436120186
 31
0
  0
LINE
  8
1
 62
7
 10
-185.010711294802
 20
42.40991590695978
 30
0
 11
-185.010711294802
 21
56.26632236751067
 31
0
  0
LINE
  8
1
 62
7
 10
-186.510711294802
 20
41.65741707038558
 30
0
 11
-185.010711294802
 21
42.40991590695978
 31
0
  0
LINE
  8
1
 62
7
 10
-184.510711294802
 20
38.27014436120186
 30
0
 11
-186.510711294802
 21
40.2776293013091
 31
0
  0
LINE
  8
1
 62
7
 10
-186.510711294802
 20
40.2776293013091
 30
0
 11
-186.510711294802
 21
54.76632236751067
 31
0
  0
LINE
  8
1
 62
7
 10
-165.510711294802
 20
56.26632236751067
 30
0
 11
-185.010711294802
 21
56.26632236751067
 31
0
  0
LINE
  8
1
 62
7
 10
-141.010711294802
 20
99.00000000000006
 30
0
 11
-141.010711294802
 21
-99
 31
0
  0
LINE
  8
1
 62
7
 10
-138.510711294802
 20
96.50000000000006
 30
0
 11
-138.510711294802
 21
-96.5
 31
0
  0
LINE
  8
1
 62
7
 10
-48
 20
-54.7663223675105
 30
0
 11
-48
 21
-40.27762930130899
 31
0
  0
LINE
  8
1
 62
7
 10
-46.5
 20
-56.2663223675105
 30
0
 11
-27
 21
-56.2663223675105
 31
0
  0
LINE
  8
1
 62
7
 10
-46.5
 20
-56.2663223675105
 30
0
 11
-48
 21
-54.7663223675105
 31
0
  0
LINE
  8
1
 62
7
 10
-10
 20
-67.49999999999994
 30
0
 11
-12
 21
-83.78869285594914
 31
0
  0
LINE
  8
1
 62
7
 10
0
 20
-96.49999999999994
 30
0
 11
-2.5
 21
-98.99999999999994
 31
0
  0
LINE
  8
1
 62
7
 10
-48
 20
-94.74999999999994
 30
0
 11
-44
 21
-90.74999999999994
 31
0
  0
LINE
  8
1
 62
7
 10
-48
 20
-97.49999999999994
 30
0
 11
-46.5
 21
-98.99999999999994
 31
0
  0
LINE
  8
1
 62
7
 10
-48
 20
-94.74999999999994
 30
0
 11
-48
 21
-97.49999999999994
 31
0
  0
LINE
  8
1
 62
7
 10
-10
 20
-67.49999999999994
 30
0
 11
0
 21
-67.49999999999994
 31
0
  0
LINE
  8
1
 62
7
 10
-22
 20
-57.75548442250994
 30
0
 11
-22
 21
-85.74999999999994
 31
0
  0
LINE
  8
1
 62
7
 10
-27
 20
-52.1265508217528
 30
0
 11
-44
 21
-52.1265508217528
 31
0
  0
LINE
  8
1
 62
7
 10
-46.5
 20
-98.99999999999994
 30
0
 11
-2.5
 21
-98.99999999999994
 31
0
  0
LINE
  8
1
 62
7
 10
-44
 20
-52.1265508217528
 30
0
 11
-44
 21
-38.27014436120169
 31
0
  0
LINE
  8
1
 62
7
 10
-44
 20
-52.1265508217528
 30
0
 11
-48
 21
-54.13403576185999
 31
0
  0
LINE
  8
1
 62
7
 10
-44
 20
-38.27014436120169
 30
0
 11
-48
 21
-40.27762930130899
 31
0
  0
LINE
  8
1
 62
7
 10
-25
 20
-38.27014436120169
 30
0
 11
-44
 21
-38.27014436120169
 31
0
  0
LINE
  8
1
 62
7
 10
-16
 20
-90.74999999999994
 30
0
 11
-44
 21
-90.74999999999994
 31
0
  0
LINE
  8
1
 62
3
 10
-163.510711294802
 20
0
 30
0
 11
-160.510711294802
 21
0
 31
0
  0
LINE
  8
1
 62
3
 10
-138.510711294802
 20
0
 30
0
 11
-135.510711294802
 21
0
 31
0
  0
LINE
  8
1
 62
3
 10
-25
 20
0
 30
0
 11
-22
 21
0
 31
0
  0
LINE
  8
1
 62
3
 10
0
 20
0
 30
0
 11
3
 21
0
 31
0
  0
LINE
  8
1
 62
3
  6
DASHDOT
 10
-362.463933586733
 20
0
 30
0
 11
-370.3500162689648
 21
0
 31
0
  0
LINE
  8
1
 62
3
  6
DASHDOT
 10
-366.4069749278489
 20
3.943041341115872
 30
0
 11
-366.4069749278489
 21
-3.943041341115929
 31
0
  0
LINE
  8
1
 62
3
  6
DASHDOT
 10
-440.4175819876886
 20
0
 30
0
 11
-452.3963678680092
 21
0
 31
0
  0
LINE
  8
1
 62
3
  6
DASHDOT
 10
-279.6577938669487
 20
0
 30
0
 11
-293.1561559887492
 21
0
 31
0
  0
ARC
  8
1
 62
7
 10
-25
 20
35.2701443612018
 30
0
 40
3
 50
0
 51
90
  0
ARC
  8
1
 62
7
 10
-165.510711294802
 20
-61.26632236751061
 30
0
 40
5
 50
0
 51
90
  0
ARC
  8
1
 62
7
 10
-165.510711294802
 20
61.26632236751067
 30
0
 40
5
 50
270
 51
0
  0
ARC
  8
1
 62
7
 10
-25
 20
-35.27014436120169
 30
0
 40
3
 50
270
 51
0
  0
ARC
  8
1
 62
7
 10
-165.8251780951807
 20
-37.09544910658104
 30
0
 40
5.323762460973212
 50
273.3863483944923
 51
358.1605898142813
  0
ARC
  8
1
 62
7
 10
-366.4069749278489
 20
0
 30
0
 40
83.78869285594917
 50
122.2835102094698
 51
177.7164897905302
  0
ARC
  8
1
 62
7
 10
-366.4069749278489
 20
0
 30
0
 40
83.78869285594915
 50
62.28351020946985
 51
117.7164897905302
  0
ARC
  8
1
 62
7
 10
-27.31446680037857
 20
57.44101762213137
 30
0
 40
5.323762460973042
 50
273.3863483944912
 51
3.38634839449163
  0
ARC
  8
1
 62
7
 10
-27
 20
61.26632236751061
 30
0
 40
5
 50
270
 51
0
  0
ARC
  8
1
 62
7
 10
-366.4069749278489
 20
0
 30
0
 40
94.75000000000011
 50
25.15659527959778
 51
34.84340472040233
  0
ARC
  8
1
 62
7
 10
-366.4069749278489
 20
0
 30
0
 40
97.50000000000006
 50
25.29351672811684
 51
34.70648327188316
  0
ARC
  8
1
 62
7
 10
-366.4069749278489
 20
0
 30
0
 40
94.75000000000004
 50
325.1565952795978
 51
334.8434047204022
  0
ARC
  8
1
 62
7
 10
-366.4069749278489
 20
0
 30
0
 40
97.50000000000006
 50
325.293516728117
 51
334.706483271883
  0
ARC
  8
1
 62
7
 10
-366.4069749278489
 20
0
 30
0
 40
94.75000000000007
 50
265.1565952795977
 51
274.8434047204023
  0
ARC
  8
1
 62
7
 10
-366.4069749278489
 20
0
 30
0
 40
97.50000000000009
 50
265.2935167281169
 51
274.7064832718831
  0
ARC
  8
1
 62
7
 10
-366.4069749278489
 20
0
 30
0
 40
94.75000000000007
 50
205.1565952795977
 51
214.8434047204023
  0
ARC
  8
1
 62
7
 10
-366.4069749278489
 20
0
 30
0
 40
97.49999999999993
 50
205.2935167281169
 51
214.7064832718832
  0
ARC
  8
1
 62
7
 10
-366.4069749278489
 20
0
 30
0
 40
94.75000000000001
 50
145.1565952795977
 51
154.8434047204023
  0
ARC
  8
1
 62
7
 10
-366.4069749278489
 20
0
 30
0
 40
97.49999999999997
 50
145.2935167281169
 51
154.7064832718832
  0
ARC
  8
1
 62
7
 10
-366.4069749278489
 20
0
 30
0
 40
94.7499999999999
 50
85.15659527959772
 51
94.84340472040229
  0
ARC
  8
1
 62
7
 10
-366.4069749278489
 20
0
 30
0
 40
97.49999999999992
 50
85.29351672811686
 51
94.70648327188314
  0
ARC
  8
1
 62
7
 10
-16
 20
86.75
 30
0
 40
4
 50
0
 51
90
  0
ARC
  8
1
 62
7
 10
-366.4069749278489
 20
0
 30
0
 40
83.78869285594919
 50
182.2835102094698
 51
237.7164897905303
  0
ARC
  8
1
 62
7
 10
-366.4069749278489
 20
0
 30
0
 40
83.78869285594921
 50
242.2835102094697
 51
297.7164897905303
  0
ARC
  8
1
 62
7
 10
-366.4069749278489
 20
0
 30
0
 40
83.78869285594919
 50
302.2835102094697
 51
357.7164897905302
  0
ARC
  8
1
 62
7
 10
-366.4069749278489
 20
0
 30
0
 40
83.78869285594914
 50
2.28351020946978
 51
57.71648979053017
  0
ARC
  8
1
 62
3
  6
DASHDOT
 10
-366.4069749278489
 20
0
 30
0
 40
79.99999999999992
 50
174.9897604077234
 51
184.8310945370772
  0
ARC
  8
1
 62
7
 10
-27
 20
85.75
 30
0
 40
5
 50
0
 51
90
  0
ARC
  8
1
 62
7
 10
-165.510711294802
 20
-85.75
 30
0
 40
5
 50
270
 51
0
  0
ARC
  8
1
 62
7
 10
-165.510711294802
 20
-92.50000000000011
 30
0
 40
5
 50
270
 51
0
  0
ARC
  8
1
 62
7
 10
-165.510711294802
 20
-33.2701443612018
 30
0
 40
5
 50
270
 51
0
  0
ARC
  8
1
 62
7
 10
-165.510711294802
 20
85.75000000000006
 30
0
 40
5
 50
0
 51
90
  0
ARC
  8
1
 62
7
 10
-165.510711294802
 20
92.50000000000017
 30
0
 40
5
 50
0
 51
90
  0
ARC
  8
1
 62
7
 10
-165.8251780951807
 20
37.0954491065811
 30
0
 40
5.323762460973216
 50
356.6136516055083
 51
86.61365160550776
  0
ARC
  8
1
 62
7
 10
-165.510711294802
 20
33.27014436120186
 30
0
 40
5
 50
0
 51
90
  0
ARC
  8
1
 62
7
 10
-27.31446680037857
 20
-57.44101762213131
 30
0
 40
5.323762460973106
 50
356.6136516055083
 51
86.61365160550882
  0
ARC
  8
1
 62
7
 10
-27
 20
-61.2663223675105
 30
0
 40
5
 50
0
 51
90
  0
ARC
  8
1
 62
7
 10
-16
 20
-86.74999999999994
 30
0
 40
4
 50
270
 51
0
  0
ARC
  8
1
 62
7
 10
-27
 20
-85.74999999999994
 30
0
 40
5
 50
270
 51
0
  0
ARC
  8
1
 62
3
  6
DASHDOT
 10
-366.4069749278489
 20
0
 30
0
 40
79.99999999999997
 50
114.5350788848114
 51
125.1145206460725
  0
ARC
  8
1
 62
3
  6
DASHDOT
 10
-366.4069749278489
 20
0
 30
0
 40
80
 50
54.94471668910829
 51
65.03610505161772
  0
ARC
  8
1
 62
3
  6
DASHDOT
 10
-366.4069749278489
 20
0
 30
0
 40
79.9999999999999
 50
354.5678551522559
 51
4.92206043285952
  0
ARC
  8
1
 62
3
  6
DASHDOT
 10
-366.4069749278489
 20
0
 30
0
 40
79.99999999999992
 50
295.4367191846973
 51
304.6034448410076
  0
ARC
  8
1
 62
3
  6
DASHDOT
 10
-366.4069749278489
 20
0
 30
0
 40
79.99999999999994
 50
234.899312173698
 51
244.8738232851171
  0
CIRCLE
  8
1
 62
7
 10
-286.406974927849
 20
0
 30
0
 40
4.000000000000057
  0
CIRCLE
  8
1
 62
7
 10
-326.4069749278489
 20
-69.282032302755
 30
0
 40
3.999999999999943
  0
CIRCLE
  8
1
 62
7
 10
-406.4069749278489
 20
-69.282032302755
 30
0
 40
4
  0
CIRCLE
  8
1
 62
7
 10
-446.4069749278489
 20
0
 30
0
 40
4
  0
CIRCLE
  8
1
 62
7
 10
-406.4069749278489
 20
69.28203230275511
 30
0
 40
4
  0
CIRCLE
  8
1
 62
7
 10
-326.4069749278489
 20
69.28203230275511
 30
0
 40
4
  0
CIRCLE
  8
1
 62
3
 10
-326.4069749278489
 20
-69.282032302755
 30
0
 40
4.999999999999943
  0
CIRCLE
  8
1
 62
3
 10
-406.4069749278489
 20
-69.282032302755
 30
0
 40
5.000000000000114
  0
CIRCLE
  8
1
 62
3
 10
-446.4069749278489
 20
0
 30
0
 40
5
  0
CIRCLE
  8
1
 62
3
 10
-406.4069749278489
 20
69.28203230275511
 30
0
 40
5
  0
CIRCLE
  8
1
 62
3
 10
-326.4069749278489
 20
69.28203230275511
 30
0
 40
5
  0
CIRCLE
  8
1
 62
3
 10
-286.406974927849
 20
0
 30
0
 40
5.000000000000057
  0
CIRCLE
  8
1
 62
7
 10
-366.4069749278489
 20
0
 30
0
 40
67.5
  0
CIRCLE
  8
1
 62
7
 10
-366.4069749278489
 20
0
 30
0
 40
90.75
  0
CIRCLE
  8
1
 62
7
 10
-366.4069749278489
 20
0
 30
0
 40
99
  0
TEXT
  8
1
 62
7
 10
-385.512122048656
 20
121.447463849953
 30
0
 40
7
  1
DC4406
 41
0.9
  7
SIMPLEX
  0
TEXT
  8
1
 62
7
 10
-385.512122048656
 20
131.947463849953
 30
0
 40
7
  1
UN 40
 41
0.9
  7
SIMPLEX
  0
ENDSEC
  0
EOF
