  0
SECTION
  2
HEADER
  9
$ACADVER
  1
AC1009
  9
$INSBASE
 10
0
 20
0
  9
$EXTMIN
 10
-555.6996449272863
 20
-119
  9
$EXTMAX
 10
3
 20
175.5800684635501
  9
$LIMMIN
 10
-555.6996449272863
 20
-119
  9
$LIMMAX
 10
3
 20
175.5800684635501
  9
$VIEWCTR
 10
10
 20
10
  9
$VIEWSIZE
 40
10
  9
$SNAPMODE
 70
0
  9
$SNAPUNIT
 10
1
 20
1
  9
$SNAPBASE
 10
0
 20
0
  9
$SNAPANG
 50
0
  9
$SNAPSTYLE
 70
0
  9
$SNAPISOPAIR
 70
0
  9
$GRIDMODE
 70
0
  9
$GRIDUNIT
 10
0
 20
0
  9
$ORTHOMODE
 70
0
  9
$REGENMODE
 70
1
  9
$FILLMODE
 70
1
  9
$QTEXTMODE
 70
0
  9
$DRAGMODE
 70
2
  9
$LTSCALE
 40
1
  9
$OSMODE
 70
0
  9
$ATTMODE
 70
1
  9
$TEXTSIZE
 40
3.5
  9
$TRACEWID
 40
0.5
  9
$TEXTSTYLE
  7
STANDARD
  9
$CLAYER
  8
0
  9
$CELTYPE
  6
BYLAYER
  9
$CECOLOR
 62
256
  9
$DIMSCALE
 40
1
  9
$DIMASZ
 40
0.18
  9
$DIMEXO
 40
0.0625
  9
$DIMDLI
 40
0.38
  9
$DIMRND
 40
0
  9
$DIMDLE
 40
0
  9
$DIMEXE
 40
0.18
  9
$DIMTP
 40
0
  9
$DIMTM
 40
0
  9
$DIMTXT
 40
0.18
  9
$DIMCEN
 40
0.09
  9
$DIMTSZ
 40
0
  9
$DIMTOL
 70
0
  9
$DIMLIM
 70
0
  9
$DIMTIH
 70
1
  9
$DIMTOH
 70
1
  9
$DIMSE1
 70
0
  9
$DIMSE2
 70
0
  9
$DIMTAD
 70
0
  9
$DIMZIN
 70
0
  9
$DIMBLK
  1

  9
$DIMASO
 70
1
  9
$DIMSHO
 70
1
  9
$DIMPOST
  1

  9
$DIMAPOST
  1

  9
$DIMALT
 70
0
  9
$DIMALTD
 70
2
  9
$DIMALTF
 40
25.4
  9
$DIMLFAC
 40
1
  9
$DIMTOFL
 70
0
  9
$DIMTVP
 40
0
  9
$DIMTIX
 70
0
  9
$DIMSOXD
 70
0
  9
$DIMSAH
 70
0
  9
$DIMBLK1
  1

  9
$DIMBLK2
  1

  9
$DIMSTYLE
  2
*UNNAMED
  9
$DIMCLRD
 70
0
  9
$DIMCLRE
 70
0
  9
$DIMCLRT
 70
0
  9
$DIMTFAC
 40
1
  9
$DIMGAP
 40
0.09
  9
$LUNITS
 70
2
  9
$LUPREC
 70
4
  9
$AXISMODE
 70
0
  9
$AXISUNIT
 10
0
 20
0
  9
$SKETCHINC
 40
0.1
  9
$FILLETRAD
 40
2
  9
$AUNITS
 70
0
  9
$AUPREC
 70
0
  9
$MENU
  1
ACAD
  9
$ELEVATION
 40
0
  9
$THICKNESS
 40
0
  9
$VIEWDIR
 10
0
 20
0
 30
1
  9
$LIMCHECK
 70
0
  9
$BLIPMODE
 70
1
  9
$CHAMFERA
 40
0
  9
$CHAMFERB
 40
0
  9
$FASTZOOM
 70
1
  9
$SKPOLY
 70
0
  9
$ANGBASE
 50
0
  9
$ANGDIR
 70
0
  9
$PDMODE
 70
0
  9
$PDSIZE
 40
0
  9
$PLINEWID
 40
0
  9
$COORDS
 70
2
  0
ENDSEC
  0
SECTION
  2
TABLES
  0
TABLE
  2
DIMSTYLE
 70
0
  0
ENDTAB
  0
TABLE
  2
LTYPE
 70
9
  0
LTYPE
  2
CONTINUOUS
 70
64
  3
Solid line
 72
65
 73
0
 40
0
  0
LTYPE
  2
BORDER
 70
64
  3
__ __ . __ __ .
 72
65
 73
6
 40
25.72958891112503
 49
7.351311117464293
 49
-3.675655558732147
 49
7.351311117464293
 49
-3.675655558732147
 49
0
 49
-3.675655558732147
  0
LTYPE
  2
CENTER
 70
64
  3
____ _ ____ _
 72
65
 73
4
 40
29.40524446985717
 49
18.37827779366073
 49
-3.675655558732147
 49
3.675655558732147
 49
-3.675655558732147
  0
LTYPE
  2
DASHDOT
 70
64
  3
__ . __ . __ .
 72
65
 73
4
 40
14.70262223492859
 49
7.351311117464293
 49
-3.675655558732147
 49
0
 49
-3.675655558732147
  0
LTYPE
  2
DASHED
 70
64
  3
__ __ __ __ __
 72
65
 73
2
 40
11.02696667619644
 49
7.351311117464293
 49
-3.675655558732147
  0
LTYPE
  2
DIVIDE
 70
64
  3
__ . . __ . . 
 72
65
 73
6
 40
18.37827779366073
 49
7.351311117464293
 49
-3.675655558732147
 49
0
 49
-3.675655558732147
 49
0
 49
-3.675655558732147
  0
LTYPE
  2
DOT
 70
64
  3
..............
 72
65
 73
4
 40
7.351311117464293
 49
0
 49
-3.675655558732147
 49
0
 49
-3.675655558732147
  0
LTYPE
  2
HIDDEN
 70
64
  3
_ _ _ _ _ _ _
 72
65
 73
2
 40
5.51348333809822
 49
3.675655558732147
 49
-1.837827779366073
  0
LTYPE
  2
PHANTOM
 70
64
  3
_____ _ _ _____ _ _ 
 72
65
 73
6
 40
36.75655558732147
 49
18.37827779366073
 49
-3.675655558732147
 49
3.675655558732147
 49
-3.675655558732147
 49
3.675655558732147
 49
-3.675655558732147
  0
ENDTAB
  0
TABLE
  2
LAYER
 70
3
  0
LAYER
  2
1
 70
0
 62
7
  6
CONTINUOUS
  0
LAYER
  2
0
 70
0
 62
7
  6
CONTINUOUS
  0
ENDTAB
  0
TABLE
  2
STYLE
 70
4
  0
STYLE
  2
STANDARD
 70
0
 40
0
 41
1
 50
0
 71
0
 42
3.5
  3
txt
  4

  0
STYLE
  2
SIMPLEX
 70
0
 40
0
 41
1
 50
0
 71
0
 42
3.5
  3
simplex
  4

  0
STYLE
  2
COMPLEX
 70
0
 40
0
 41
1
 50
0
 71
0
 42
3.5
  3
complex
  4

  0
STYLE
  2
ITALIC
 70
0
 40
0
 41
1
 50
0
 71
0
 42
3.5
  3
italic
  4

  0
ENDTAB
  0
TABLE
  2
VIEW
 70
0
  0
ENDTAB
  0
ENDSEC
  0
SECTION
  2
BLOCKS
  0
ENDSEC
  0
SECTION
  2
ENTITIES
  0
LINE
  8
1
 62
7
 10
-152.5508147947861
 20
116
 30
0
 11
-152.5508147947861
 21
-116
 31
0
  0
LINE
  8
1
 62
3
  6
DASHDOT
 10
-390.934735983139
 20
79.267147495026
 30
0
 11
-382.5231560825571
 21
93.83643125475911
 31
0
  0
LINE
  8
1
 62
3
 10
0
 20
94
 30
0
 11
-14.10506104812611
 21
94
 31
0
  0
LINE
  8
1
 62
7
 10
0
 20
95.20000000000002
 30
0
 11
-14.2524025212096
 21
95.20000000000002
 31
0
  0
LINE
  8
1
 62
3
  6
DASHDOT
 10
-18
 20
100
 30
0
 11
3
 21
100
 31
0
  0
LINE
  8
1
 62
7
 10
-15
 20
104.8
 30
0
 11
0
 21
104.8
 31
0
  0
LINE
  8
1
 62
3
 10
-15
 20
106
 30
0
 11
0
 21
106
 31
0
  0
LINE
  8
1
 62
7
 10
-13
 20
85
 30
0
 11
0
 21
85
 31
0
  0
LINE
  8
1
 62
7
 10
-13
 20
85
 30
0
 11
-13
 21
-85
 31
0
  0
LINE
  8
1
 62
7
 10
-15
 20
101.2886928559492
 30
0
 11
-13
 21
85
 31
0
  0
LINE
  8
1
 62
7
 10
-447.6996449272862
 20
118.490505948789
 30
0
 11
-447.6996449272862
 21
110.4486180817282
 31
0
  0
LINE
  8
1
 62
7
 10
-425.6996449272862
 20
118.490505948789
 30
0
 11
-425.6996449272862
 21
110.4486180817282
 31
0
  0
LINE
  8
1
 62
7
 10
0
 20
116
 30
0
 11
0
 21
-116
 31
0
  0
LINE
  8
1
 62
7
 10
-58.50000000000001
 20
119
 30
0
 11
-3
 21
119
 31
0
  0
LINE
  8
1
 62
7
 10
-55.00000000000001
 20
110
 30
0
 11
-20
 21
110
 31
0
  0
LINE
  8
1
 62
7
 10
-60.00000000000001
 20
115
 30
0
 11
-60.00000000000001
 21
117.5
 31
0
  0
LINE
  8
1
 62
7
 10
-58.50000000000001
 20
119
 30
0
 11
-60.00000000000001
 21
117.5
 31
0
  0
LINE
  8
1
 62
7
 10
-55.00000000000001
 20
110
 30
0
 11
-60.00000000000001
 21
115
 31
0
  0
LINE
  8
1
 62
7
 10
0
 20
116
 30
0
 11
-3
 21
119
 31
0
  0
LINE
  8
1
 62
7
 10
-60.00000000000001
 20
68.01826607227761
 30
0
 11
-58.50000000000001
 21
68.77153241602329
 31
0
  0
LINE
  8
1
 62
7
 10
-60.00000000000001
 20
47.71007264338785
 30
0
 11
-60.00000000000001
 21
68.01826607227761
 31
0
  0
LINE
  8
1
 62
7
 10
-55.00000000000001
 20
45.19802959923522
 30
0
 11
-60.00000000000001
 21
47.71007264338785
 31
0
  0
LINE
  8
1
 62
7
 10
-54.99999999999994
 20
64.2505884824929
 30
0
 11
-60.00000000000001
 21
66.76263152664549
 31
0
  0
LINE
  8
1
 62
7
 10
-58.50000000000001
 20
68.77153241602329
 30
0
 11
-32.00000000000001
 21
68.77153241602329
 31
0
  0
LINE
  8
1
 62
7
 10
-55.00000000000001
 20
45.19802959923522
 30
0
 11
-32.00000000000001
 21
45.19802959923522
 31
0
  0
LINE
  8
1
 62
7
 10
-31.99999999999994
 20
64.2505884824929
 30
0
 11
-54.99999999999994
 21
64.2505884824929
 31
0
  0
LINE
  8
1
 62
7
 10
-25.99999999999994
 20
70.2505884824929
 30
0
 11
-26
 21
104
 31
0
  0
LINE
  8
1
 62
7
 10
-55.00000000000001
 20
45.19802959923522
 30
0
 11
-54.99999999999994
 21
64.2505884824929
 31
0
  0
LINE
  8
1
 62
7
 10
-425.6996449272862
 20
110.4486180817282
 30
0
 11
-426.6118056167606
 21
109.5364573922537
 31
0
  0
LINE
  8
1
 62
7
 10
-447.6996449272862
 20
110.4486180817282
 30
0
 11
-446.7874842378117
 21
109.5364573922537
 31
0
  0
LINE
  8
1
 62
7
 10
-533.8154331862086
 20
68.77153241602329
 30
0
 11
-526.8509539989481
 21
64.7505884824929
 31
0
  0
LINE
  8
1
 62
7
 10
-526.8509539989481
 20
64.7505884824929
 30
0
 11
-526.5170800142669
 21
63.5045538083372
 31
0
  0
LINE
  8
1
 62
7
 10
-544.8154331862086
 20
49.71897353276569
 30
0
 11
-537.8509539989481
 21
45.69802959923528
 31
0
  0
LINE
  8
1
 62
7
 10
-537.8509539989481
 20
45.69802959923528
 30
0
 11
-536.6049193247924
 21
46.03190358391645
 31
0
  0
LINE
  8
1
 62
7
 10
-544.8154331862086
 20
-49.71897353276565
 30
0
 11
-537.8509539989481
 21
-45.69802959923526
 31
0
  0
LINE
  8
1
 62
7
 10
-537.8509539989481
 20
-45.69802959923526
 30
0
 11
-536.6049193247924
 21
-46.03190358391645
 31
0
  0
LINE
  8
1
 62
7
 10
-533.8154331862086
 20
-68.77153241602332
 30
0
 11
-526.8509539989481
 21
-64.7505884824929
 31
0
  0
LINE
  8
1
 62
7
 10
-526.8509539989481
 20
-64.7505884824929
 30
0
 11
-526.5170800142669
 21
-63.50455380833723
 31
0
  0
LINE
  8
1
 62
7
 10
-447.6996449272862
 20
-118.490505948789
 30
0
 11
-447.6996449272862
 21
-110.4486180817282
 31
0
  0
LINE
  8
1
 62
7
 10
-447.6996449272862
 20
-110.4486180817282
 30
0
 11
-446.7874842378117
 21
-109.5364573922537
 31
0
  0
LINE
  8
1
 62
7
 10
-425.6996449272862
 20
-118.490505948789
 30
0
 11
-425.6996449272862
 21
-110.4486180817282
 31
0
  0
LINE
  8
1
 62
7
 10
-425.6996449272862
 20
-110.4486180817282
 30
0
 11
-426.6118056167607
 21
-109.5364573922537
 31
0
  0
LINE
  8
1
 62
7
 10
-339.5838566683638
 20
-68.77153241602339
 30
0
 11
-346.5483358556243
 21
-64.75058848249296
 31
0
  0
LINE
  8
1
 62
7
 10
-346.5483358556243
 20
-64.75058848249296
 30
0
 11
-346.8822098403055
 21
-63.50455380833728
 31
0
  0
LINE
  8
1
 62
7
 10
-335.5483358556243
 20
-45.69802959923532
 30
0
 11
-336.7943705297799
 21
-46.0319035839165
 31
0
  0
LINE
  8
1
 62
7
 10
-328.5838566683638
 20
-49.71897353276574
 30
0
 11
-335.5483358556243
 21
-45.69802959923532
 31
0
  0
LINE
  8
1
 62
7
 10
-335.5483358556243
 20
-45.69802959923532
 30
0
 11
-336.7943705297799
 21
-46.0319035839165
 31
0
  0
LINE
  8
1
 62
7
 10
-328.5838566683636
 20
49.71897353276561
 30
0
 11
-335.5483358556242
 21
45.69802959923521
 31
0
  0
LINE
  8
1
 62
7
 10
-335.5483358556242
 20
45.69802959923521
 30
0
 11
-336.7943705297798
 21
46.03190358391641
 31
0
  0
LINE
  8
1
 62
7
 10
-346.5483358556242
 20
64.7505884824929
 30
0
 11
-346.8822098403053
 21
63.5045538083372
 31
0
  0
LINE
  8
1
 62
7
 10
-339.5838566683636
 20
68.77153241602329
 30
0
 11
-346.5483358556242
 21
64.7505884824929
 31
0
  0
LINE
  8
1
 62
7
 10
-346.5483358556242
 20
64.7505884824929
 30
0
 11
-346.8822098403053
 21
63.5045538083372
 31
0
  0
LINE
  8
1
 62
7
 10
-155.5508147947861
 20
-119
 30
0
 11
-211.0508147947861
 21
-119
 31
0
  0
LINE
  8
1
 62
7
 10
-184.5508147947861
 20
-110
 30
0
 11
-207.5508147947861
 21
-110
 31
0
  0
LINE
  8
1
 62
7
 10
-178.5508147947861
 20
-74.77153241602326
 30
0
 11
-178.5508147947861
 21
-110.9839732612976
 31
0
  0
LINE
  8
1
 62
7
 10
-212.5508147947861
 20
-117.5
 30
0
 11
-212.5508147947861
 21
-115
 31
0
  0
LINE
  8
1
 62
7
 10
-212.5508147947861
 20
-117.5
 30
0
 11
-211.0508147947861
 21
-119
 31
0
  0
LINE
  8
1
 62
7
 10
-212.5508147947861
 20
-115
 30
0
 11
-207.5508147947861
 21
-110
 31
0
  0
LINE
  8
1
 62
7
 10
-155.5508147947861
 20
-119
 30
0
 11
-152.5508147947861
 21
-116
 31
0
  0
LINE
  8
1
 62
7
 10
-211.0508147947861
 20
-68.77153241602326
 30
0
 11
-212.5508147947861
 21
-68.01826607227758
 31
0
  0
LINE
  8
1
 62
7
 10
-212.5508147947861
 20
-68.01826607227758
 30
0
 11
-212.5508147947861
 21
-47.71007264338784
 31
0
  0
LINE
  8
1
 62
7
 10
-212.5508147947861
 20
-47.71007264338784
 30
0
 11
-207.5508147947861
 21
-45.19802959923521
 31
0
  0
LINE
  8
1
 62
7
 10
-184.5508147947861
 20
-68.77153241602326
 30
0
 11
-211.0508147947861
 21
-68.77153241602326
 31
0
  0
LINE
  8
1
 62
7
 10
-184.5508147947861
 20
-45.19802959923521
 30
0
 11
-207.5508147947861
 21
-45.19802959923521
 31
0
  0
LINE
  8
1
 62
7
 10
-211.0508147947861
 20
-49.71897353276564
 30
0
 11
-212.5508147947861
 21
-48.96570718901998
 31
0
  0
LINE
  8
1
 62
7
 10
-211.0508147947861
 20
-68.77153241602326
 30
0
 11
-211.0508147947861
 21
-49.71897353276564
 31
0
  0
LINE
  8
1
 62
7
 10
-211.0508147947861
 20
-49.71897353276564
 30
0
 11
-184.5508147947859
 21
-49.71897353276565
 31
0
  0
LINE
  8
1
 62
7
 10
-212.5508147947861
 20
-116.9839732612976
 30
0
 11
-184.5508147947861
 21
-116.9839732612976
 31
0
  0
LINE
  8
1
 62
7
 10
-211.0508147947861
 20
-119
 30
0
 11
-211.0508147947861
 21
-116.9839732612976
 31
0
  0
LINE
  8
1
 62
7
 10
-211.0508147947861
 20
119
 30
0
 11
-155.5508147947861
 21
119
 31
0
  0
LINE
  8
1
 62
7
 10
-207.5508147947861
 20
109.9999999999999
 30
0
 11
-184.5508147947861
 21
110
 31
0
  0
LINE
  8
1
 62
7
 10
-212.5508147947861
 20
115
 30
0
 11
-212.5508147947861
 21
117.5
 31
0
  0
LINE
  8
1
 62
7
 10
-211.0508147947861
 20
119
 30
0
 11
-212.5508147947861
 21
117.5
 31
0
  0
LINE
  8
1
 62
7
 10
-207.5508147947861
 20
109.9999999999999
 30
0
 11
-212.5508147947861
 21
115
 31
0
  0
LINE
  8
1
 62
7
 10
-152.5508147947861
 20
116
 30
0
 11
-155.5508147947861
 21
119
 31
0
  0
LINE
  8
1
 62
7
 10
-212.5508147947861
 20
68.01826607227761
 30
0
 11
-211.0508147947861
 21
68.77153241602329
 31
0
  0
LINE
  8
1
 62
7
 10
-212.5508147947861
 20
47.71007264338783
 30
0
 11
-212.5508147947861
 21
68.01826607227761
 31
0
  0
LINE
  8
1
 62
7
 10
-207.5508147947861
 20
45.19802959923519
 30
0
 11
-212.5508147947861
 21
47.71007264338783
 31
0
  0
LINE
  8
1
 62
7
 10
-211.0508147947861
 20
68.77153241602329
 30
0
 11
-184.5508147947861
 21
68.77153241602321
 31
0
  0
LINE
  8
1
 62
7
 10
-207.5508147947861
 20
45.19802959923519
 30
0
 11
-184.5508147947861
 21
45.19802959923519
 31
0
  0
LINE
  8
1
 62
7
 10
-212.5508147947861
 20
48.96570718901997
 30
0
 11
-211.0508147947861
 21
49.71897353276562
 31
0
  0
LINE
  8
1
 62
7
 10
-211.0508147947861
 20
49.71897353276562
 30
0
 11
-211.0508147947861
 21
68.77153241602329
 31
0
  0
LINE
  8
1
 62
7
 10
-184.5508147947859
 20
49.71897353276564
 30
0
 11
-211.0508147947861
 21
49.71897353276562
 31
0
  0
LINE
  8
1
 62
7
 10
-178.5508147947861
 20
74.77153241602321
 30
0
 11
-178.5508147947861
 21
110.9839732612976
 31
0
  0
LINE
  8
1
 62
7
 10
-184.5508147947861
 20
116.9839732612976
 30
0
 11
-212.5508147947861
 21
116.9839732612976
 31
0
  0
LINE
  8
1
 62
7
 10
-211.0508147947861
 20
116.9839732612976
 30
0
 11
-211.0508147947861
 21
119
 31
0
  0
LINE
  8
1
 62
7
 10
-178.5508147947859
 20
43.71897353276564
 30
0
 11
-178.5508147947859
 21
-43.71897353276565
 31
0
  0
LINE
  8
1
 62
7
 10
-155.5508147947861
 20
119
 30
0
 11
-155.5508147947861
 21
-119
 31
0
  0
LINE
  8
1
 62
7
 10
-26
 20
39.19802959923522
 30
0
 11
-26
 21
-39.19802959923523
 31
0
  0
LINE
  8
1
 62
7
 10
-13
 20
-85
 30
0
 11
0
 21
-85
 31
0
  0
LINE
  8
1
 62
7
 10
-13
 20
-85
 30
0
 11
-15
 21
-101.2886928559492
 31
0
  0
LINE
  8
1
 62
7
 10
-3
 20
-119
 30
0
 11
-58.50000000000001
 21
-119
 31
0
  0
LINE
  8
1
 62
7
 10
-20
 20
-110
 30
0
 11
-55.00000000000001
 21
-110
 31
0
  0
LINE
  8
1
 62
7
 10
-60.00000000000001
 20
-117.5
 30
0
 11
-60.00000000000001
 21
-115
 31
0
  0
LINE
  8
1
 62
7
 10
-60.00000000000001
 20
-117.5
 30
0
 11
-58.50000000000001
 21
-119
 31
0
  0
LINE
  8
1
 62
7
 10
-60.00000000000001
 20
-115
 30
0
 11
-55.00000000000001
 21
-110
 31
0
  0
LINE
  8
1
 62
7
 10
-3
 20
-119
 30
0
 11
0
 21
-116
 31
0
  0
LINE
  8
1
 62
7
 10
-58.50000000000001
 20
-68.77153241602326
 30
0
 11
-60.00000000000001
 21
-68.01826607227758
 31
0
  0
LINE
  8
1
 62
7
 10
-60.00000000000001
 20
-68.01826607227758
 30
0
 11
-60.00000000000001
 21
-47.71007264338784
 31
0
  0
LINE
  8
1
 62
7
 10
-60.00000000000001
 20
-47.71007264338784
 30
0
 11
-55.00000000000001
 21
-45.19802959923523
 31
0
  0
LINE
  8
1
 62
7
 10
-60.00000000000001
 20
-66.76263152664549
 30
0
 11
-54.99999999999994
 21
-64.2505884824929
 31
0
  0
LINE
  8
1
 62
7
 10
-32.00000000000001
 20
-68.77153241602326
 30
0
 11
-58.50000000000001
 21
-68.77153241602326
 31
0
  0
LINE
  8
1
 62
7
 10
-32.00000000000001
 20
-45.19802959923521
 30
0
 11
-55.00000000000001
 21
-45.19802959923523
 31
0
  0
LINE
  8
1
 62
7
 10
-54.99999999999994
 20
-64.2505884824929
 30
0
 11
-31.99999999999994
 21
-64.2505884824929
 31
0
  0
LINE
  8
1
 62
7
 10
-25.99999999999994
 20
-70.25058848249289
 30
0
 11
-26
 21
-104
 31
0
  0
LINE
  8
1
 62
7
 10
-54.99999999999994
 20
-64.2505884824929
 30
0
 11
-55.00000000000001
 21
-45.19802959923523
 31
0
  0
LINE
  8
1
 62
7
 10
-15
 20
105
 30
0
 11
-15
 21
-105
 31
0
  0
LINE
  8
1
 62
3
  6
DASHDOT
 10
-423.005291264534
 20
0
 30
0
 11
-450.3939985900382
 21
0
 31
0
  0
LINE
  8
1
 62
3
  6
DASHDOT
 10
-436.6996449272862
 20
13.69435366275211
 30
0
 11
-436.6996449272862
 21
-13.69435366275211
 31
0
  0
LINE
  8
1
 62
3
 10
-181.5508147947861
 20
0
 30
0
 11
-178.5508147947861
 21
0
 31
0
  0
LINE
  8
1
 62
3
 10
-152.5508147947861
 20
0
 30
0
 11
-149.5508147947861
 21
0
 31
0
  0
LINE
  8
1
 62
3
 10
-29
 20
0
 30
0
 11
-26
 21
0
 31
0
  0
LINE
  8
1
 62
3
 10
0
 20
0
 30
0
 11
3
 21
0
 31
0
  0
LINE
  8
1
 62
3
  6
DASHDOT
 10
-482.4645538714331
 20
79.26714749502611
 30
0
 11
-490.8761337720151
 21
93.83643125475922
 31
0
  0
LINE
  8
1
 62
3
  6
DASHDOT
 10
-528.2294628155802
 20
9.237055564881302e-014
 30
0
 11
-545.0526226167441
 21
9.947598300641403e-014
 31
0
  0
LINE
  8
1
 62
3
  6
DASHDOT
 10
-482.4645538714332
 20
-79.26714749502597
 30
0
 11
-490.8761337720152
 21
-93.83643125475908
 31
0
  0
LINE
  8
1
 62
3
  6
DASHDOT
 10
-390.9347359831393
 20
-79.26714749502605
 30
0
 11
-382.5231560825572
 21
-93.83643125475916
 31
0
  0
LINE
  8
1
 62
3
  6
DASHDOT
 10
-345.169827038992
 20
-9.947598300641403e-014
 30
0
 11
-328.3466672378281
 21
-1.06581410364015e-013
 31
0
  0
ARC
  8
1
 62
7
 10
-32.00000000000001
 20
104
 30
0
 40
6.000000000000007
 50
0
 51
90
  0
ARC
  8
1
 62
7
 10
-20
 20
105
 30
0
 40
5
 50
0
 51
90
  0
ARC
  8
1
 62
7
 10
-32.00000000000001
 20
39.19802959923522
 30
0
 40
6.000000000000007
 50
0
 51
90
  0
ARC
  8
1
 62
7
 10
-32.00000000000001
 20
74.77153241602329
 30
0
 40
6
 50
270
 51
0
  0
ARC
  8
1
 62
7
 10
-31.99999999999994
 20
70.2505884824929
 30
0
 40
6
 50
270
 51
0
  0
ARC
  8
1
 62
7
 10
-184.5508147947861
 20
-104
 30
0
 40
6
 50
270
 51
0
  0
ARC
  8
1
 62
7
 10
-184.5508147947861
 20
-39.19802959923521
 30
0
 40
6
 50
270
 51
0
  0
ARC
  8
1
 62
7
 10
-184.5508147947861
 20
-74.77153241602326
 30
0
 40
6
 50
0
 51
90
  0
ARC
  8
1
 62
7
 10
-184.5508147947859
 20
-43.71897353276565
 30
0
 40
6
 50
270
 51
0
  0
ARC
  8
1
 62
7
 10
-184.5508147947861
 20
-110.9839732612976
 30
0
 40
6
 50
270
 51
0
  0
ARC
  8
1
 62
7
 10
-184.5508147947861
 20
104
 30
0
 40
6
 50
0
 51
90
  0
ARC
  8
1
 62
7
 10
-184.5508147947861
 20
39.19802959923519
 30
0
 40
6.000000000000103
 50
1.603203554886119
 51
90
  0
ARC
  8
1
 62
7
 10
-184.5508147947861
 20
74.77153241602321
 30
0
 40
6
 50
270
 51
0
  0
ARC
  8
1
 62
7
 10
-184.5508147947859
 20
43.71897353276564
 30
0
 40
6
 50
0
 51
90
  0
ARC
  8
1
 62
7
 10
-184.5508147947861
 20
110.9839732612976
 30
0
 40
6
 50
0
 51
90
  0
ARC
  8
1
 62
7
 10
-32.00000000000001
 20
-104
 30
0
 40
6
 50
270
 51
0
  0
ARC
  8
1
 62
7
 10
-20
 20
-105
 30
0
 40
5
 50
270
 51
0
  0
ARC
  8
1
 62
7
 10
-32.00000000000001
 20
-39.19802959923523
 30
0
 40
5.999999999999986
 50
270
 51
0
  0
ARC
  8
1
 62
7
 10
-32.00000000000001
 20
-74.77153241602326
 30
0
 40
6.000000000000007
 50
0
 51
90
  0
ARC
  8
1
 62
7
 10
-31.99999999999994
 20
-70.25058848249289
 30
0
 40
6
 50
0
 51
90
  0
ARC
  8
1
 62
7
 10
-436.6996449272862
 20
0
 30
0
 40
101.2885
 50
123.3365881868452
 51
176.6634118131547
  0
ARC
  8
1
 62
7
 10
-436.6996449272862
 20
0
 30
0
 40
101.2885
 50
3.336588186845257
 51
56.66341181315467
  0
ARC
  8
1
 62
7
 10
-436.6996449272862
 20
0
 30
0
 40
101.2885000000001
 50
303.3365881868453
 51
356.6634118131547
  0
ARC
  8
1
 62
7
 10
-436.6996449272862
 20
0
 30
0
 40
101.2884999999999
 50
243.3365881868453
 51
296.6634118131548
  0
ARC
  8
1
 62
7
 10
-436.6996449272862
 20
0
 30
0
 40
101.2884999999999
 50
183.3365881868453
 51
236.6634118131548
  0
ARC
  8
1
 62
7
 10
-436.6996449272862
 20
0
 30
0
 40
101.2885000000001
 50
63.33658818684523
 51
116.6634118131546
  0
ARC
  8
1
 62
7
 10
-436.6996449272862
 20
0
 30
0
 40
117.5
 50
84.62827378519937
 51
95.37172621480066
  0
ARC
  8
1
 62
7
 10
-436.6996449272862
 20
0
 30
0
 40
115
 50
84.51114243096355
 51
95.48885756903646
  0
ARC
  8
1
 62
7
 10
-436.6996449272862
 20
0
 30
0
 40
114.9999999999999
 50
144.5111424309635
 51
155.4888575690364
  0
ARC
  8
1
 62
7
 10
-436.6996449272862
 20
0
 30
0
 40
117.5
 50
144.6282737851993
 51
155.3717262148006
  0
ARC
  8
1
 62
7
 10
-436.6996449272862
 20
0
 30
0
 40
114.9999999999999
 50
204.5111424309636
 51
215.4888575690365
  0
ARC
  8
1
 62
7
 10
-436.6996449272862
 20
0
 30
0
 40
117.5
 50
204.6282737851994
 51
215.3717262148007
  0
ARC
  8
1
 62
7
 10
-436.6996449272862
 20
0
 30
0
 40
115
 50
264.5111424309636
 51
275.4888575690364
  0
ARC
  8
1
 62
7
 10
-436.6996449272862
 20
0
 30
0
 40
117.5
 50
264.6282737851993
 51
275.3717262148007
  0
ARC
  8
1
 62
7
 10
-436.6996449272862
 20
0
 30
0
 40
115.0000000000001
 50
324.5111424309636
 51
335.4888575690364
  0
ARC
  8
1
 62
7
 10
-436.6996449272862
 20
0
 30
0
 40
117.5000000000001
 50
324.6282737851993
 51
335.3717262148007
  0
ARC
  8
1
 62
7
 10
-436.6996449272862
 20
0
 30
0
 40
114.9999999999999
 50
24.51114243096351
 51
35.48885756903641
  0
ARC
  8
1
 62
7
 10
-436.6996449272862
 20
0
 30
0
 40
117.5000000000001
 50
24.62827378519928
 51
35.3717262148006
  0
ARC
  8
1
 62
3
  6
DASHDOT
 10
-436.6996449272862
 20
0
 30
0
 40
100.0000000000001
 50
54.96051806213521
 51
65.44855295817848
  0
ARC
  8
1
 62
3
  6
DASHDOT
 10
-436.6996449272862
 20
0
 30
0
 40
100
 50
114.9605180621352
 51
125.4485529581784
  0
ARC
  8
1
 62
3
  6
DASHDOT
 10
-436.6996449272862
 20
0
 30
0
 40
100
 50
174.9605180621352
 51
185.4485529581785
  0
ARC
  8
1
 62
3
  6
DASHDOT
 10
-436.6996449272862
 20
0
 30
0
 40
100
 50
234.9605180621353
 51
245.4485529581786
  0
ARC
  8
1
 62
3
  6
DASHDOT
 10
-436.6996449272862
 20
0
 30
0
 40
100.0000000000001
 50
294.9605180621353
 51
305.4485529581785
  0
ARC
  8
1
 62
3
  6
DASHDOT
 10
-436.6996449272862
 20
0
 30
0
 40
100.0000000000001
 50
354.9605180621352
 51
5.44855295817852
  0
CIRCLE
  8
1
 62
3
 10
-336.6996449272862
 20
-7.105427357601002e-015
 30
0
 40
6
  0
CIRCLE
  8
1
 62
7
 10
-336.6996449272862
 20
-7.105427357601002e-015
 30
0
 40
4.800000000000125
  0
CIRCLE
  8
1
 62
3
 10
-386.6996449272862
 20
-86.60254037844391
 30
0
 40
6
  0
CIRCLE
  8
1
 62
7
 10
-386.6996449272862
 20
-86.60254037844391
 30
0
 40
4.799999999999898
  0
CIRCLE
  8
1
 62
3
 10
-486.6996449272862
 20
-86.60254037844386
 30
0
 40
6
  0
CIRCLE
  8
1
 62
7
 10
-486.6996449272862
 20
-86.60254037844386
 30
0
 40
4.800000000000011
  0
CIRCLE
  8
1
 62
3
 10
-536.6996449272862
 20
2.131628207280301e-014
 30
0
 40
6
  0
CIRCLE
  8
1
 62
7
 10
-536.6996449272862
 20
2.131628207280301e-014
 30
0
 40
4.799999999999955
  0
CIRCLE
  8
1
 62
3
 10
-486.6996449272861
 20
86.60254037844391
 30
0
 40
6
  0
CIRCLE
  8
1
 62
7
 10
-486.6996449272861
 20
86.60254037844391
 30
0
 40
4.800000000000011
  0
CIRCLE
  8
1
 62
3
 10
-386.6996449272862
 20
86.60254037844391
 30
0
 40
6
  0
CIRCLE
  8
1
 62
7
 10
-386.6996449272862
 20
86.60254037844391
 30
0
 40
4.800000000000125
  0
CIRCLE
  8
1
 62
7
 10
-436.6996449272862
 20
0
 30
0
 40
85
  0
CIRCLE
  8
1
 62
7
 10
-436.6996449272862
 20
0
 30
0
 40
119
  0
CIRCLE
  8
1
 62
7
 10
-436.6996449272862
 20
0
 30
0
 40
110
  0
TEXT
  8
1
 62
7
 10
-464.1645522619707
 20
150.5800684635501
 30
0
 40
10
  1
DC4407
 41
0.9
  7
SIMPLEX
  0
TEXT
  8
1
 62
7
 10
-464.1645522619707
 20
165.5800684635501
 30
0
 40
10
  1
UN 80
 41
0.9
  7
SIMPLEX
  0
ENDSEC
  0
EOF
