  0
SECTION
  2
HEADER
  9
$ACADVER
  1
AC1009
  9
$INSBASE
 10
0
 20
0
  9
$EXTMIN
 10
-675.850465626699
 20
-147.0000000000001
  9
$EXTMAX
 10
3
 20
202.881520291376
  9
$LIMMIN
 10
-675.850465626699
 20
-147.0000000000001
  9
$LIMMAX
 10
3
 20
202.881520291376
  9
$VIEWCTR
 10
10
 20
10
  9
$VIEWSIZE
 40
10
  9
$SNAPMODE
 70
0
  9
$SNAPUNIT
 10
1
 20
1
  9
$SNAPBASE
 10
0
 20
0
  9
$SNAPANG
 50
0
  9
$SNAPSTYLE
 70
0
  9
$SNAPISOPAIR
 70
0
  9
$GRIDMODE
 70
0
  9
$GRIDUNIT
 10
0
 20
0
  9
$ORTHOMODE
 70
0
  9
$REGENMODE
 70
1
  9
$FILLMODE
 70
1
  9
$QTEXTMODE
 70
0
  9
$DRAGMODE
 70
2
  9
$LTSCALE
 40
1
  9
$OSMODE
 70
0
  9
$ATTMODE
 70
1
  9
$TEXTSIZE
 40
3.5
  9
$TRACEWID
 40
0.5
  9
$TEXTSTYLE
  7
STANDARD
  9
$CLAYER
  8
0
  9
$CELTYPE
  6
BYLAYER
  9
$CECOLOR
 62
256
  9
$DIMSCALE
 40
1
  9
$DIMASZ
 40
0.18
  9
$DIMEXO
 40
0.0625
  9
$DIMDLI
 40
0.38
  9
$DIMRND
 40
0
  9
$DIMDLE
 40
0
  9
$DIMEXE
 40
0.18
  9
$DIMTP
 40
0
  9
$DIMTM
 40
0
  9
$DIMTXT
 40
0.18
  9
$DIMCEN
 40
0.09
  9
$DIMTSZ
 40
0
  9
$DIMTOL
 70
0
  9
$DIMLIM
 70
0
  9
$DIMTIH
 70
1
  9
$DIMTOH
 70
1
  9
$DIMSE1
 70
0
  9
$DIMSE2
 70
0
  9
$DIMTAD
 70
0
  9
$DIMZIN
 70
0
  9
$DIMBLK
  1

  9
$DIMASO
 70
1
  9
$DIMSHO
 70
1
  9
$DIMPOST
  1

  9
$DIMAPOST
  1

  9
$DIMALT
 70
0
  9
$DIMALTD
 70
2
  9
$DIMALTF
 40
25.4
  9
$DIMLFAC
 40
1
  9
$DIMTOFL
 70
0
  9
$DIMTVP
 40
0
  9
$DIMTIX
 70
0
  9
$DIMSOXD
 70
0
  9
$DIMSAH
 70
0
  9
$DIMBLK1
  1

  9
$DIMBLK2
  1

  9
$DIMSTYLE
  2
*UNNAMED
  9
$DIMCLRD
 70
0
  9
$DIMCLRE
 70
0
  9
$DIMCLRT
 70
0
  9
$DIMTFAC
 40
1
  9
$DIMGAP
 40
0.09
  9
$LUNITS
 70
2
  9
$LUPREC
 70
4
  9
$AXISMODE
 70
0
  9
$AXISUNIT
 10
0
 20
0
  9
$SKETCHINC
 40
0.1
  9
$FILLETRAD
 40
2
  9
$AUNITS
 70
0
  9
$AUPREC
 70
0
  9
$MENU
  1
ACAD
  9
$ELEVATION
 40
0
  9
$THICKNESS
 40
0
  9
$VIEWDIR
 10
0
 20
0
 30
1
  9
$LIMCHECK
 70
0
  9
$BLIPMODE
 70
1
  9
$CHAMFERA
 40
0
  9
$CHAMFERB
 40
0
  9
$FASTZOOM
 70
1
  9
$SKPOLY
 70
0
  9
$ANGBASE
 50
0
  9
$ANGDIR
 70
0
  9
$PDMODE
 70
0
  9
$PDSIZE
 40
0
  9
$PLINEWID
 40
0
  9
$COORDS
 70
2
  0
ENDSEC
  0
SECTION
  2
TABLES
  0
TABLE
  2
DIMSTYLE
 70
0
  0
ENDTAB
  0
TABLE
  2
LTYPE
 70
9
  0
LTYPE
  2
CONTINUOUS
 70
64
  3
Solid line
 72
65
 73
0
 40
0
  0
LTYPE
  2
BORDER
 70
64
  3
__ __ . __ __ .
 72
65
 73
6
 40
31.26285039070324
 49
8.932242968772355
 49
-4.466121484386178
 49
8.932242968772355
 49
-4.466121484386178
 49
0
 49
-4.466121484386178
  0
LTYPE
  2
CENTER
 70
64
  3
____ _ ____ _
 72
65
 73
4
 40
35.72897187508942
 49
22.33060742193089
 49
-4.466121484386178
 49
4.466121484386178
 49
-4.466121484386178
  0
LTYPE
  2
DASHDOT
 70
64
  3
__ . __ . __ .
 72
65
 73
4
 40
17.86448593754471
 49
8.932242968772355
 49
-4.466121484386178
 49
0
 49
-4.466121484386178
  0
LTYPE
  2
DASHED
 70
64
  3
__ __ __ __ __
 72
65
 73
2
 40
13.39836445315853
 49
8.932242968772355
 49
-4.466121484386178
  0
LTYPE
  2
DIVIDE
 70
64
  3
__ . . __ . . 
 72
65
 73
6
 40
22.33060742193089
 49
8.932242968772355
 49
-4.466121484386178
 49
0
 49
-4.466121484386178
 49
0
 49
-4.466121484386178
  0
LTYPE
  2
DOT
 70
64
  3
..............
 72
65
 73
4
 40
8.932242968772355
 49
0
 49
-4.466121484386178
 49
0
 49
-4.466121484386178
  0
LTYPE
  2
HIDDEN
 70
64
  3
_ _ _ _ _ _ _
 72
65
 73
2
 40
6.699182226579266
 49
4.466121484386178
 49
-2.233060742193089
  0
LTYPE
  2
PHANTOM
 70
64
  3
_____ _ _ _____ _ _ 
 72
65
 73
6
 40
44.66121484386178
 49
22.33060742193089
 49
-4.466121484386178
 49
4.466121484386178
 49
-4.466121484386178
 49
4.466121484386178
 49
-4.466121484386178
  0
ENDTAB
  0
TABLE
  2
LAYER
 70
3
  0
LAYER
  2
1
 70
0
 62
7
  6
CONTINUOUS
  0
LAYER
  2
0
 70
0
 62
7
  6
CONTINUOUS
  0
ENDTAB
  0
TABLE
  2
STYLE
 70
4
  0
STYLE
  2
STANDARD
 70
0
 40
0
 41
1
 50
0
 71
0
 42
3.5
  3
txt
  4

  0
STYLE
  2
SIMPLEX
 70
0
 40
0
 41
1
 50
0
 71
0
 42
3.5
  3
simplex
  4

  0
STYLE
  2
COMPLEX
 70
0
 40
0
 41
1
 50
0
 71
0
 42
3.5
  3
complex
  4

  0
STYLE
  2
ITALIC
 70
0
 40
0
 41
1
 50
0
 71
0
 42
3.5
  3
italic
  4

  0
ENDTAB
  0
TABLE
  2
VIEW
 70
0
  0
ENDTAB
  0
ENDSEC
  0
SECTION
  2
BLOCKS
  0
ENDSEC
  0
SECTION
  2
ENTITIES
  0
LINE
  8
1
 62
7
 10
-207.429669366826
 20
54.12596458495722
 30
0
 11
-207.429669366826
 21
-54.1259645849571
 31
0
  0
LINE
  8
1
 62
7
 10
-213.429669366826
 20
86.10672669849032
 30
0
 11
-243.429669366826
 21
86.10672669849032
 31
0
  0
LINE
  8
1
 62
7
 10
-543.850465626699
 20
146.2326912834473
 30
0
 11
-543.850465626699
 21
133.9125180855024
 31
0
  0
LINE
  8
1
 62
7
 10
-513.850465626699
 20
146.2326912834473
 30
0
 11
-513.850465626699
 21
133.9125180855024
 31
0
  0
LINE
  8
1
 62
7
 10
-543.850465626699
 20
133.9125180855024
 30
0
 11
-542.850465626699
 21
133.0152716796083
 31
0
  0
LINE
  8
1
 62
7
 10
-513.850465626699
 20
133.9125180855024
 30
0
 11
-514.850465626699
 21
133.0152716796083
 31
0
  0
LINE
  8
1
 62
7
 10
-662.9916911419316
 20
60.1259645849571
 30
0
 11
-652.3221081734872
 21
53.9658779859846
 31
0
  0
LINE
  8
1
 62
7
 10
-647.9916911419316
 20
-86.10672669849021
 30
0
 11
-637.3221081734871
 21
-79.94664009951782
 31
0
  0
LINE
  8
1
 62
7
 10
-513.8504656266989
 20
-146.2326912834473
 30
0
 11
-513.8504656266989
 21
-133.9125180855023
 31
0
  0
LINE
  8
1
 62
7
 10
-394.7092401114664
 20
-60.12596458495699
 30
0
 11
-405.3788230799109
 21
-53.96587798598449
 31
0
  0
LINE
  8
1
 62
7
 10
-409.7092401114666
 20
86.10672669849021
 30
0
 11
-420.3788230799109
 21
79.94664009951771
 31
0
  0
LINE
  8
1
 62
7
 10
-662.9916911419316
 20
60.1259645849571
 30
0
 11
-652.3221081734872
 21
53.9658779859846
 31
0
  0
LINE
  8
1
 62
7
 10
-652.3221081734872
 20
53.9658779859846
 30
0
 11
-651.0450699925286
 21
54.38328018682199
 31
0
  0
LINE
  8
1
 62
7
 10
-647.9916911419316
 20
-86.10672669849021
 30
0
 11
-637.3221081734871
 21
-79.94664009951782
 31
0
  0
LINE
  8
1
 62
7
 10
-637.3221081734871
 20
-79.94664009951782
 30
0
 11
-637.0450699925285
 21
-78.63199149278631
 31
0
  0
LINE
  8
1
 62
7
 10
-513.8504656266989
 20
-146.2326912834473
 30
0
 11
-513.8504656266989
 21
-133.9125180855023
 31
0
  0
LINE
  8
1
 62
7
 10
-513.8504656266989
 20
-133.9125180855023
 30
0
 11
-514.8504656266989
 21
-133.0152716796083
 31
0
  0
LINE
  8
1
 62
7
 10
-394.7092401114664
 20
-60.12596458495699
 30
0
 11
-405.3788230799109
 21
-53.96587798598449
 31
0
  0
LINE
  8
1
 62
7
 10
-405.3788230799109
 20
-53.96587798598449
 30
0
 11
-406.6558612608695
 21
-54.38328018682188
 31
0
  0
LINE
  8
1
 62
7
 10
-409.7092401114666
 20
86.10672669849021
 30
0
 11
-420.3788230799109
 21
79.94664009951771
 31
0
  0
LINE
  8
1
 62
7
 10
-420.3788230799109
 20
79.94664009951771
 30
0
 11
-420.6558612608695
 21
78.6319914927862
 31
0
  0
LINE
  8
1
 62
7
 10
-647.9916911419316
 20
86.10672669849021
 30
0
 11
-637.3221081734872
 21
79.94664009951771
 31
0
  0
LINE
  8
1
 62
7
 10
-662.9916911419316
 20
-60.1259645849571
 30
0
 11
-652.3221081734871
 21
-53.9658779859846
 31
0
  0
LINE
  8
1
 62
7
 10
-543.8504656266989
 20
-146.2326912834473
 30
0
 11
-543.8504656266989
 21
-133.9125180855023
 31
0
  0
LINE
  8
1
 62
7
 10
-409.7092401114664
 20
-86.10672669849009
 30
0
 11
-420.3788230799109
 21
-79.94664009951771
 31
0
  0
LINE
  8
1
 62
7
 10
-394.7092401114666
 20
60.12596458495699
 30
0
 11
-405.3788230799111
 21
53.9658779859846
 31
0
  0
LINE
  8
1
 62
3
  6
DASHDOT
 10
-463.5491993592318
 20
113.1051109738369
 30
0
 11
-474.2764356635856
 21
94.52499266989861
 31
0
  0
LINE
  8
1
 62
3
  6
DASHDOT
 10
-594.1517318941662
 20
113.1051109738369
 30
0
 11
-583.4244955898124
 21
94.52499266989861
 31
0
  0
LINE
  8
1
 62
3
  6
DASHDOT
 10
-659.4529981616335
 20
0
 30
0
 11
-637.9985255529257
 21
0
 31
0
  0
LINE
  8
1
 62
3
  6
DASHDOT
 10
-594.1517318941661
 20
-113.1051109738368
 30
0
 11
-583.4244955898123
 21
-94.52499266989861
 31
0
  0
LINE
  8
1
 62
3
  6
DASHDOT
 10
-463.5491993592318
 20
-113.1051109738368
 30
0
 11
-474.2764356635857
 21
-94.5249926698985
 31
0
  0
LINE
  8
1
 62
3
  6
DASHDOT
 10
-594.1517318941662
 20
113.1051109738369
 30
0
 11
-583.4244955898124
 21
94.52499266989861
 31
0
  0
LINE
  8
1
 62
3
  6
DASHDOT
 10
-594.1517318941661
 20
-113.1051109738368
 30
0
 11
-583.4244955898123
 21
-94.52499266989861
 31
0
  0
LINE
  8
1
 62
3
  6
DASHDOT
 10
-463.5491993592318
 20
-113.1051109738368
 30
0
 11
-474.2764356635857
 21
-94.5249926698985
 31
0
  0
LINE
  8
1
 62
3
  6
DASHDOT
 10
-20.6080738336891
 20
120
 30
0
 11
0.6668449097210214
 21
120
 31
0
  0
LINE
  8
1
 62
7
 10
-75
 20
55.97802203479409
 30
0
 11
-70
 21
53.46272741078371
 31
0
  0
LINE
  8
1
 62
7
 10
-75
 20
81.9587841483272
 30
0
 11
-70
 21
79.44348952431682
 31
0
  0
LINE
  8
1
 62
7
 10
-70
 20
53.46272741078371
 30
0
 11
-70
 21
79.44348952431682
 31
0
  0
LINE
  8
1
 62
7
 10
0
 20
144
 30
0
 11
0
 21
-144.0000000000001
 31
0
  0
LINE
  8
1
 62
7
 10
-20
 20
128.75
 30
0
 11
-20
 21
-128.7500000000001
 31
0
  0
LINE
  8
1
 62
7
 10
-37
 20
85.44348952431682
 30
0
 11
-37
 21
127.75
 31
0
  0
LINE
  8
1
 62
7
 10
-17
 20
100
 30
0
 11
0
 21
100
 31
0
  0
LINE
  8
1
 62
7
 10
-647.9916911419316
 20
86.10672669849021
 30
0
 11
-637.3221081734872
 21
79.94664009951771
 31
0
  0
LINE
  8
1
 62
7
 10
-637.3221081734872
 20
79.94664009951771
 30
0
 11
-637.0450699925286
 21
78.63199149278631
 31
0
  0
LINE
  8
1
 62
7
 10
-662.9916911419316
 20
-60.1259645849571
 30
0
 11
-652.3221081734871
 21
-53.9658779859846
 31
0
  0
LINE
  8
1
 62
7
 10
-652.3221081734871
 20
-53.9658779859846
 30
0
 11
-651.0450699925285
 21
-54.38328018682199
 31
0
  0
LINE
  8
1
 62
7
 10
-543.8504656266989
 20
-146.2326912834473
 30
0
 11
-543.8504656266989
 21
-133.9125180855023
 31
0
  0
LINE
  8
1
 62
7
 10
-543.8504656266989
 20
-133.9125180855023
 30
0
 11
-542.8504656266989
 21
-133.0152716796083
 31
0
  0
LINE
  8
1
 62
7
 10
-409.7092401114664
 20
-86.10672669849009
 30
0
 11
-420.3788230799109
 21
-79.94664009951771
 31
0
  0
LINE
  8
1
 62
7
 10
-420.3788230799109
 20
-79.94664009951771
 30
0
 11
-420.6558612608695
 21
-78.6319914927862
 31
0
  0
LINE
  8
1
 62
7
 10
-394.7092401114666
 20
60.12596458495699
 30
0
 11
-405.3788230799111
 21
53.9658779859846
 31
0
  0
LINE
  8
1
 62
7
 10
-405.3788230799111
 20
53.9658779859846
 30
0
 11
-406.6558612608695
 21
54.38328018682188
 31
0
  0
LINE
  8
1
 62
7
 10
-70
 20
79.44348952431682
 30
0
 11
-43
 21
79.44348952431682
 31
0
  0
LINE
  8
1
 62
7
 10
-70
 20
53.46272741078371
 30
0
 11
-43
 21
53.46272741078371
 31
0
  0
LINE
  8
1
 62
7
 10
-37
 20
47.46272741078371
 30
0
 11
-37
 21
-47.46272741078377
 31
0
  0
LINE
  8
1
 62
7
 10
-75
 20
145
 30
0
 11
-75
 21
138.75
 31
0
  0
LINE
  8
1
 62
7
 10
-73
 20
147
 30
0
 11
-75
 21
145
 31
0
  0
LINE
  8
1
 62
7
 10
-70
 20
133.75
 30
0
 11
-75
 21
138.75
 31
0
  0
LINE
  8
1
 62
7
 10
0
 20
144
 30
0
 11
-3
 21
147
 31
0
  0
LINE
  8
1
 62
7
 10
-73
 20
147
 30
0
 11
-3
 21
147
 31
0
  0
LINE
  8
1
 62
7
 10
-70
 20
133.75
 30
0
 11
-25
 21
133.75
 31
0
  0
LINE
  8
1
 62
7
 10
-17
 20
100
 30
0
 11
-17
 21
-100.0000000000001
 31
0
  0
LINE
  8
1
 62
3
 10
-20
 20
128
 30
0
 11
0
 21
128
 31
0
  0
LINE
  8
1
 62
7
 10
-20
 20
127
 30
0
 11
0
 21
127
 31
0
  0
LINE
  8
1
 62
7
 10
-18.596199291738
 20
113
 30
0
 11
0
 21
113
 31
0
  0
LINE
  8
1
 62
3
 10
-18.47341473083497
 20
112
 30
0
 11
0
 21
112
 31
0
  0
LINE
  8
1
 62
7
 10
-20
 20
124.4330392839238
 30
0
 11
-17
 21
100
 31
0
  0
LINE
  8
1
 62
7
 10
-75
 20
84.10672669849021
 30
0
 11
-73
 21
86.10672669849021
 31
0
  0
LINE
  8
1
 62
7
 10
-43
 20
86.10672669849021
 30
0
 11
-73
 21
86.10672669849021
 31
0
  0
LINE
  8
1
 62
7
 10
-75
 20
55.97802203479409
 30
0
 11
-75
 21
84.10672669849021
 31
0
  0
LINE
  8
1
 62
7
 10
-243.429669366826
 20
-86.10672669849021
 30
0
 11
-213.429669366826
 21
-86.10672669849021
 31
0
  0
LINE
  8
1
 62
7
 10
-245.429669366826
 20
-85.10672669849021
 30
0
 11
-245.429669366826
 21
-55.97802203479421
 31
0
  0
LINE
  8
1
 62
7
 10
-245.429669366826
 20
-55.97802203479421
 30
0
 11
-243.429669366826
 21
-53.46272741078371
 31
0
  0
LINE
  8
1
 62
7
 10
-243.429669366826
 20
-60.1259645849571
 30
0
 11
-245.429669366826
 21
-59.1206444525132
 31
0
  0
LINE
  8
1
 62
7
 10
-243.429669366826
 20
-86.10672669849021
 30
0
 11
-243.429669366826
 21
-60.1259645849571
 31
0
  0
LINE
  8
1
 62
7
 10
-173.429669366826
 20
-147
 30
0
 11
-170.429669366826
 21
-144
 31
0
  0
LINE
  8
1
 62
7
 10
-243.929669366826
 20
-147
 30
0
 11
-173.429669366826
 21
-147
 31
0
  0
LINE
  8
1
 62
7
 10
-245.429669366826
 20
-138.75
 30
0
 11
-241.429669366826
 21
-133.7500000000001
 31
0
  0
LINE
  8
1
 62
7
 10
-243.929669366826
 20
-147
 30
0
 11
-245.429669366826
 21
-145
 31
0
  0
LINE
  8
1
 62
7
 10
-245.429669366826
 20
-145
 30
0
 11
-245.429669366826
 21
-138.75
 31
0
  0
LINE
  8
1
 62
7
 10
-243.429669366826
 20
-53.46272741078371
 30
0
 11
-213.429669366826
 21
-53.46272741078371
 31
0
  0
LINE
  8
1
 62
7
 10
-243.429669366826
 20
-60.1259645849571
 30
0
 11
-213.429669366826
 21
-60.1259645849571
 31
0
  0
LINE
  8
1
 62
7
 10
-241.429669366826
 20
-133.7500000000001
 30
0
 11
-213.429669366826
 21
-133.75
 31
0
  0
LINE
  8
1
 62
7
 10
-207.429669366826
 20
-139
 30
0
 11
-207.429669366826
 21
-92.10672669849021
 31
0
  0
LINE
  8
1
 62
7
 10
-245.429669366826
 20
-145
 30
0
 11
-213.429669366826
 21
-145
 31
0
  0
LINE
  8
1
 62
7
 10
-243.429669366826
 20
-86.10672669849021
 30
0
 11
-245.429669366826
 21
-85.10672669849021
 31
0
  0
LINE
  8
1
 62
7
 10
-245.429669366826
 20
55.97802203479432
 30
0
 11
-245.429669366826
 21
85.10672669849032
 31
0
  0
LINE
  8
1
 62
7
 10
-243.429669366826
 20
53.46272741078383
 30
0
 11
-245.429669366826
 21
55.97802203479432
 31
0
  0
LINE
  8
1
 62
7
 10
-245.429669366826
 20
59.12064445251332
 30
0
 11
-243.429669366826
 21
60.12596458495722
 31
0
  0
LINE
  8
1
 62
7
 10
-243.429669366826
 20
60.12596458495722
 30
0
 11
-243.429669366826
 21
86.10672669849032
 31
0
  0
LINE
  8
1
 62
7
 10
-170.429669366826
 20
144
 30
0
 11
-173.429669366826
 21
147
 31
0
  0
LINE
  8
1
 62
7
 10
-173.429669366826
 20
147
 30
0
 11
-243.929669366826
 21
147
 31
0
  0
LINE
  8
1
 62
7
 10
-241.429669366826
 20
133.7500000000001
 30
0
 11
-245.429669366826
 21
138.75
 31
0
  0
LINE
  8
1
 62
7
 10
-245.429669366826
 20
145
 30
0
 11
-243.929669366826
 21
147
 31
0
  0
LINE
  8
1
 62
7
 10
-245.429669366826
 20
138.75
 30
0
 11
-245.429669366826
 21
145
 31
0
  0
LINE
  8
1
 62
7
 10
-213.429669366826
 20
53.46272741078383
 30
0
 11
-243.429669366826
 21
53.46272741078383
 31
0
  0
LINE
  8
1
 62
7
 10
-213.429669366826
 20
60.12596458495722
 30
0
 11
-243.429669366826
 21
60.12596458495722
 31
0
  0
LINE
  8
1
 62
7
 10
-213.429669366826
 20
133.75
 30
0
 11
-241.429669366826
 21
133.7500000000001
 31
0
  0
LINE
  8
1
 62
7
 10
-207.429669366826
 20
139
 30
0
 11
-207.429669366826
 21
92.10672669849032
 31
0
  0
LINE
  8
1
 62
7
 10
-213.429669366826
 20
145
 30
0
 11
-245.429669366826
 21
145
 31
0
  0
LINE
  8
1
 62
7
 10
-245.429669366826
 20
85.10672669849032
 30
0
 11
-243.429669366826
 21
86.10672669849032
 31
0
  0
LINE
  8
1
 62
7
 10
-173.429669366826
 20
147
 30
0
 11
-173.429669366826
 21
-147
 31
0
  0
LINE
  8
1
 62
7
 10
-170.429669366826
 20
144
 30
0
 11
-170.429669366826
 21
-144
 31
0
  0
LINE
  8
1
 62
3
  6
DASHDOT
 10
-210.429669366826
 20
0
 30
0
 11
-207.429669366826
 21
0
 31
0
  0
LINE
  8
1
 62
3
  6
DASHDOT
 10
-170.429669366826
 20
0
 30
0
 11
-167.429669366826
 21
0
 31
0
  0
LINE
  8
1
 62
7
 10
-70
 20
-53.46272741078377
 30
0
 11
-75
 21
-55.97802203479421
 31
0
  0
LINE
  8
1
 62
7
 10
-70
 20
-79.44348952431687
 30
0
 11
-75
 21
-81.95878414832731
 31
0
  0
LINE
  8
1
 62
7
 10
-70
 20
-79.44348952431687
 30
0
 11
-70
 21
-53.46272741078377
 31
0
  0
LINE
  8
1
 62
7
 10
-37
 20
-127.7500000000001
 30
0
 11
-37
 21
-85.44348952431687
 31
0
  0
LINE
  8
1
 62
7
 10
-17
 20
-100.0000000000001
 30
0
 11
0
 21
-100.0000000000001
 31
0
  0
LINE
  8
1
 62
7
 10
-43
 20
-79.44348952431687
 30
0
 11
-70
 21
-79.44348952431687
 31
0
  0
LINE
  8
1
 62
7
 10
-43
 20
-53.46272741078377
 30
0
 11
-70
 21
-53.46272741078377
 31
0
  0
LINE
  8
1
 62
7
 10
-75
 20
-138.7500000000001
 30
0
 11
-75
 21
-145.0000000000001
 31
0
  0
LINE
  8
1
 62
7
 10
-75
 20
-145.0000000000001
 30
0
 11
-73
 21
-147.0000000000001
 31
0
  0
LINE
  8
1
 62
7
 10
-75
 20
-138.7500000000001
 30
0
 11
-70
 21
-133.7500000000001
 31
0
  0
LINE
  8
1
 62
7
 10
-3
 20
-147.0000000000001
 30
0
 11
0
 21
-144.0000000000001
 31
0
  0
LINE
  8
1
 62
7
 10
-3
 20
-147.0000000000001
 30
0
 11
-73
 21
-147.0000000000001
 31
0
  0
LINE
  8
1
 62
7
 10
-25
 20
-133.7500000000001
 30
0
 11
-70
 21
-133.7500000000001
 31
0
  0
LINE
  8
1
 62
7
 10
-17
 20
-100.0000000000001
 30
0
 11
-20
 21
-124.4330392839239
 31
0
  0
LINE
  8
1
 62
7
 10
-73
 20
-86.10672669849032
 30
0
 11
-75
 21
-84.10672669849032
 31
0
  0
LINE
  8
1
 62
7
 10
-73
 20
-86.10672669849032
 30
0
 11
-43
 21
-86.10672669849032
 31
0
  0
LINE
  8
1
 62
7
 10
-75
 20
-84.10672669849032
 30
0
 11
-75
 21
-55.97802203479421
 31
0
  0
LINE
  8
1
 62
3
  6
DASHDOT
 10
-40
 20
0
 30
0
 11
-37
 21
0
 31
0
  0
LINE
  8
1
 62
3
  6
DASHDOT
 10
0
 20
0
 30
0
 11
3
 21
0
 31
0
  0
LINE
  8
1
 62
3
  6
DASHDOT
 10
-514.477262346279
 20
0
 30
0
 11
-543.2236689071191
 21
0
 31
0
  0
LINE
  8
1
 62
3
  6
DASHDOT
 10
-528.850465626699
 20
14.37320328042011
 30
0
 11
-528.850465626699
 21
-14.37320328042011
 31
0
  0
LINE
  8
1
 62
3
  6
DASHDOT
 10
-594.1517318941662
 20
113.1051109738369
 30
0
 11
-583.4244955898124
 21
94.52499266989861
 31
0
  0
LINE
  8
1
 62
3
  6
DASHDOT
 10
-659.4529981616335
 20
0
 30
0
 11
-637.9985255529257
 21
0
 31
0
  0
LINE
  8
1
 62
3
  6
DASHDOT
 10
-594.1517318941661
 20
-113.1051109738368
 30
0
 11
-583.4244955898123
 21
-94.52499266989861
 31
0
  0
LINE
  8
1
 62
3
  6
DASHDOT
 10
-463.5491993592318
 20
-113.1051109738368
 30
0
 11
-474.2764356635857
 21
-94.5249926698985
 31
0
  0
LINE
  8
1
 62
3
  6
DASHDOT
 10
-398.2479330917645
 20
-1.13686837721616e-013
 30
0
 11
-419.7024057004722
 21
-1.13686837721616e-013
 31
0
  0
ARC
  8
1
 62
7
 10
-528.850465626699
 20
0
 30
0
 40
124.4330392839237
 50
3.12288311768575
 51
56.87711688231421
  0
ARC
  8
1
 62
7
 10
-528.850465626699
 20
0
 30
0
 40
124.4330392839238
 50
303.1228831176857
 51
356.8771168823142
  0
ARC
  8
1
 62
7
 10
-528.850465626699
 20
0
 30
0
 40
124.4330392839239
 50
243.1228831176858
 51
296.8771168823142
  0
ARC
  8
1
 62
7
 10
-528.850465626699
 20
0
 30
0
 40
124.4330392839238
 50
183.1228831176858
 51
236.8771168823143
  0
ARC
  8
1
 62
7
 10
-528.850465626699
 20
0
 30
0
 40
124.4330392839238
 50
63.12288311768583
 51
116.8771168823142
  0
ARC
  8
1
 62
7
 10
-528.850465626699
 20
0
 30
0
 40
145
 50
84.06222754839457
 51
95.93777245160543
  0
ARC
  8
1
 62
7
 10
-528.850465626699
 20
0
 30
0
 40
138.75
 50
83.79373224901011
 51
96.20626775098991
  0
ARC
  8
1
 62
7
 10
-528.850465626699
 20
0
 30
0
 40
144.9999999999999
 50
144.0622275483945
 51
155.9377724516054
  0
ARC
  8
1
 62
7
 10
-528.850465626699
 20
0
 30
0
 40
138.75
 50
143.7937322490101
 51
156.2062677509899
  0
ARC
  8
1
 62
7
 10
-528.850465626699
 20
0
 30
0
 40
144.9999999999999
 50
204.0622275483945
 51
215.9377724516055
  0
ARC
  8
1
 62
7
 10
-528.850465626699
 20
0
 30
0
 40
138.7500000000001
 50
203.7937322490101
 51
216.2062677509899
  0
ARC
  8
1
 62
7
 10
-528.850465626699
 20
0
 30
0
 40
144.9999999999999
 50
264.0622275483946
 51
275.9377724516053
  0
ARC
  8
1
 62
7
 10
-528.850465626699
 20
0
 30
0
 40
138.75
 50
263.7937322490101
 51
276.20626775099
  0
ARC
  8
1
 62
7
 10
-528.850465626699
 20
0
 30
0
 40
144.9999999999999
 50
324.0622275483946
 51
335.9377724516054
  0
ARC
  8
1
 62
7
 10
-528.850465626699
 20
0
 30
0
 40
138.7499999999997
 50
323.79373224901
 51
336.20626775099
  0
ARC
  8
1
 62
7
 10
-528.850465626699
 20
0
 30
0
 40
144.9999999999999
 50
24.06222754839459
 51
35.93777245160542
  0
ARC
  8
1
 62
7
 10
-528.850465626699
 20
0
 30
0
 40
138.7499999999997
 50
23.79373224901011
 51
36.20626775098992
  0
ARC
  8
1
 62
7
 10
-528.850465626699
 20
0
 30
0
 40
144.9999999999999
 50
204.0622275483945
 51
215.9377724516055
  0
ARC
  8
1
 62
7
 10
-528.850465626699
 20
0
 30
0
 40
144.9999999999999
 50
264.0622275483946
 51
275.9377724516053
  0
ARC
  8
1
 62
7
 10
-528.850465626699
 20
0
 30
0
 40
144.9999999999999
 50
324.0622275483946
 51
335.9377724516054
  0
ARC
  8
1
 62
7
 10
-528.850465626699
 20
0
 30
0
 40
144.9999999999999
 50
24.06222754839459
 51
35.93777245160542
  0
ARC
  8
1
 62
7
 10
-528.850465626699
 20
0
 30
0
 40
145
 50
84.06222754839457
 51
95.93777245160543
  0
ARC
  8
1
 62
7
 10
-43
 20
127.75
 30
0
 40
6
 50
0
 51
90
  0
ARC
  8
1
 62
7
 10
-43
 20
92.10672669849021
 30
0
 40
6
 50
270
 51
0
  0
ARC
  8
1
 62
7
 10
-43
 20
85.44348952431682
 30
0
 40
6
 50
270
 51
0
  0
ARC
  8
1
 62
7
 10
-43
 20
47.46272741078371
 30
0
 40
6
 50
0
 51
90
  0
ARC
  8
1
 62
7
 10
-25
 20
128.75
 30
0
 40
5
 50
0
 51
90
  0
ARC
  8
1
 62
7
 10
-528.850465626699
 20
0
 30
0
 40
124.4330392839238
 50
123.1228831176858
 51
176.8771168823142
  0
ARC
  8
1
 62
7
 10
-213.429669366826
 20
-47.46272741078371
 30
0
 40
6
 50
270
 51
0
  0
ARC
  8
1
 62
7
 10
-213.429669366826
 20
-54.1259645849571
 30
0
 40
6
 50
270
 51
0
  0
ARC
  8
1
 62
7
 10
-213.429669366826
 20
-92.10672669849021
 30
0
 40
6
 50
0
 51
90
  0
ARC
  8
1
 62
7
 10
-213.429669366826
 20
-127.75
 30
0
 40
6
 50
270
 51
0
  0
ARC
  8
1
 62
7
 10
-213.429669366826
 20
-139
 30
0
 40
6
 50
270
 51
0
  0
ARC
  8
1
 62
7
 10
-213.429669366826
 20
47.46272741078383
 30
0
 40
6
 50
0
 51
90
  0
ARC
  8
1
 62
7
 10
-213.429669366826
 20
54.12596458495722
 30
0
 40
6
 50
0
 51
90
  0
ARC
  8
1
 62
7
 10
-213.429669366826
 20
92.10672669849032
 30
0
 40
6
 50
270
 51
0
  0
ARC
  8
1
 62
7
 10
-213.429669366826
 20
127.75
 30
0
 40
6
 50
0
 51
90
  0
ARC
  8
1
 62
7
 10
-213.429669366826
 20
139
 30
0
 40
6
 50
0
 51
90
  0
ARC
  8
1
 62
7
 10
-43
 20
-127.7500000000001
 30
0
 40
6.000000000000014
 50
270
 51
0
  0
ARC
  8
1
 62
7
 10
-43
 20
-92.10672669849032
 30
0
 40
6
 50
0
 51
90
  0
ARC
  8
1
 62
7
 10
-43
 20
-85.44348952431687
 30
0
 40
6
 50
0
 51
90
  0
ARC
  8
1
 62
7
 10
-43
 20
-47.46272741078377
 30
0
 40
6
 50
270
 51
0
  0
ARC
  8
1
 62
7
 10
-25
 20
-128.7500000000001
 30
0
 40
5
 50
270
 51
0
  0
ARC
  8
1
 62
3
  6
DASHDOT
 10
-528.850465626699
 20
0
 30
0
 40
119.9999999999999
 50
54.21199078526844
 51
65.54877065968078
  0
ARC
  8
1
 62
3
  6
DASHDOT
 10
-528.850465626699
 20
0
 30
0
 40
120
 50
114.2119907852685
 51
125.5487706596808
  0
ARC
  8
1
 62
3
  6
DASHDOT
 10
-528.850465626699
 20
0
 30
0
 40
120.0000000000001
 50
174.2119907852685
 51
185.5487706596808
  0
ARC
  8
1
 62
3
  6
DASHDOT
 10
-528.850465626699
 20
0
 30
0
 40
120.0000000000001
 50
234.2119907852684
 51
245.5487706596807
  0
ARC
  8
1
 62
3
  6
DASHDOT
 10
-528.850465626699
 20
0
 30
0
 40
120
 50
294.2119907852684
 51
305.5487706596807
  0
ARC
  8
1
 62
3
  6
DASHDOT
 10
-528.850465626699
 20
0
 30
0
 40
119.9999999999999
 50
354.2119907852684
 51
5.548770659680718
  0
CIRCLE
  8
1
 62
7
 10
-528.850465626699
 20
0
 30
0
 40
147
  0
CIRCLE
  8
1
 62
7
 10
-528.850465626699
 20
0
 30
0
 40
100
  0
CIRCLE
  8
1
 62
7
 10
-528.850465626699
 20
0
 30
0
 40
133.75
  0
CIRCLE
  8
1
 62
3
 10
-468.850465626699
 20
103.9230484541326
 30
0
 40
8
  0
CIRCLE
  8
1
 62
7
 10
-468.850465626699
 20
103.9230484541326
 30
0
 40
7
  0
CIRCLE
  8
1
 62
3
 10
-588.850465626699
 20
103.9230484541326
 30
0
 40
8
  0
CIRCLE
  8
1
 62
7
 10
-588.850465626699
 20
103.9230484541326
 30
0
 40
7
  0
CIRCLE
  8
1
 62
3
 10
-648.850465626699
 20
0
 30
0
 40
8
  0
CIRCLE
  8
1
 62
7
 10
-648.850465626699
 20
0
 30
0
 40
7.000000000000114
  0
CIRCLE
  8
1
 62
3
 10
-588.8504656266989
 20
-103.9230484541326
 30
0
 40
8
  0
CIRCLE
  8
1
 62
7
 10
-588.8504656266989
 20
-103.9230484541326
 30
0
 40
7
  0
CIRCLE
  8
1
 62
3
 10
-468.8504656266991
 20
-103.9230484541325
 30
0
 40
8
  0
CIRCLE
  8
1
 62
7
 10
-468.8504656266991
 20
-103.9230484541325
 30
0
 40
7
  0
CIRCLE
  8
1
 62
3
 10
-408.8504656266991
 20
0
 30
0
 40
8
  0
CIRCLE
  8
1
 62
7
 10
-408.8504656266991
 20
0
 30
0
 40
7
  0
CIRCLE
  8
1
 62
3
 10
-588.850465626699
 20
103.9230484541326
 30
0
 40
8
  0
CIRCLE
  8
1
 62
3
 10
-648.850465626699
 20
0
 30
0
 40
8
  0
CIRCLE
  8
1
 62
3
 10
-588.8504656266989
 20
-103.9230484541326
 30
0
 40
8
  0
CIRCLE
  8
1
 62
3
 10
-468.8504656266991
 20
-103.9230484541325
 30
0
 40
8
  0
CIRCLE
  8
1
 62
3
 10
-408.8504656266991
 20
0
 30
0
 40
8
  0
CIRCLE
  8
1
 62
7
 10
-588.850465626699
 20
103.9230484541326
 30
0
 40
7
  0
CIRCLE
  8
1
 62
7
 10
-648.850465626699
 20
0
 30
0
 40
7.000000000000114
  0
CIRCLE
  8
1
 62
7
 10
-588.8504656266989
 20
-103.9230484541326
 30
0
 40
7
  0
CIRCLE
  8
1
 62
7
 10
-468.8504656266991
 20
-103.9230484541325
 30
0
 40
7
  0
CIRCLE
  8
1
 62
7
 10
-408.8504656266991
 20
0
 30
0
 40
7
  0
TEXT
  8
1
 62
7
 10
-554.797568920004
 20
177.881520291376
 30
0
 40
10
  1
DC4408
 41
0.9
  7
SIMPLEX
  0
TEXT
  8
1
 62
7
 10
-554.797568920004
 20
192.881520291376
 30
0
 40
10
  1
UN 160
 41
0.9
  7
SIMPLEX
  0
ENDSEC
  0
EOF
