  0
SECTION
  2
HEADER
  9
$ACADVER
  1
AC1009
  9
$INSBASE
 10
0
 20
0
  9
$EXTMIN
 10
-735.2753621751299
 20
-165
  9
$EXTMAX
 10
3
 20
230.069984554562
  9
$LIMMIN
 10
-735.2753621751299
 20
-165
  9
$LIMMAX
 10
3
 20
230.069984554562
  9
$VIEWCTR
 10
10
 20
10
  9
$VIEWSIZE
 40
10
  9
$SNAPMODE
 70
0
  9
$SNAPUNIT
 10
1
 20
1
  9
$SNAPBASE
 10
0
 20
0
  9
$SNAPANG
 50
0
  9
$SNAPSTYLE
 70
0
  9
$SNAPISOPAIR
 70
0
  9
$GRIDMODE
 70
0
  9
$GRIDUNIT
 10
0
 20
0
  9
$ORTHOMODE
 70
0
  9
$REGENMODE
 70
1
  9
$FILLMODE
 70
1
  9
$QTEXTMODE
 70
0
  9
$DRAGMODE
 70
2
  9
$LTSCALE
 40
1
  9
$OSMODE
 70
0
  9
$ATTMODE
 70
1
  9
$TEXTSIZE
 40
3.5
  9
$TRACEWID
 40
0.5
  9
$TEXTSTYLE
  7
STANDARD
  9
$CLAYER
  8
0
  9
$CELTYPE
  6
BYLAYER
  9
$CECOLOR
 62
256
  9
$DIMSCALE
 40
1
  9
$DIMASZ
 40
0.18
  9
$DIMEXO
 40
0.0625
  9
$DIMDLI
 40
0.38
  9
$DIMRND
 40
0
  9
$DIMDLE
 40
0
  9
$DIMEXE
 40
0.18
  9
$DIMTP
 40
0
  9
$DIMTM
 40
0
  9
$DIMTXT
 40
0.18
  9
$DIMCEN
 40
0.09
  9
$DIMTSZ
 40
0
  9
$DIMTOL
 70
0
  9
$DIMLIM
 70
0
  9
$DIMTIH
 70
1
  9
$DIMTOH
 70
1
  9
$DIMSE1
 70
0
  9
$DIMSE2
 70
0
  9
$DIMTAD
 70
0
  9
$DIMZIN
 70
0
  9
$DIMBLK
  1

  9
$DIMASO
 70
1
  9
$DIMSHO
 70
1
  9
$DIMPOST
  1

  9
$DIMAPOST
  1

  9
$DIMALT
 70
0
  9
$DIMALTD
 70
2
  9
$DIMALTF
 40
25.4
  9
$DIMLFAC
 40
1
  9
$DIMTOFL
 70
0
  9
$DIMTVP
 40
0
  9
$DIMTIX
 70
0
  9
$DIMSOXD
 70
0
  9
$DIMSAH
 70
0
  9
$DIMBLK1
  1

  9
$DIMBLK2
  1

  9
$DIMSTYLE
  2
*UNNAMED
  9
$DIMCLRD
 70
0
  9
$DIMCLRE
 70
0
  9
$DIMCLRT
 70
0
  9
$DIMTFAC
 40
1
  9
$DIMGAP
 40
0.09
  9
$LUNITS
 70
2
  9
$LUPREC
 70
4
  9
$AXISMODE
 70
0
  9
$AXISUNIT
 10
0
 20
0
  9
$SKETCHINC
 40
0.1
  9
$FILLETRAD
 40
2
  9
$AUNITS
 70
0
  9
$AUPREC
 70
0
  9
$MENU
  1
ACAD
  9
$ELEVATION
 40
0
  9
$THICKNESS
 40
0
  9
$VIEWDIR
 10
0
 20
0
 30
1
  9
$LIMCHECK
 70
0
  9
$BLIPMODE
 70
1
  9
$CHAMFERA
 40
0
  9
$CHAMFERB
 40
0
  9
$FASTZOOM
 70
1
  9
$SKPOLY
 70
0
  9
$ANGBASE
 50
0
  9
$ANGDIR
 70
0
  9
$PDMODE
 70
0
  9
$PDSIZE
 40
0
  9
$PLINEWID
 40
0
  9
$COORDS
 70
2
  0
ENDSEC
  0
SECTION
  2
TABLES
  0
TABLE
  2
DIMSTYLE
 70
0
  0
ENDTAB
  0
TABLE
  2
LTYPE
 70
9
  0
LTYPE
  2
CONTINUOUS
 70
64
  3
Solid line
 72
65
 73
0
 40
0
  0
LTYPE
  2
BORDER
 70
64
  3
__ __ . __ __ .
 72
65
 73
6
 40
33.9995232580652
 49
9.714149502304341
 49
-4.857074751152171
 49
9.714149502304341
 49
-4.857074751152171
 49
0
 49
-4.857074751152171
  0
LTYPE
  2
CENTER
 70
64
  3
____ _ ____ _
 72
65
 73
4
 40
38.85659800921737
 49
24.28537375576085
 49
-4.857074751152171
 49
4.857074751152171
 49
-4.857074751152171
  0
LTYPE
  2
DASHDOT
 70
64
  3
__ . __ . __ .
 72
65
 73
4
 40
19.42829900460868
 49
9.714149502304341
 49
-4.857074751152171
 49
0
 49
-4.857074751152171
  0
LTYPE
  2
DASHED
 70
64
  3
__ __ __ __ __
 72
65
 73
2
 40
14.57122425345651
 49
9.714149502304341
 49
-4.857074751152171
  0
LTYPE
  2
DIVIDE
 70
64
  3
__ . . __ . . 
 72
65
 73
6
 40
24.28537375576085
 49
9.714149502304341
 49
-4.857074751152171
 49
0
 49
-4.857074751152171
 49
0
 49
-4.857074751152171
  0
LTYPE
  2
DOT
 70
64
  3
..............
 72
65
 73
4
 40
9.714149502304341
 49
0
 49
-4.857074751152171
 49
0
 49
-4.857074751152171
  0
LTYPE
  2
HIDDEN
 70
64
  3
_ _ _ _ _ _ _
 72
65
 73
2
 40
7.285612126728256
 49
4.857074751152171
 49
-2.428537375576085
  0
LTYPE
  2
PHANTOM
 70
64
  3
_____ _ _ _____ _ _ 
 72
65
 73
6
 40
48.5707475115217
 49
24.28537375576085
 49
-4.857074751152171
 49
4.857074751152171
 49
-4.857074751152171
 49
4.857074751152171
 49
-4.857074751152171
  0
ENDTAB
  0
TABLE
  2
LAYER
 70
3
  0
LAYER
  2
1
 70
0
 62
7
  6
CONTINUOUS
  0
LAYER
  2
0
 70
0
 62
7
  6
CONTINUOUS
  0
ENDTAB
  0
TABLE
  2
STYLE
 70
4
  0
STYLE
  2
STANDARD
 70
0
 40
0
 41
1
 50
0
 71
0
 42
3.5
  3
txt
  4

  0
STYLE
  2
SIMPLEX
 70
0
 40
0
 41
1
 50
0
 71
0
 42
3.5
  3
simplex
  4

  0
STYLE
  2
COMPLEX
 70
0
 40
0
 41
1
 50
0
 71
0
 42
3.5
  3
complex
  4

  0
STYLE
  2
ITALIC
 70
0
 40
0
 41
1
 50
0
 71
0
 42
3.5
  3
italic
  4

  0
ENDTAB
  0
TABLE
  2
VIEW
 70
0
  0
ENDTAB
  0
ENDSEC
  0
SECTION
  2
BLOCKS
  0
ENDSEC
  0
SECTION
  2
ENTITIES
  0
LINE
  8
1
 62
7
 10
-290.6166252303282
 20
-98.2122048464847
 30
0
 11
-290.6166252303282
 21
-60.03581034756598
 31
0
  0
LINE
  8
1
 62
7
 10
-290.6166252303282
 20
-60.03581034756598
 30
0
 11
-288.6166252303282
 21
-58.0187247316606
 31
0
  0
LINE
  8
1
 62
7
 10
-288.6166252303282
 20
-64.5711886951072
 30
0
 11
-290.6166252303282
 21
-63.5658685626633
 31
0
  0
LINE
  8
1
 62
7
 10
-288.6166252303282
 20
-99.2122048464847
 30
0
 11
-288.6166252303282
 21
-64.5711886951072
 31
0
  0
LINE
  8
1
 62
7
 10
-212.6166252303281
 20
-165
 30
0
 11
-208.6166252303281
 21
-161
 31
0
  0
LINE
  8
1
 62
7
 10
-289.1166252303282
 20
-165
 30
0
 11
-212.6166252303281
 21
-165
 31
0
  0
LINE
  8
1
 62
7
 10
-290.6166252303282
 20
-155.9999999999999
 30
0
 11
-286.6166252303282
 21
-152
 31
0
  0
LINE
  8
1
 62
7
 10
-289.1166252303282
 20
-165
 30
0
 11
-290.6166252303282
 21
-163
 31
0
  0
LINE
  8
1
 62
7
 10
-290.6166252303282
 20
-163
 30
0
 11
-290.6166252303282
 21
-155.9999999999999
 31
0
  0
LINE
  8
1
 62
7
 10
-288.6166252303282
 20
-99.2122048464847
 30
0
 11
-290.6166252303282
 21
-98.2122048464847
 31
0
  0
LINE
  8
1
 62
3
  6
DASHDOT
 10
-498.3701694906792
 20
124.5434470574985
 30
0
 11
-511.7783202304694
 21
101.3198487406396
 31
0
  0
LINE
  8
1
 62
7
 10
-418.4347826500872
 20
64.57118869510731
 30
0
 11
-428.9104125119873
 21
58.52308097440812
 31
0
  0
LINE
  8
1
 62
7
 10
-438.4347826500871
 20
-99.21220484648458
 30
0
 11
-448.9104125119875
 21
-93.16409712578599
 31
0
  0
LINE
  8
1
 62
7
 10
-590.2753621751298
 20
-163.7833935415919
 30
0
 11
-590.2753621751302
 21
-151.6871781001941
 31
0
  0
LINE
  8
1
 62
7
 10
-722.1159417001729
 20
-64.5711886951072
 30
0
 11
-711.640311838273
 21
-58.523080974408
 31
0
  0
LINE
  8
1
 62
7
 10
-702.1159417001729
 20
99.21220484648484
 30
0
 11
-691.640311838273
 21
93.16409712578599
 31
0
  0
LINE
  8
1
 62
7
 10
-438.4347826500872
 20
99.21220484648484
 30
0
 11
-448.9104125119873
 21
93.1640971257857
 31
0
  0
LINE
  8
1
 62
7
 10
-418.4347826500871
 20
-64.57118869510697
 30
0
 11
-428.9104125119875
 21
-58.5230809744084
 31
0
  0
LINE
  8
1
 62
7
 10
-550.2753621751298
 20
-163.783393541592
 30
0
 11
-550.2753621751302
 21
-151.6871781001941
 31
0
  0
LINE
  8
1
 62
7
 10
-702.1159417001729
 20
-99.2122048464847
 30
0
 11
-691.640311838273
 21
-93.16409712578559
 31
0
  0
LINE
  8
1
 62
7
 10
-722.1159417001729
 20
64.57118869510731
 30
0
 11
-711.640311838273
 21
58.52308097440851
 31
0
  0
LINE
  8
1
 62
7
 10
-550.2753621751299
 20
163.783393541592
 30
0
 11
-550.2753621751299
 21
151.6871781001941
 31
0
  0
LINE
  8
1
 62
7
 10
-590.2753621751299
 20
163.783393541592
 30
0
 11
-590.2753621751299
 21
151.6871781001941
 31
0
  0
LINE
  8
1
 62
7
 10
-288.6166252303282
 20
-64.5711886951072
 30
0
 11
-254.6166252303281
 21
-64.5711886951072
 31
0
  0
LINE
  8
1
 62
7
 10
-288.6166252303282
 20
-99.2122048464847
 30
0
 11
-254.6166252303281
 21
-99.2122048464847
 31
0
  0
LINE
  8
1
 62
7
 10
-246.6166252303281
 20
-155
 30
0
 11
-246.6166252303281
 21
-107.2122048464847
 31
0
  0
LINE
  8
1
 62
7
 10
-290.6166252303282
 20
-163
 30
0
 11
-254.6166252303281
 21
-163
 31
0
  0
LINE
  8
1
 62
7
 10
-288.6166252303282
 20
-58.0187247316606
 30
0
 11
-254.6166252303281
 21
-58.0187247316606
 31
0
  0
LINE
  8
1
 62
7
 10
-286.6166252303282
 20
-152
 30
0
 11
-254.6166252303281
 21
-152
 31
0
  0
LINE
  8
1
 62
7
 10
-590.2753621751299
 20
151.6871781001941
 30
0
 11
-589.2753621751299
 21
150.8078247306817
 31
0
  0
LINE
  8
1
 62
7
 10
-550.2753621751299
 20
151.6871781001941
 30
0
 11
-551.2753621751299
 21
150.8078247306817
 31
0
  0
LINE
  8
1
 62
7
 10
-711.640311838273
 20
58.52308097440851
 30
0
 11
-710.3787694813718
 21
58.94942969343674
 31
0
  0
LINE
  8
1
 62
7
 10
-691.640311838273
 20
-93.16409712578559
 30
0
 11
-691.3787694813718
 21
-91.85839503724498
 31
0
  0
LINE
  8
1
 62
7
 10
-550.2753621751302
 20
-151.6871781001941
 30
0
 11
-551.2753621751302
 21
-150.8078247306816
 31
0
  0
LINE
  8
1
 62
7
 10
-428.9104125119875
 20
-58.5230809744084
 30
0
 11
-430.1719548688887
 21
-58.94942969343668
 31
0
  0
LINE
  8
1
 62
7
 10
-448.9104125119873
 20
93.1640971257857
 30
0
 11
-449.1719548688883
 21
91.85839503724503
 31
0
  0
LINE
  8
1
 62
7
 10
-691.640311838273
 20
93.16409712578599
 30
0
 11
-691.3787694813718
 21
91.85839503724532
 31
0
  0
LINE
  8
1
 62
7
 10
-711.640311838273
 20
-58.523080974408
 30
0
 11
-710.3787694813718
 21
-58.94942969343629
 31
0
  0
LINE
  8
1
 62
7
 10
-590.2753621751302
 20
-151.6871781001941
 30
0
 11
-589.2753621751302
 21
-150.8078247306816
 31
0
  0
LINE
  8
1
 62
7
 10
-448.9104125119875
 20
-93.16409712578599
 30
0
 11
-449.1719548688887
 21
-91.85839503724529
 31
0
  0
LINE
  8
1
 62
7
 10
-428.9104125119873
 20
58.52308097440812
 30
0
 11
-430.1719548688886
 21
58.94942969343629
 31
0
  0
LINE
  8
1
 62
3
 10
-208.6166252303281
 20
0
 30
0
 11
-205.6166252303281
 21
0
 31
0
  0
LINE
  8
1
 62
3
 10
-249.6166252303281
 20
0
 30
0
 11
-246.6166252303281
 21
0
 31
0
  0
LINE
  8
1
 62
7
 10
-82
 20
156
 30
0
 11
-82
 21
163
 31
0
  0
LINE
  8
1
 62
3
  6
DASHDOT
 10
-20.60807383368888
 20
130
 30
0
 11
0.6668449097210214
 21
130
 31
0
  0
LINE
  8
1
 62
7
 10
-82
 20
60.03581034756621
 30
0
 11
-78
 21
58.01872473166071
 31
0
  0
LINE
  8
1
 62
7
 10
-82
 20
94.6768264989438
 30
0
 11
-78
 21
92.6597408830383
 31
0
  0
LINE
  8
1
 62
7
 10
-78
 20
58.01872473166071
 30
0
 11
-78
 21
92.6597408830383
 31
0
  0
LINE
  8
1
 62
7
 10
0
 20
161
 30
0
 11
0
 21
-161
 31
0
  0
LINE
  8
1
 62
7
 10
-20
 20
147
 30
0
 11
-20
 21
-147
 31
0
  0
LINE
  8
1
 62
7
 10
-17
 20
110
 30
0
 11
0
 21
110
 31
0
  0
LINE
  8
1
 62
7
 10
-4
 20
165
 30
0
 11
-80
 21
165
 31
0
  0
LINE
  8
1
 62
7
 10
-17
 20
110
 30
0
 11
-17
 21
-110
 31
0
  0
LINE
  8
1
 62
3
 10
-20
 20
138
 30
0
 11
0
 21
138
 31
0
  0
LINE
  8
1
 62
7
 10
-20
 20
137
 30
0
 11
0
 21
137
 31
0
  0
LINE
  8
1
 62
7
 10
-18.596199291738
 20
123
 30
0
 11
0
 21
123
 31
0
  0
LINE
  8
1
 62
3
 10
-18.47341473083497
 20
122
 30
0
 11
0
 21
122
 31
0
  0
LINE
  8
1
 62
7
 10
-20
 20
134.4330392839238
 30
0
 11
-17
 21
110
 31
0
  0
LINE
  8
1
 62
7
 10
-82
 20
98.2046845257214
 30
0
 11
-80
 21
99.21220484648484
 31
0
  0
LINE
  8
1
 62
7
 10
-46
 20
99.21220484648484
 30
0
 11
-80
 21
99.21220484648484
 31
0
  0
LINE
  8
1
 62
7
 10
-82
 20
60.03581034756621
 30
0
 11
-82
 21
98.2046845257214
 31
0
  0
LINE
  8
1
 62
7
 10
0
 20
161
 30
0
 11
-4
 21
165
 31
0
  0
LINE
  8
1
 62
7
 10
-82
 20
163
 30
0
 11
-80
 21
165
 31
0
  0
LINE
  8
1
 62
7
 10
-82
 20
156
 30
0
 11
-78
 21
152
 31
0
  0
LINE
  8
1
 62
7
 10
-78
 20
92.6597408830383
 30
0
 11
-46
 21
92.6597408830383
 31
0
  0
LINE
  8
1
 62
7
 10
-78
 20
58.01872473166071
 30
0
 11
-46
 21
58.01872473166071
 31
0
  0
LINE
  8
1
 62
7
 10
-38
 20
50.01872473166071
 30
0
 11
-38
 21
-50.01872473166071
 31
0
  0
LINE
  8
1
 62
7
 10
-25
 20
152
 30
0
 11
-78
 21
152
 31
0
  0
LINE
  8
1
 62
7
 10
-38
 20
100.6597408830383
 30
0
 11
-38
 21
144
 31
0
  0
LINE
  8
1
 62
3
 10
0
 20
0
 30
0
 11
3
 21
0
 31
0
  0
LINE
  8
1
 62
3
 10
-41
 20
0
 30
0
 11
-38
 21
0
 31
0
  0
LINE
  8
1
 62
7
 10
-290.6166252303282
 20
60.03581034756604
 30
0
 11
-290.6166252303282
 21
98.21220484648472
 31
0
  0
LINE
  8
1
 62
7
 10
-288.6166252303282
 20
58.0187247316606
 30
0
 11
-290.6166252303282
 21
60.03581034756604
 31
0
  0
LINE
  8
1
 62
7
 10
-290.6166252303282
 20
63.5658685626633
 30
0
 11
-288.6166252303282
 21
64.5711886951072
 31
0
  0
LINE
  8
1
 62
7
 10
-288.6166252303282
 20
64.5711886951072
 30
0
 11
-288.6166252303282
 21
99.21220484648484
 31
0
  0
LINE
  8
1
 62
7
 10
-208.6166252303281
 20
161
 30
0
 11
-212.6166252303281
 21
165
 31
0
  0
LINE
  8
1
 62
7
 10
-212.6166252303281
 20
165
 30
0
 11
-289.1166252303282
 21
165
 31
0
  0
LINE
  8
1
 62
7
 10
-286.6166252303282
 20
152
 30
0
 11
-290.6166252303282
 21
155.9999999999999
 31
0
  0
LINE
  8
1
 62
7
 10
-290.6166252303282
 20
163
 30
0
 11
-289.1166252303282
 21
165
 31
0
  0
LINE
  8
1
 62
7
 10
-290.6166252303282
 20
155.9999999999999
 30
0
 11
-290.6166252303282
 21
163
 31
0
  0
LINE
  8
1
 62
7
 10
-290.6166252303282
 20
98.21220484648472
 30
0
 11
-288.6166252303282
 21
99.21220484648484
 31
0
  0
LINE
  8
1
 62
7
 10
-254.6166252303281
 20
64.5711886951072
 30
0
 11
-288.6166252303282
 21
64.5711886951072
 31
0
  0
LINE
  8
1
 62
7
 10
-254.6166252303281
 20
99.21220484648484
 30
0
 11
-288.6166252303282
 21
99.21220484648484
 31
0
  0
LINE
  8
1
 62
7
 10
-246.6166252303281
 20
107.2122048464848
 30
0
 11
-246.6166252303281
 21
155
 31
0
  0
LINE
  8
1
 62
7
 10
-254.6166252303281
 20
163
 30
0
 11
-290.6166252303282
 21
163
 31
0
  0
LINE
  8
1
 62
7
 10
-254.6166252303281
 20
58.0187247316606
 30
0
 11
-288.6166252303282
 21
58.0187247316606
 31
0
  0
LINE
  8
1
 62
7
 10
-254.6166252303281
 20
152
 30
0
 11
-286.6166252303282
 21
152
 31
0
  0
LINE
  8
1
 62
7
 10
-246.6166252303281
 20
56.5711886951072
 30
0
 11
-246.6166252303281
 21
-56.5711886951072
 31
0
  0
LINE
  8
1
 62
7
 10
-212.6166252303281
 20
165
 30
0
 11
-212.6166252303281
 21
-165
 31
0
  0
LINE
  8
1
 62
7
 10
-208.6166252303281
 20
161
 30
0
 11
-208.6166252303281
 21
-161
 31
0
  0
LINE
  8
1
 62
7
 10
-82
 20
-163
 30
0
 11
-82
 21
-156
 31
0
  0
LINE
  8
1
 62
7
 10
-78
 20
-58.01872473166071
 30
0
 11
-82
 21
-60.03581034756621
 31
0
  0
LINE
  8
1
 62
7
 10
-78
 20
-92.6597408830383
 30
0
 11
-82
 21
-94.6768264989438
 31
0
  0
LINE
  8
1
 62
7
 10
-78
 20
-92.6597408830383
 30
0
 11
-78
 21
-58.01872473166071
 31
0
  0
LINE
  8
1
 62
7
 10
-17
 20
-110
 30
0
 11
0
 21
-110
 31
0
  0
LINE
  8
1
 62
7
 10
-80
 20
-165
 30
0
 11
-4
 21
-165
 31
0
  0
LINE
  8
1
 62
7
 10
-17
 20
-110
 30
0
 11
-20
 21
-134.4330392839238
 31
0
  0
LINE
  8
1
 62
7
 10
-80
 20
-99.21220484648489
 30
0
 11
-82
 21
-98.20468452572138
 31
0
  0
LINE
  8
1
 62
7
 10
-80
 20
-99.21220484648489
 30
0
 11
-46
 21
-99.21220484648489
 31
0
  0
LINE
  8
1
 62
7
 10
-82
 20
-98.20468452572138
 30
0
 11
-82
 21
-60.03581034756621
 31
0
  0
LINE
  8
1
 62
7
 10
-4
 20
-165
 30
0
 11
0
 21
-161
 31
0
  0
LINE
  8
1
 62
7
 10
-80
 20
-165
 30
0
 11
-82
 21
-163
 31
0
  0
LINE
  8
1
 62
7
 10
-78
 20
-152
 30
0
 11
-82
 21
-156
 31
0
  0
LINE
  8
1
 62
7
 10
-46
 20
-92.6597408830383
 30
0
 11
-78
 21
-92.6597408830383
 31
0
  0
LINE
  8
1
 62
7
 10
-46
 20
-58.01872473166071
 30
0
 11
-78
 21
-58.01872473166071
 31
0
  0
LINE
  8
1
 62
7
 10
-78
 20
-152
 30
0
 11
-25
 21
-152
 31
0
  0
LINE
  8
1
 62
7
 10
-38
 20
-144
 30
0
 11
-38
 21
-100.6597408830383
 31
0
  0
LINE
  8
1
 62
3
  6
DASHDOT
 10
-564.878478049504
 20
0
 30
0
 11
-575.6722463007558
 21
0
 31
0
  0
LINE
  8
1
 62
3
  6
DASHDOT
 10
-570.2753621751299
 20
5.396884125625888
 30
0
 11
-570.2753621751299
 21
-5.396884125625888
 31
0
  0
LINE
  8
1
 62
3
  6
DASHDOT
 10
-642.1805548595805
 20
124.5434470574985
 30
0
 11
-628.7724041197903
 21
101.3198487406397
 31
0
  0
LINE
  8
1
 62
3
  6
DASHDOT
 10
-714.0857475440313
 20
0
 30
0
 11
-687.2694460644509
 21
1.13686837721616e-013
 31
0
  0
LINE
  8
1
 62
3
  6
DASHDOT
 10
-642.1805548595806
 20
-124.5434470574985
 30
0
 11
-628.7724041197906
 21
-101.3198487406396
 31
0
  0
LINE
  8
1
 62
3
  6
DASHDOT
 10
-498.3701694906794
 20
-124.5434470574986
 30
0
 11
-511.7783202304697
 21
-101.3198487406398
 31
0
  0
LINE
  8
1
 62
3
  6
DASHDOT
 10
-426.4649768062285
 20
-1.70530256582424e-013
 30
0
 11
-453.281278285809
 21
-1.70530256582424e-013
 31
0
  0
ARC
  8
1
 62
7
 10
-254.6166252303281
 20
-56.5711886951072
 30
0
 40
7.999999999999993
 50
270
 51
0
  0
ARC
  8
1
 62
7
 10
-254.6166252303281
 20
-107.2122048464847
 30
0
 40
8
 50
0
 51
90
  0
ARC
  8
1
 62
7
 10
-254.6166252303281
 20
-155
 30
0
 40
8
 50
270
 51
0
  0
ARC
  8
1
 62
7
 10
-46
 20
100.6597408830383
 30
0
 40
8
 50
270
 51
0
  0
ARC
  8
1
 62
7
 10
-46
 20
50.01872473166071
 30
0
 40
8
 50
0
 51
90
  0
ARC
  8
1
 62
7
 10
-254.6166252303281
 20
56.5711886951072
 30
0
 40
8
 50
0
 51
90
  0
ARC
  8
1
 62
7
 10
-254.6166252303281
 20
107.2122048464847
 30
0
 40
7.999999999999858
 50
270
 51
0
  0
ARC
  8
1
 62
7
 10
-254.6166252303281
 20
155
 30
0
 40
8
 50
0
 51
90
  0
ARC
  8
1
 62
7
 10
-46
 20
-100.6597408830383
 30
0
 40
8
 50
0
 51
90
  0
ARC
  8
1
 62
7
 10
-46
 20
-50.01872473166071
 30
0
 40
8
 50
270
 51
0
  0
ARC
  8
1
 62
7
 10
-570.2753621751299
 20
0
 30
0
 40
155.9999999999999
 50
22.6341141710354
 51
37.36588582896474
  0
ARC
  8
1
 62
7
 10
-570.2753621751299
 20
0
 30
0
 40
155.9999999999997
 50
322.6341141710353
 51
337.3658858289646
  0
ARC
  8
1
 62
7
 10
-570.2753621751299
 20
0
 30
0
 40
155.9999999999999
 50
262.6341141710354
 51
277.3658858289646
  0
ARC
  8
1
 62
7
 10
-570.2753621751299
 20
0
 30
0
 40
156.0000000000001
 50
202.6341141710353
 51
217.3658858289647
  0
ARC
  8
1
 62
7
 10
-570.2753621751299
 20
0
 30
0
 40
156.0000000000002
 50
142.6341141710353
 51
157.3658858289647
  0
ARC
  8
1
 62
7
 10
-570.2753621751299
 20
0
 30
0
 40
162.9999999999999
 50
22.95208241580349
 51
37.04791758419655
  0
ARC
  8
1
 62
7
 10
-570.2753621751299
 20
0
 30
0
 40
162.9999999999998
 50
322.9520824158035
 51
337.0479175841965
  0
ARC
  8
1
 62
7
 10
-570.2753621751299
 20
0
 30
0
 40
162.9999999999999
 50
262.9520824158035
 51
277.0479175841966
  0
ARC
  8
1
 62
7
 10
-570.2753621751299
 20
0
 30
0
 40
162.9999999999997
 50
202.9520824158035
 51
217.0479175841966
  0
ARC
  8
1
 62
7
 10
-570.2753621751299
 20
0
 30
0
 40
162.9999999999998
 50
142.9520824158034
 51
157.0479175841965
  0
ARC
  8
1
 62
7
 10
-570.2753621751299
 20
0
 30
0
 40
155.9999999999999
 50
82.63411417103532
 51
97.36588582896468
  0
ARC
  8
1
 62
7
 10
-570.2753621751299
 20
0
 30
0
 40
163
 50
82.95208241580349
 51
97.0479175841965
  0
ARC
  8
1
 62
7
 10
-254.6166252303281
 20
-50.0187247316606
 30
0
 40
8
 50
270
 51
0
  0
ARC
  8
1
 62
7
 10
-254.6166252303281
 20
-144
 30
0
 40
8
 50
270
 51
0
  0
ARC
  8
1
 62
7
 10
-570.2753621751299
 20
0
 30
0
 40
134.4330392839239
 50
62.88656734407712
 51
117.1134326559229
  0
ARC
  8
1
 62
7
 10
-570.2753621751299
 20
0
 30
0
 40
134.4330392839238
 50
2.886567344077202
 51
57.11343265592284
  0
ARC
  8
1
 62
7
 10
-570.2753621751299
 20
0
 30
0
 40
134.4330392839239
 50
122.8865673440771
 51
177.113432655923
  0
ARC
  8
1
 62
7
 10
-570.2753621751299
 20
0
 30
0
 40
134.433039283924
 50
182.886567344077
 51
237.1134326559227
  0
ARC
  8
1
 62
7
 10
-570.2753621751299
 20
0
 30
0
 40
134.4330392839238
 50
302.8865673440772
 51
357.1134326559229
  0
ARC
  8
1
 62
7
 10
-570.2753621751299
 20
0
 30
0
 40
134.4330392839237
 50
242.8865673440771
 51
297.1134326559226
  0
ARC
  8
1
 62
7
 10
-25
 20
147
 30
0
 40
5
 50
0
 51
90
  0
ARC
  8
1
 62
7
 10
-46
 20
144
 30
0
 40
8
 50
0
 51
90
  0
ARC
  8
1
 62
7
 10
-46
 20
107.2122048464848
 30
0
 40
7.999999999999957
 50
270
 51
0
  0
ARC
  8
1
 62
7
 10
-254.6166252303281
 20
50.0187247316606
 30
0
 40
8
 50
0
 51
90
  0
ARC
  8
1
 62
7
 10
-254.6166252303281
 20
144
 30
0
 40
8
 50
0
 51
90
  0
ARC
  8
1
 62
7
 10
-25
 20
-147
 30
0
 40
5
 50
270
 51
0
  0
ARC
  8
1
 62
7
 10
-46
 20
-144
 30
0
 40
8
 50
270
 51
0
  0
ARC
  8
1
 62
7
 10
-46
 20
-107.2122048464849
 30
0
 40
8
 50
0
 51
90
  0
ARC
  8
1
 62
3
  6
DASHDOT
 10
-570.2753621751299
 20
0
 30
0
 40
130
 50
54.89667126403967
 51
64.64566991147154
  0
ARC
  8
1
 62
3
  6
DASHDOT
 10
-570.2753621751299
 20
0
 30
0
 40
130.0000000000001
 50
114.8966712640396
 51
124.6456699114715
  0
ARC
  8
1
 62
3
  6
DASHDOT
 10
-570.2753621751299
 20
0
 30
0
 40
129.9999999999999
 50
174.8966712640397
 51
184.6456699114715
  0
ARC
  8
1
 62
3
  6
DASHDOT
 10
-570.2753621751299
 20
0
 30
0
 40
130.0000000000001
 50
234.8966712640397
 51
244.6456699114715
  0
ARC
  8
1
 62
3
  6
DASHDOT
 10
-570.2753621751299
 20
0
 30
0
 40
130
 50
294.8966712640395
 51
304.6456699114714
  0
ARC
  8
1
 62
3
  6
DASHDOT
 10
-570.2753621751299
 20
0
 30
0
 40
129.9999999999999
 50
354.8966712640396
 51
4.645669911471472
  0
CIRCLE
  8
1
 62
3
 10
-440.2753621751298
 20
0
 30
0
 40
8
  0
CIRCLE
  8
1
 62
3
 10
-505.2753621751299
 20
-112.5833024919773
 30
0
 40
8
  0
CIRCLE
  8
1
 62
3
 10
-635.2753621751303
 20
-112.5833024919771
 30
0
 40
8.000000000000114
  0
CIRCLE
  8
1
 62
3
 10
-700.2753621751299
 20
0
 30
0
 40
7.999999999999773
  0
CIRCLE
  8
1
 62
3
 10
-635.2753621751299
 20
112.5833024919771
 30
0
 40
7.999999999999886
  0
CIRCLE
  8
1
 62
7
 10
-440.2753621751298
 20
0
 30
0
 40
6.999999999999943
  0
CIRCLE
  8
1
 62
7
 10
-505.2753621751299
 20
-112.5833024919773
 30
0
 40
7
  0
CIRCLE
  8
1
 62
7
 10
-635.2753621751303
 20
-112.5833024919771
 30
0
 40
7.000000000000114
  0
CIRCLE
  8
1
 62
7
 10
-700.2753621751299
 20
0
 30
0
 40
6.999999999999886
  0
CIRCLE
  8
1
 62
7
 10
-635.2753621751299
 20
112.5833024919771
 30
0
 40
6.999999999999886
  0
CIRCLE
  8
1
 62
7
 10
-505.2753621751299
 20
112.583302491977
 30
0
 40
7
  0
CIRCLE
  8
1
 62
3
 10
-505.2753621751299
 20
112.583302491977
 30
0
 40
8
  0
CIRCLE
  8
1
 62
7
 10
-570.2753621751299
 20
0
 30
0
 40
110
  0
CIRCLE
  8
1
 62
7
 10
-570.2753621751299
 20
0
 30
0
 40
152
  0
CIRCLE
  8
1
 62
7
 10
-570.2753621751299
 20
0
 30
0
 40
165
  0
TEXT
  8
1
 62
7
 10
-602.068528254776
 20
200.069984554562
 30
0
 40
12
  1
DC4409
 41
0.9
  7
SIMPLEX
  0
TEXT
  8
1
 62
7
 10
-602.068528254776
 20
218.069984554562
 30
0
 40
12
  1
UN 250
 41
0.9
  7
SIMPLEX
  0
ENDSEC
  0
EOF
