  0
SECTION
  2
HEADER
  9
$ACADVER
  1
AC1009
  9
$INSBASE
 10
0
 20
0
  9
$EXTMIN
 10
-797.7568479386782
 20
-177.5
  9
$EXTMAX
 10
6
 20
238.189900307212
  9
$LIMMIN
 10
-797.7568479386782
 20
-177.5
  9
$LIMMAX
 10
6
 20
238.189900307212
  9
$VIEWCTR
 10
10
 20
10
  9
$VIEWSIZE
 40
10
  9
$SNAPMODE
 70
0
  9
$SNAPUNIT
 10
1
 20
1
  9
$SNAPBASE
 10
0
 20
0
  9
$SNAPANG
 50
0
  9
$SNAPSTYLE
 70
0
  9
$SNAPISOPAIR
 70
0
  9
$GRIDMODE
 70
0
  9
$GRIDUNIT
 10
0
 20
0
  9
$ORTHOMODE
 70
0
  9
$REGENMODE
 70
1
  9
$FILLMODE
 70
1
  9
$QTEXTMODE
 70
0
  9
$DRAGMODE
 70
2
  9
$LTSCALE
 40
1
  9
$OSMODE
 70
0
  9
$ATTMODE
 70
1
  9
$TEXTSIZE
 40
3.5
  9
$TRACEWID
 40
0.5
  9
$TEXTSTYLE
  7
STANDARD
  9
$CLAYER
  8
0
  9
$CELTYPE
  6
BYLAYER
  9
$CECOLOR
 62
256
  9
$DIMSCALE
 40
1
  9
$DIMASZ
 40
0.18
  9
$DIMEXO
 40
0.0625
  9
$DIMDLI
 40
0.38
  9
$DIMRND
 40
0
  9
$DIMDLE
 40
0
  9
$DIMEXE
 40
0.18
  9
$DIMTP
 40
0
  9
$DIMTM
 40
0
  9
$DIMTXT
 40
0.18
  9
$DIMCEN
 40
0.09
  9
$DIMTSZ
 40
0
  9
$DIMTOL
 70
0
  9
$DIMLIM
 70
0
  9
$DIMTIH
 70
1
  9
$DIMTOH
 70
1
  9
$DIMSE1
 70
0
  9
$DIMSE2
 70
0
  9
$DIMTAD
 70
0
  9
$DIMZIN
 70
0
  9
$DIMBLK
  1

  9
$DIMASO
 70
1
  9
$DIMSHO
 70
1
  9
$DIMPOST
  1

  9
$DIMAPOST
  1

  9
$DIMALT
 70
0
  9
$DIMALTD
 70
2
  9
$DIMALTF
 40
25.4
  9
$DIMLFAC
 40
1
  9
$DIMTOFL
 70
0
  9
$DIMTVP
 40
0
  9
$DIMTIX
 70
0
  9
$DIMSOXD
 70
0
  9
$DIMSAH
 70
0
  9
$DIMBLK1
  1

  9
$DIMBLK2
  1

  9
$DIMSTYLE
  2
*UNNAMED
  9
$DIMCLRD
 70
0
  9
$DIMCLRE
 70
0
  9
$DIMCLRT
 70
0
  9
$DIMTFAC
 40
1
  9
$DIMGAP
 40
0.09
  9
$LUNITS
 70
2
  9
$LUPREC
 70
4
  9
$AXISMODE
 70
0
  9
$AXISUNIT
 10
0
 20
0
  9
$SKETCHINC
 40
0.1
  9
$FILLETRAD
 40
2
  9
$AUNITS
 70
0
  9
$AUPREC
 70
0
  9
$MENU
  1
ACAD
  9
$ELEVATION
 40
0
  9
$THICKNESS
 40
0
  9
$VIEWDIR
 10
0
 20
0
 30
1
  9
$LIMCHECK
 70
0
  9
$BLIPMODE
 70
1
  9
$CHAMFERA
 40
0
  9
$CHAMFERB
 40
0
  9
$FASTZOOM
 70
1
  9
$SKPOLY
 70
0
  9
$ANGBASE
 50
0
  9
$ANGDIR
 70
0
  9
$PDMODE
 70
0
  9
$PDSIZE
 40
0
  9
$PLINEWID
 40
0
  9
$COORDS
 70
2
  0
ENDSEC
  0
SECTION
  2
TABLES
  0
TABLE
  2
DIMSTYLE
 70
0
  0
ENDTAB
  0
TABLE
  2
LTYPE
 70
9
  0
LTYPE
  2
CONTINUOUS
 70
64
  3
Solid line
 72
65
 73
0
 40
0
  0
LTYPE
  2
BORDER
 70
64
  3
__ __ . __ __ .
 72
65
 73
6
 40
37.01511799717597
 49
10.57574799919314
 49
-5.287873999596568
 49
10.57574799919314
 49
-5.287873999596568
 49
0
 49
-5.287873999596568
  0
LTYPE
  2
CENTER
 70
64
  3
____ _ ____ _
 72
65
 73
4
 40
42.30299199677254
 49
26.43936999798284
 49
-5.287873999596568
 49
5.287873999596568
 49
-5.287873999596568
  0
LTYPE
  2
DASHDOT
 70
64
  3
__ . __ . __ .
 72
65
 73
4
 40
21.15149599838627
 49
10.57574799919314
 49
-5.287873999596568
 49
0
 49
-5.287873999596568
  0
LTYPE
  2
DASHED
 70
64
  3
__ __ __ __ __
 72
65
 73
2
 40
15.8636219987897
 49
10.57574799919314
 49
-5.287873999596568
  0
LTYPE
  2
DIVIDE
 70
64
  3
__ . . __ . . 
 72
65
 73
6
 40
26.43936999798284
 49
10.57574799919314
 49
-5.287873999596568
 49
0
 49
-5.287873999596568
 49
0
 49
-5.287873999596568
  0
LTYPE
  2
DOT
 70
64
  3
..............
 72
65
 73
4
 40
10.57574799919314
 49
0
 49
-5.287873999596568
 49
0
 49
-5.287873999596568
  0
LTYPE
  2
HIDDEN
 70
64
  3
_ _ _ _ _ _ _
 72
65
 73
2
 40
7.931810999394852
 49
5.287873999596568
 49
-2.643936999798284
  0
LTYPE
  2
PHANTOM
 70
64
  3
_____ _ _ _____ _ _ 
 72
65
 73
6
 40
52.87873999596567
 49
26.43936999798284
 49
-5.287873999596568
 49
5.287873999596568
 49
-5.287873999596568
 49
5.287873999596568
 49
-5.287873999596568
  0
ENDTAB
  0
TABLE
  2
LAYER
 70
3
  0
LAYER
  2
1
 70
0
 62
7
  6
CONTINUOUS
  0
LAYER
  2
0
 70
0
 62
7
  6
CONTINUOUS
  0
ENDTAB
  0
TABLE
  2
STYLE
 70
4
  0
STYLE
  2
STANDARD
 70
0
 40
0
 41
1
 50
0
 71
0
 42
3.5
  3
txt
  4

  0
STYLE
  2
SIMPLEX
 70
0
 40
0
 41
1
 50
0
 71
0
 42
3.5
  3
simplex
  4

  0
STYLE
  2
COMPLEX
 70
0
 40
0
 41
1
 50
0
 71
0
 42
3.5
  3
complex
  4

  0
STYLE
  2
ITALIC
 70
0
 40
0
 41
1
 50
0
 71
0
 42
3.5
  3
italic
  4

  0
ENDTAB
  0
TABLE
  2
VIEW
 70
0
  0
ENDTAB
  0
ENDSEC
  0
SECTION
  2
BLOCKS
  0
ENDSEC
  0
SECTION
  2
ENTITIES
  0
LINE
  8
1
 62
3
 10
-23.35063016993195
 20
131
 30
0
 11
0
 21
131
 31
0
  0
LINE
  8
1
 62
7
 10
-23.47341473083497
 20
132
 30
0
 11
0
 21
132
 31
0
  0
LINE
  8
1
 62
7
 10
-25
 20
0
 30
0
 11
-25
 21
-156
 31
0
  0
LINE
  8
1
 62
7
 10
0
 20
120
 30
0
 11
-22
 21
120
 31
0
  0
LINE
  8
1
 62
7
 10
0
 20
-120
 30
0
 11
-22
 21
-120
 31
0
  0
LINE
  8
1
 62
7
 10
-25
 20
148
 30
0
 11
0
 21
148
 31
0
  0
LINE
  8
1
 62
3
 10
-25
 20
149
 30
0
 11
0
 21
149
 31
0
  0
LINE
  8
1
 62
7
 10
-275.3830201405283
 20
62.86431204659749
 30
0
 11
-275.3830201405283
 21
-62.86431204659749
 31
0
  0
LINE
  8
1
 62
3
  6
DASHDOT
 10
-542.9569190954761
 20
133.8874041778852
 30
0
 11
-557.4748692968071
 21
108.7415768074245
 31
0
  0
LINE
  8
1
 62
7
 10
-470.1613447988553
 20
63.56366837434359
 30
0
 11
-471.4289971693503
 21
63.98648947537868
 31
0
  0
LINE
  8
1
 62
7
 10
-490.1613447988558
 20
-98.20468452572172
 30
0
 11
-490.4289971693507
 21
-96.8954548191879
 31
0
  0
LINE
  8
1
 62
7
 10
-640.2568479386782
 20
-161.7683529000652
 30
0
 11
-639.2568479386782
 21
-160.8819442945666
 31
0
  0
LINE
  8
1
 62
7
 10
-770.3523510785012
 20
-63.56366837434382
 30
0
 11
-769.0846987080063
 21
-63.9864894753789
 31
0
  0
LINE
  8
1
 62
7
 10
-750.3523510785001
 20
98.20468452572129
 30
0
 11
-750.0846987080051
 21
96.89545481918759
 31
0
  0
LINE
  8
1
 62
7
 10
-490.1613447988553
 20
98.20468452572118
 30
0
 11
-490.4289971693503
 21
96.89545481918736
 31
0
  0
LINE
  8
1
 62
7
 10
-470.1613447988557
 20
-63.56366837434422
 30
0
 11
-471.4289971693506
 21
-63.9864894753793
 31
0
  0
LINE
  8
1
 62
7
 10
-600.2568479386782
 20
-161.7683529000652
 30
0
 11
-601.2568479386782
 21
-160.8819442945666
 31
0
  0
LINE
  8
1
 62
7
 10
-750.3523510785012
 20
-98.20468452572121
 30
0
 11
-750.0846987080063
 21
-96.89545481918751
 31
0
  0
LINE
  8
1
 62
7
 10
-770.3523510785001
 20
63.56366837434376
 30
0
 11
-769.0846987080051
 21
63.98648947537896
 31
0
  0
LINE
  8
1
 62
7
 10
-457.5162590305556
 20
70.86431204659738
 30
0
 11
-470.1613447988553
 21
63.56366837434359
 31
0
  0
LINE
  8
1
 62
7
 10
-477.5162590305559
 20
-105.5053281979755
 30
0
 11
-490.1613447988558
 21
-98.20468452572172
 31
0
  0
LINE
  8
1
 62
7
 10
-640.2568479386782
 20
-176.3696402445727
 30
0
 11
-640.2568479386782
 21
-161.7683529000652
 31
0
  0
LINE
  8
1
 62
7
 10
-782.9974368468002
 20
-70.86431204659749
 30
0
 11
-770.3523510785012
 21
-63.56366837434382
 31
0
  0
LINE
  8
1
 62
7
 10
-762.9974368468002
 20
105.5053281979751
 30
0
 11
-750.3523510785001
 21
98.20468452572129
 31
0
  0
LINE
  8
1
 62
7
 10
-477.5162590305555
 20
105.505328197975
 30
0
 11
-490.1613447988553
 21
98.20468452572118
 31
0
  0
LINE
  8
1
 62
7
 10
-457.5162590305559
 20
-70.86431204659789
 30
0
 11
-470.1613447988557
 21
-63.56366837434422
 31
0
  0
LINE
  8
1
 62
7
 10
-600.2568479386782
 20
-176.3696402445727
 30
0
 11
-600.2568479386782
 21
-161.7683529000652
 31
0
  0
LINE
  8
1
 62
7
 10
-762.9974368468002
 20
-105.5053281979751
 30
0
 11
-750.3523510785012
 21
-98.20468452572121
 31
0
  0
LINE
  8
1
 62
7
 10
-782.9974368468002
 20
70.8643120465976
 30
0
 11
-770.3523510785001
 21
63.56366837434376
 31
0
  0
LINE
  8
1
 62
7
 10
-600.2568479386782
 20
161.7683529000651
 30
0
 11
-601.2568479386782
 21
160.8819442945665
 31
0
  0
LINE
  8
1
 62
7
 10
-640.2568479386782
 20
161.7683529000651
 30
0
 11
-639.2568479386782
 21
160.8819442945665
 31
0
  0
LINE
  8
1
 62
7
 10
-600.2568479386782
 20
176.3696402445727
 30
0
 11
-600.2568479386782
 21
161.7683529000651
 31
0
  0
LINE
  8
1
 62
7
 10
-640.2568479386782
 20
176.3696402445727
 30
0
 11
-640.2568479386782
 21
161.7683529000651
 31
0
  0
LINE
  8
1
 62
7
 10
-323.3830201405283
 20
-161.9999999999999
 30
0
 11
-283.3830201405283
 21
-161.9999999999999
 31
0
  0
LINE
  8
1
 62
7
 10
-323.3830201405283
 20
-63.05983778074551
 30
0
 11
-283.3830201405283
 21
-63.05983778074551
 31
0
  0
LINE
  8
1
 62
7
 10
-327.3830201405283
 20
-175.4999999999999
 30
0
 11
-283.3830201405283
 21
-175.4999999999999
 31
0
  0
LINE
  8
1
 62
7
 10
-275.3830201405283
 20
-167.4999999999999
 30
0
 11
-275.3830201405283
 21
-113.5053281979751
 31
0
  0
LINE
  8
1
 62
7
 10
-325.3830201405283
 20
-105.5053281979751
 30
0
 11
-283.3830201405283
 21
-105.5053281979751
 31
0
  0
LINE
  8
1
 62
7
 10
-325.3830201405283
 20
-70.86431204659749
 30
0
 11
-283.3830201405283
 21
-70.86431204659749
 31
0
  0
LINE
  8
1
 62
7
 10
-325.3830201405283
 20
-105.5053281979751
 30
0
 11
-327.3830201405283
 21
-104.5053281979751
 31
0
  0
LINE
  8
1
 62
7
 10
-327.3830201405283
 20
-175.4999999999999
 30
0
 11
-327.3830201405283
 21
-167
 31
0
  0
LINE
  8
1
 62
7
 10
-325.8830201405283
 20
-177.4999999999999
 30
0
 11
-327.3830201405283
 21
-175.4999999999999
 31
0
  0
LINE
  8
1
 62
7
 10
-327.3830201405283
 20
-167
 30
0
 11
-323.3830201405283
 21
-161.9999999999999
 31
0
  0
LINE
  8
1
 62
7
 10
-325.8830201405283
 20
-177.4999999999999
 30
0
 11
-234.3830201405283
 21
-177.4999999999999
 31
0
  0
LINE
  8
1
 62
7
 10
-234.3830201405283
 20
-177.4999999999999
 30
0
 11
-230.3830201405283
 21
-173.4999999999999
 31
0
  0
LINE
  8
1
 62
7
 10
-325.3830201405283
 20
-105.5053281979751
 30
0
 11
-325.3830201405283
 21
-70.86431204659749
 31
0
  0
LINE
  8
1
 62
7
 10
-325.3830201405283
 20
-70.86431204659749
 30
0
 11
-327.3830201405283
 21
-69.85899191415359
 31
0
  0
LINE
  8
1
 62
7
 10
-327.3830201405283
 20
-65.57852690060031
 30
0
 11
-323.3830201405283
 21
-63.05983778074551
 31
0
  0
LINE
  8
1
 62
7
 10
-327.3830201405283
 20
-104.5053281979751
 30
0
 11
-327.3830201405283
 21
-65.57852690060031
 31
0
  0
LINE
  8
1
 62
3
 10
-230.3830201405283
 20
0
 30
0
 11
-224.3830201405283
 21
0
 31
0
  0
LINE
  8
1
 62
3
 10
-281.3830201405283
 20
0
 30
0
 11
-275.3830201405283
 21
0
 31
0
  0
LINE
  8
1
 62
7
 10
-45
 20
105.7008539321229
 30
0
 11
-45
 21
154
 31
0
  0
LINE
  8
1
 62
7
 10
-31
 20
162
 30
0
 11
-92
 21
162
 31
0
  0
LINE
  8
1
 62
7
 10
-45
 20
55.05983778074528
 30
0
 11
-45
 21
-55.05983778074534
 31
0
  0
LINE
  8
1
 62
7
 10
-93
 20
63.05983778074528
 30
0
 11
-53
 21
63.05983778074528
 31
0
  0
LINE
  8
1
 62
7
 10
-93
 20
97.70085393212287
 30
0
 11
-53
 21
97.70085393212287
 31
0
  0
LINE
  8
1
 62
7
 10
-97
 20
166.9999999999999
 30
0
 11
-92
 21
162
 31
0
  0
LINE
  8
1
 62
7
 10
-97
 20
175.4999999999999
 30
0
 11
-95
 21
177.4999999999999
 31
0
  0
LINE
  8
1
 62
7
 10
0
 20
172.4999999999999
 30
0
 11
-5
 21
177.4999999999999
 31
0
  0
LINE
  8
1
 62
7
 10
-97
 20
65.57852690060008
 30
0
 11
-97
 21
104.4978078772116
 31
0
  0
LINE
  8
1
 62
7
 10
-53
 20
105.505328197975
 30
0
 11
-95
 21
105.505328197975
 31
0
  0
LINE
  8
1
 62
7
 10
-97
 20
104.4978078772116
 30
0
 11
-95
 21
105.505328197975
 31
0
  0
LINE
  8
1
 62
7
 10
-25
 20
144.4330392839238
 30
0
 11
-22
 21
120
 31
0
  0
LINE
  8
1
 62
7
 10
-22
 20
120
 30
0
 11
-22
 21
-120
 31
0
  0
LINE
  8
1
 62
7
 10
-5
 20
177.4999999999999
 30
0
 11
-95
 21
177.4999999999999
 31
0
  0
LINE
  8
1
 62
7
 10
-25
 20
156
 30
0
 11
-25
 21
-156
 31
0
  0
LINE
  8
1
 62
7
 10
-93
 20
63.05983778074528
 30
0
 11
-93
 21
97.70085393212287
 31
0
  0
LINE
  8
1
 62
7
 10
-97
 20
100.2195430519777
 30
0
 11
-93
 21
97.70085393212287
 31
0
  0
LINE
  8
1
 62
7
 10
-97
 20
65.57852690060008
 30
0
 11
-93
 21
63.05983778074528
 31
0
  0
LINE
  8
1
 62
3
  6
DASHDOT
 10
-25.6080738336891
 20
140
 30
0
 11
0.6668449097210214
 21
140
 31
0
  0
LINE
  8
1
 62
7
 10
-97
 20
166.9999999999999
 30
0
 11
-97
 21
175.4999999999999
 31
0
  0
LINE
  8
1
 62
7
 10
0
 20
172.4999999999999
 30
0
 11
0
 21
-172.4999999999999
 31
0
  0
LINE
  8
1
 62
3
 10
0
 20
0
 30
0
 11
6
 21
0
 31
0
  0
LINE
  8
1
 62
3
 10
-51
 20
0
 30
0
 11
-45
 21
0
 31
0
  0
LINE
  8
1
 62
7
 10
-283.3830201405283
 20
162
 30
0
 11
-323.3830201405283
 21
162
 31
0
  0
LINE
  8
1
 62
7
 10
-283.3830201405283
 20
63.05983778074551
 30
0
 11
-323.3830201405283
 21
63.05983778074551
 31
0
  0
LINE
  8
1
 62
7
 10
-283.3830201405283
 20
175.4999999999999
 30
0
 11
-327.3830201405283
 21
175.4999999999999
 31
0
  0
LINE
  8
1
 62
7
 10
-275.3830201405283
 20
113.5053281979751
 30
0
 11
-275.3830201405283
 21
167.5
 31
0
  0
LINE
  8
1
 62
7
 10
-283.3830201405283
 20
105.5053281979751
 30
0
 11
-325.3830201405283
 21
105.5053281979751
 31
0
  0
LINE
  8
1
 62
7
 10
-283.3830201405283
 20
70.86431204659749
 30
0
 11
-325.3830201405283
 21
70.86431204659749
 31
0
  0
LINE
  8
1
 62
7
 10
-327.3830201405283
 20
104.5053281979751
 30
0
 11
-325.3830201405283
 21
105.5053281979751
 31
0
  0
LINE
  8
1
 62
7
 10
-327.3830201405283
 20
167
 30
0
 11
-327.3830201405283
 21
175.4999999999999
 31
0
  0
LINE
  8
1
 62
7
 10
-327.3830201405283
 20
175.4999999999999
 30
0
 11
-325.8830201405283
 21
177.4999999999999
 31
0
  0
LINE
  8
1
 62
7
 10
-323.3830201405283
 20
162
 30
0
 11
-327.3830201405283
 21
167
 31
0
  0
LINE
  8
1
 62
7
 10
-234.3830201405283
 20
177.4999999999999
 30
0
 11
-325.8830201405283
 21
177.4999999999999
 31
0
  0
LINE
  8
1
 62
7
 10
-230.3830201405283
 20
173.4999999999999
 30
0
 11
-234.3830201405283
 21
177.4999999999999
 31
0
  0
LINE
  8
1
 62
7
 10
-325.3830201405283
 20
70.86431204659749
 30
0
 11
-325.3830201405283
 21
105.5053281979751
 31
0
  0
LINE
  8
1
 62
7
 10
-327.3830201405283
 20
69.85899191415359
 30
0
 11
-325.3830201405283
 21
70.86431204659749
 31
0
  0
LINE
  8
1
 62
7
 10
-323.3830201405283
 20
63.05983778074551
 30
0
 11
-327.3830201405283
 21
65.57852690060031
 31
0
  0
LINE
  8
1
 62
7
 10
-327.3830201405283
 20
65.57852690060031
 30
0
 11
-327.3830201405283
 21
104.5053281979751
 31
0
  0
LINE
  8
1
 62
7
 10
-235.3830201405283
 20
177.4999999999999
 30
0
 11
-235.3830201405283
 21
-177.4999999999999
 31
0
  0
LINE
  8
1
 62
7
 10
-230.3830201405283
 20
173.4999999999999
 30
0
 11
-230.3830201405283
 21
-173.4999999999999
 31
0
  0
LINE
  8
1
 62
7
 10
-45
 20
-154
 30
0
 11
-45
 21
-105.7008539321229
 31
0
  0
LINE
  8
1
 62
7
 10
-92
 20
-162
 30
0
 11
-31
 21
-162
 31
0
  0
LINE
  8
1
 62
7
 10
-53
 20
-63.05983778074534
 30
0
 11
-93
 21
-63.05983778074534
 31
0
  0
LINE
  8
1
 62
7
 10
-53
 20
-97.70085393212293
 30
0
 11
-93
 21
-97.70085393212293
 31
0
  0
LINE
  8
1
 62
7
 10
-92
 20
-162
 30
0
 11
-97
 21
-166.9999999999999
 31
0
  0
LINE
  8
1
 62
7
 10
-95
 20
-177.4999999999999
 30
0
 11
-97
 21
-175.4999999999999
 31
0
  0
LINE
  8
1
 62
7
 10
-5
 20
-177.4999999999999
 30
0
 11
0
 21
-172.4999999999999
 31
0
  0
LINE
  8
1
 62
7
 10
-97
 20
-104.4978078772116
 30
0
 11
-97
 21
-65.57852690060014
 31
0
  0
LINE
  8
1
 62
7
 10
-95
 20
-105.5053281979749
 30
0
 11
-53
 21
-105.5053281979749
 31
0
  0
LINE
  8
1
 62
7
 10
-95
 20
-105.5053281979749
 30
0
 11
-97
 21
-104.4978078772116
 31
0
  0
LINE
  8
1
 62
7
 10
-22
 20
-120
 30
0
 11
-25
 21
-144.4330392839238
 31
0
  0
LINE
  8
1
 62
7
 10
-95
 20
-177.4999999999999
 30
0
 11
-5
 21
-177.4999999999999
 31
0
  0
LINE
  8
1
 62
7
 10
-93
 20
-97.70085393212293
 30
0
 11
-93
 21
-63.05983778074534
 31
0
  0
LINE
  8
1
 62
7
 10
-93
 20
-97.70085393212293
 30
0
 11
-97
 21
-100.2195430519777
 31
0
  0
LINE
  8
1
 62
7
 10
-93
 20
-63.05983778074534
 30
0
 11
-97
 21
-65.57852690060014
 31
0
  0
LINE
  8
1
 62
7
 10
-97
 20
-175.4999999999999
 30
0
 11
-97
 21
-166.9999999999999
 31
0
  0
LINE
  8
1
 62
3
  6
DASHDOT
 10
-611.596817314273
 20
0
 30
0
 11
-628.9168785630834
 21
0
 31
0
  0
LINE
  8
1
 62
3
  6
DASHDOT
 10
-620.2568479386782
 20
8.660030624405181
 30
0
 11
-620.2568479386782
 21
-8.660030624405238
 31
0
  0
LINE
  8
1
 62
3
  6
DASHDOT
 10
-697.5567767818804
 20
133.8874041778851
 30
0
 11
-683.038826580549
 21
108.7415768074247
 31
0
  0
LINE
  8
1
 62
3
  6
DASHDOT
 10
-774.8567056250826
 20
0
 30
0
 11
-745.8208052224201
 21
1.70530256582424e-013
 31
0
  0
LINE
  8
1
 62
3
  6
DASHDOT
 10
-697.5567767818803
 20
-133.887404177885
 30
0
 11
-683.0388265805493
 21
-108.7415768074244
 31
0
  0
LINE
  8
1
 62
3
  6
DASHDOT
 10
-542.956919095476
 20
-133.887404177885
 30
0
 11
-557.4748692968075
 21
-108.7415768074246
 31
0
  0
LINE
  8
1
 62
3
  6
DASHDOT
 10
-465.6569902522739
 20
1.13686837721616e-013
 30
0
 11
-494.6928906549364
 21
-2.273736754432321e-013
 31
0
  0
ARC
  8
1
 62
7
 10
-283.3830201405283
 20
-167.4999999999999
 30
0
 40
8
 50
270
 51
0
  0
ARC
  8
1
 62
7
 10
-283.3830201405283
 20
-113.5053281979751
 30
0
 40
8
 50
0
 51
90
  0
ARC
  8
1
 62
7
 10
-283.3830201405283
 20
-62.86431204659749
 30
0
 40
8
 50
270
 51
0
  0
ARC
  8
1
 62
7
 10
-53
 20
55.05983778074528
 30
0
 40
8
 50
0
 51
90
  0
ARC
  8
1
 62
7
 10
-53
 20
105.7008539321229
 30
0
 40
8.000000000000028
 50
270
 51
0
  0
ARC
  8
1
 62
7
 10
-283.3830201405283
 20
167.5
 30
0
 40
8
 50
0
 51
90
  0
ARC
  8
1
 62
7
 10
-283.3830201405283
 20
113.5053281979751
 30
0
 40
8
 50
270
 51
0
  0
ARC
  8
1
 62
7
 10
-283.3830201405283
 20
62.86431204659749
 30
0
 40
8
 50
0
 51
90
  0
ARC
  8
1
 62
7
 10
-53
 20
-55.05983778074534
 30
0
 40
8
 50
270
 51
0
  0
ARC
  8
1
 62
7
 10
-53
 20
-105.7008539321229
 30
0
 40
8
 50
0
 51
90
  0
ARC
  8
1
 62
7
 10
-620.2568479386782
 20
0
 30
0
 40
144.4330392839239
 50
3.156320064559485
 51
56.84367993544064
  0
ARC
  8
1
 62
7
 10
-620.2568479386782
 20
0
 30
0
 40
144.4330392839236
 50
303.1563200645594
 51
356.8436799354404
  0
ARC
  8
1
 62
7
 10
-620.2568479386782
 20
0
 30
0
 40
144.4330392839239
 50
243.1563200645596
 51
296.8436799354404
  0
ARC
  8
1
 62
7
 10
-620.2568479386782
 20
0
 30
0
 40
144.433039283924
 50
183.1563200645594
 51
236.8436799354403
  0
ARC
  8
1
 62
7
 10
-620.2568479386782
 20
0
 30
0
 40
144.4330392839235
 50
123.1563200645593
 51
176.8436799354406
  0
ARC
  8
1
 62
7
 10
-620.2568479386782
 20
0
 30
0
 40
144.4330392839238
 50
63.15632006455958
 51
116.8436799354404
  0
ARC
  8
1
 62
7
 10
-620.2568479386782
 20
0
 30
0
 40
175.5000000000003
 50
23.45635034076048
 51
36.54364965923926
  0
ARC
  8
1
 62
7
 10
-620.2568479386782
 20
0
 30
0
 40
175.5000000000003
 50
323.4563503407605
 51
336.5436496592391
  0
ARC
  8
1
 62
7
 10
-620.2568479386782
 20
0
 30
0
 40
175.5000000000001
 50
263.4563503407607
 51
276.5436496592393
  0
ARC
  8
1
 62
7
 10
-620.2568479386782
 20
0
 30
0
 40
175.4999999999999
 50
203.4563503407606
 51
216.5436496592394
  0
ARC
  8
1
 62
7
 10
-620.2568479386782
 20
0
 30
0
 40
175.5
 50
143.4563503407606
 51
156.5436496592394
  0
ARC
  8
1
 62
7
 10
-620.2568479386782
 20
0
 30
0
 40
167.0000000000003
 50
23.12172064883371
 51
36.87827935116602
  0
ARC
  8
1
 62
7
 10
-620.2568479386782
 20
0
 30
0
 40
167.0000000000004
 50
323.1217206488337
 51
336.878279351166
  0
ARC
  8
1
 62
7
 10
-620.2568479386782
 20
0
 30
0
 40
167
 50
263.1217206488338
 51
276.8782793511662
  0
ARC
  8
1
 62
7
 10
-620.2568479386782
 20
0
 30
0
 40
166.9999999999998
 50
203.1217206488338
 51
216.8782793511662
  0
ARC
  8
1
 62
7
 10
-620.2568479386782
 20
0
 30
0
 40
166.9999999999999
 50
143.1217206488338
 51
156.8782793511662
  0
ARC
  8
1
 62
7
 10
-620.2568479386782
 20
0
 30
0
 40
166.9999999999998
 50
83.12172064883384
 51
96.87827935116617
  0
ARC
  8
1
 62
7
 10
-620.2568479386782
 20
0
 30
0
 40
175.5
 50
83.45635034076061
 51
96.54364965923939
  0
ARC
  8
1
 62
7
 10
-282.1330201405283
 20
-155.2499999999999
 30
0
 40
6.864765108872991
 50
259.5085229876684
 51
349.5085229876684
  0
ARC
  8
1
 62
7
 10
-283.3830201405283
 20
-55.05983778074551
 30
0
 40
8
 50
270
 51
0
  0
ARC
  8
1
 62
7
 10
-31
 20
156
 30
0
 40
6
 50
0
 51
90
  0
ARC
  8
1
 62
7
 10
-53
 20
113.505328197975
 30
0
 40
8
 50
270
 51
0
  0
ARC
  8
1
 62
7
 10
-53
 20
154
 30
0
 40
8
 50
0
 51
90
  0
ARC
  8
1
 62
7
 10
-282.1330201405283
 20
155.25
 30
0
 40
6.864765108872991
 50
10.4914770123316
 51
100.4914770123316
  0
ARC
  8
1
 62
7
 10
-283.3830201405283
 20
55.05983778074551
 30
0
 40
8
 50
0
 51
90
  0
ARC
  8
1
 62
7
 10
-31
 20
-156
 30
0
 40
6
 50
270
 51
0
  0
ARC
  8
1
 62
7
 10
-53
 20
-113.5053281979749
 30
0
 40
8
 50
0
 51
90
  0
ARC
  8
1
 62
7
 10
-53
 20
-154
 30
0
 40
8
 50
270
 51
0
  0
ARC
  8
1
 62
3
  6
DASHDOT
 10
-620.2568479386782
 20
0
 30
0
 40
140.0000000000001
 50
54.55359289461215
 51
65.09213162217782
  0
ARC
  8
1
 62
3
  6
DASHDOT
 10
-620.2568479386782
 20
0
 30
0
 40
140.0000000000001
 50
114.5535928946121
 51
125.0921316221778
  0
ARC
  8
1
 62
3
  6
DASHDOT
 10
-620.2568479386782
 20
0
 30
0
 40
140
 50
174.5535928946121
 51
185.0921316221778
  0
ARC
  8
1
 62
3
  6
DASHDOT
 10
-620.2568479386782
 20
0
 30
0
 40
140
 50
234.5535928946121
 51
245.0921316221778
  0
ARC
  8
1
 62
3
  6
DASHDOT
 10
-620.2568479386782
 20
0
 30
0
 40
139.9999999999999
 50
294.5535928946121
 51
305.0921316221778
  0
ARC
  8
1
 62
3
  6
DASHDOT
 10
-620.2568479386782
 20
0
 30
0
 40
139.9999999999999
 50
354.5535928946122
 51
5.092131622177788
  0
CIRCLE
  8
1
 62
3
 10
-480.2568479386779
 20
-2.273736754432321e-013
 30
0
 40
9.000000000000057
  0
CIRCLE
  8
1
 62
3
 10
-550.2568479386782
 20
-121.2435565298218
 30
0
 40
9
  0
CIRCLE
  8
1
 62
3
 10
-690.2568479386782
 20
-121.2435565298214
 30
0
 40
9
  0
CIRCLE
  8
1
 62
3
 10
-760.2568479386782
 20
0
 30
0
 40
8.999999999999886
  0
CIRCLE
  8
1
 62
3
 10
-690.2568479386782
 20
121.2435565298214
 30
0
 40
9
  0
CIRCLE
  8
1
 62
7
 10
-480.2568479386779
 20
-2.273736754432321e-013
 30
0
 40
8.000000000000057
  0
CIRCLE
  8
1
 62
7
 10
-550.2568479386782
 20
-121.2435565298218
 30
0
 40
8
  0
CIRCLE
  8
1
 62
7
 10
-690.2568479386782
 20
-121.2435565298214
 30
0
 40
8
  0
CIRCLE
  8
1
 62
7
 10
-760.2568479386782
 20
0
 30
0
 40
7.999999999999886
  0
CIRCLE
  8
1
 62
7
 10
-690.2568479386782
 20
121.2435565298214
 30
0
 40
8
  0
CIRCLE
  8
1
 62
7
 10
-550.2568479386782
 20
121.2435565298214
 30
0
 40
8
  0
CIRCLE
  8
1
 62
3
 10
-550.2568479386782
 20
121.2435565298214
 30
0
 40
9
  0
CIRCLE
  8
1
 62
7
 10
-620.2568479386782
 20
0
 30
0
 40
120
  0
CIRCLE
  8
1
 62
7
 10
-620.2568479386782
 20
0
 30
0
 40
162
  0
CIRCLE
  8
1
 62
7
 10
-620.2568479386782
 20
0
 30
0
 40
177.5
  0
TEXT
  8
1
 62
7
 10
-650.788259292672
 20
208.189900307212
 30
0
 40
12
  1
DC4410
 41
0.9
  7
SIMPLEX
  0
TEXT
  8
1
 62
7
 10
-650.788259292672
 20
226.189900307212
 30
0
 40
12
  1
UN 320
 41
0.9
  7
SIMPLEX
  0
ENDSEC
  0
EOF
