  0
SECTION
  2
HEADER
  9
$ACADVER
  1
AC1009
  9
$INSBASE
 10
0
 20
0
  9
$EXTMIN
 10
-986.0681698075139
 20
-202.0000000000001
  9
$EXTMAX
 10
6
 20
292.2543373640729
  9
$LIMMIN
 10
-986.0681698075139
 20
-202.0000000000001
  9
$LIMMAX
 10
6
 20
292.2543373640729
  9
$VIEWCTR
 10
10
 20
10
  9
$VIEWSIZE
 40
10
  9
$SNAPMODE
 70
0
  9
$SNAPUNIT
 10
1
 20
1
  9
$SNAPBASE
 10
0
 20
0
  9
$SNAPANG
 50
0
  9
$SNAPSTYLE
 70
0
  9
$SNAPISOPAIR
 70
0
  9
$GRIDMODE
 70
0
  9
$GRIDUNIT
 10
0
 20
0
  9
$ORTHOMODE
 70
0
  9
$REGENMODE
 70
1
  9
$FILLMODE
 70
1
  9
$QTEXTMODE
 70
0
  9
$DRAGMODE
 70
2
  9
$LTSCALE
 40
1
  9
$OSMODE
 70
0
  9
$ATTMODE
 70
1
  9
$TEXTSIZE
 40
3.5
  9
$TRACEWID
 40
0.5
  9
$TEXTSTYLE
  7
STANDARD
  9
$CLAYER
  8
0
  9
$CELTYPE
  6
BYLAYER
  9
$CECOLOR
 62
256
  9
$DIMSCALE
 40
1
  9
$DIMASZ
 40
0.18
  9
$DIMEXO
 40
0.0625
  9
$DIMDLI
 40
0.38
  9
$DIMRND
 40
0
  9
$DIMDLE
 40
0
  9
$DIMEXE
 40
0.18
  9
$DIMTP
 40
0
  9
$DIMTM
 40
0
  9
$DIMTXT
 40
0.18
  9
$DIMCEN
 40
0.09
  9
$DIMTSZ
 40
0
  9
$DIMTOL
 70
0
  9
$DIMLIM
 70
0
  9
$DIMTIH
 70
1
  9
$DIMTOH
 70
1
  9
$DIMSE1
 70
0
  9
$DIMSE2
 70
0
  9
$DIMTAD
 70
0
  9
$DIMZIN
 70
0
  9
$DIMBLK
  1

  9
$DIMASO
 70
1
  9
$DIMSHO
 70
1
  9
$DIMPOST
  1

  9
$DIMAPOST
  1

  9
$DIMALT
 70
0
  9
$DIMALTD
 70
2
  9
$DIMALTF
 40
25.4
  9
$DIMLFAC
 40
1
  9
$DIMTOFL
 70
0
  9
$DIMTVP
 40
0
  9
$DIMTIX
 70
0
  9
$DIMSOXD
 70
0
  9
$DIMSAH
 70
0
  9
$DIMBLK1
  1

  9
$DIMBLK2
  1

  9
$DIMSTYLE
  2
*UNNAMED
  9
$DIMCLRD
 70
0
  9
$DIMCLRE
 70
0
  9
$DIMCLRT
 70
0
  9
$DIMTFAC
 40
1
  9
$DIMGAP
 40
0.09
  9
$LUNITS
 70
2
  9
$LUPREC
 70
4
  9
$AXISMODE
 70
0
  9
$AXISUNIT
 10
0
 20
0
  9
$SKETCHINC
 40
0.1
  9
$FILLETRAD
 40
2
  9
$AUNITS
 70
0
  9
$AUPREC
 70
0
  9
$MENU
  1
ACAD
  9
$ELEVATION
 40
0
  9
$THICKNESS
 40
0
  9
$VIEWDIR
 10
0
 20
0
 30
1
  9
$LIMCHECK
 70
0
  9
$BLIPMODE
 70
1
  9
$CHAMFERA
 40
0
  9
$CHAMFERB
 40
0
  9
$FASTZOOM
 70
1
  9
$SKPOLY
 70
0
  9
$ANGBASE
 50
0
  9
$ANGDIR
 70
0
  9
$PDMODE
 70
0
  9
$PDSIZE
 40
0
  9
$PLINEWID
 40
0
  9
$COORDS
 70
2
  0
ENDSEC
  0
SECTION
  2
TABLES
  0
TABLE
  2
DIMSTYLE
 70
0
  0
ENDTAB
  0
TABLE
  2
LTYPE
 70
9
  0
LTYPE
  2
CONTINUOUS
 70
64
  3
Solid line
 72
65
 73
0
 40
0
  0
LTYPE
  2
BORDER
 70
64
  3
__ __ . __ __ .
 72
65
 73
6
 40
45.68734992534603
 49
13.05352855009887
 49
-6.526764275049433
 49
13.05352855009887
 49
-6.526764275049433
 49
0
 49
-6.526764275049433
  0
LTYPE
  2
CENTER
 70
64
  3
____ _ ____ _
 72
65
 73
4
 40
52.21411420039546
 49
32.63382137524717
 49
-6.526764275049433
 49
6.526764275049433
 49
-6.526764275049433
  0
LTYPE
  2
DASHDOT
 70
64
  3
__ . __ . __ .
 72
65
 73
4
 40
26.10705710019773
 49
13.05352855009887
 49
-6.526764275049433
 49
0
 49
-6.526764275049433
  0
LTYPE
  2
DASHED
 70
64
  3
__ __ __ __ __
 72
65
 73
2
 40
19.5802928251483
 49
13.05352855009887
 49
-6.526764275049433
  0
LTYPE
  2
DIVIDE
 70
64
  3
__ . . __ . . 
 72
65
 73
6
 40
32.63382137524717
 49
13.05352855009887
 49
-6.526764275049433
 49
0
 49
-6.526764275049433
 49
0
 49
-6.526764275049433
  0
LTYPE
  2
DOT
 70
64
  3
..............
 72
65
 73
4
 40
13.05352855009887
 49
0
 49
-6.526764275049433
 49
0
 49
-6.526764275049433
  0
LTYPE
  2
HIDDEN
 70
64
  3
_ _ _ _ _ _ _
 72
65
 73
2
 40
9.790146412574149
 49
6.526764275049433
 49
-3.263382137524717
  0
LTYPE
  2
PHANTOM
 70
64
  3
_____ _ _ _____ _ _ 
 72
65
 73
6
 40
65.26764275049433
 49
32.63382137524717
 49
-6.526764275049433
 49
6.526764275049433
 49
-6.526764275049433
 49
6.526764275049433
 49
-6.526764275049433
  0
ENDTAB
  0
TABLE
  2
LAYER
 70
3
  0
LAYER
  2
1
 70
0
 62
7
  6
CONTINUOUS
  0
LAYER
  2
0
 70
0
 62
7
  6
CONTINUOUS
  0
ENDTAB
  0
TABLE
  2
STYLE
 70
4
  0
STYLE
  2
STANDARD
 70
0
 40
0
 41
1
 50
0
 71
0
 42
3.5
  3
txt
  4

  0
STYLE
  2
SIMPLEX
 70
0
 40
0
 41
1
 50
0
 71
0
 42
3.5
  3
simplex
  4

  0
STYLE
  2
COMPLEX
 70
0
 40
0
 41
1
 50
0
 71
0
 42
3.5
  3
complex
  4

  0
STYLE
  2
ITALIC
 70
0
 40
0
 41
1
 50
0
 71
0
 42
3.5
  3
italic
  4

  0
ENDTAB
  0
TABLE
  2
VIEW
 70
0
  0
ENDTAB
  0
ENDSEC
  0
SECTION
  2
BLOCKS
  0
ENDSEC
  0
SECTION
  2
ENTITIES
  0
LINE
  8
1
 62
7
 10
-30
 20
176
 30
0
 11
-30
 21
-176
 31
0
  0
LINE
  8
1
 62
3
 10
-282.6327603873799
 20
0
 30
0
 11
-288.6327603873799
 21
0
 31
0
  0
LINE
  8
1
 62
7
 10
-340.632760387379
 20
70.57286514360658
 30
0
 11
-340.632760387379
 21
-70.57286514360663
 31
0
  0
LINE
  8
1
 62
7
 10
-392.1327603873799
 20
-202
 30
0
 11
-296.6327603873799
 21
-202.0000000000001
 31
0
  0
LINE
  8
1
 62
7
 10
-296.6327603873799
 20
-202.0000000000001
 30
0
 11
-288.6327603873799
 21
-194
 31
0
  0
LINE
  8
1
 62
7
 10
-393.6327603873799
 20
-120.8741353328285
 30
0
 11
-393.6327603873799
 21
-72.52340591457573
 31
0
  0
LINE
  8
1
 62
7
 10
-393.6327603873799
 20
-72.52340591457573
 30
0
 11
-387.632760387374
 21
-69.49622442342161
 31
0
  0
LINE
  8
1
 62
7
 10
-391.6327603873799
 20
-78.57286514360663
 30
0
 11
-393.6327603873799
 21
-77.56754501116268
 31
0
  0
LINE
  8
1
 62
7
 10
-391.6327603873799
 20
-121.8741353328285
 30
0
 11
-391.6327603873799
 21
-78.57286514360663
 31
0
  0
LINE
  8
1
 62
7
 10
-393.6327603873799
 20
-190
 30
0
 11
-387.6327603873719
 21
-183.9999999999999
 31
0
  0
LINE
  8
1
 62
7
 10
-392.1327603873799
 20
-202
 30
0
 11
-393.6327603873799
 21
-200.0000000000001
 31
0
  0
LINE
  8
1
 62
7
 10
-393.6327603873799
 20
-200.0000000000001
 30
0
 11
-393.6327603873799
 21
-190
 31
0
  0
LINE
  8
1
 62
7
 10
-391.6327603873799
 20
-121.8741353328285
 30
0
 11
-393.6327603873799
 21
-120.8741353328285
 31
0
  0
LINE
  8
1
 62
7
 10
-391.6327603873799
 20
-78.57286514360663
 30
0
 11
-348.632760387379
 21
-78.57286514360663
 31
0
  0
LINE
  8
1
 62
7
 10
-391.6327603873799
 20
-121.8741353328285
 30
0
 11
-348.632760387379
 21
-121.8741353328285
 31
0
  0
LINE
  8
1
 62
7
 10
-340.632760387379
 20
-192
 30
0
 11
-340.632760387379
 21
-129.8741353328285
 31
0
  0
LINE
  8
1
 62
7
 10
-393.6327603873799
 20
-200.0000000000001
 30
0
 11
-348.632760387379
 21
-200
 31
0
  0
LINE
  8
1
 62
7
 10
-387.632760387374
 20
-69.49622442342161
 30
0
 11
-348.632760387379
 21
-69.49622442342161
 31
0
  0
LINE
  8
1
 62
7
 10
-387.6327603873719
 20
-183.9999999999999
 30
0
 11
-348.632760387379
 21
-183.9999999999999
 31
0
  0
LINE
  8
1
 62
3
  6
DASHDOT
 10
-632.3898590570439
 20
87.57151354201073
 30
0
 11
-658.9649239203409
 21
72.22839268945472
 31
0
  0
LINE
  8
1
 62
7
 10
-612.8230911436378
 20
70.00087880450553
 30
0
 11
-614.080828542461
 21
70.42942431710424
 31
0
  0
LINE
  8
1
 62
7
 10
-637.823091143639
 20
-113.3021489937282
 30
0
 11
-638.0808285424619
 21
-111.998643698758
 31
0
  0
LINE
  8
1
 62
7
 10
-809.0681698075139
 20
-183.3030277982339
 30
0
 11
-808.0681698075139
 21
-182.4280680158623
 31
0
  0
LINE
  8
1
 62
7
 10
-955.313248471389
 20
-70.00087880450593
 30
0
 11
-954.0555110725659
 21
-70.42942431710463
 31
0
  0
LINE
  8
1
 62
7
 10
-930.313248471389
 20
113.3021489937278
 30
0
 11
-930.0555110725659
 21
111.9986436987575
 31
0
  0
LINE
  8
1
 62
7
 10
-597.9759752825289
 20
78.57286514360635
 30
0
 11
-612.8230911436378
 21
70.00087880450553
 31
0
  0
LINE
  8
1
 62
7
 10
-622.9759752825289
 20
-121.874135332829
 30
0
 11
-637.823091143639
 21
-113.3021489937282
 31
0
  0
LINE
  8
1
 62
7
 10
-809.0681698075139
 20
-200.4470004764354
 30
0
 11
-809.0681698075139
 21
-183.3030277982339
 31
0
  0
LINE
  8
1
 62
7
 10
-970.1603643324979
 20
-78.57286514360669
 30
0
 11
-955.313248471389
 21
-70.00087880450593
 31
0
  0
LINE
  8
1
 62
7
 10
-945.1603643324979
 20
121.8741353328285
 30
0
 11
-930.313248471389
 21
113.3021489937278
 31
0
  0
LINE
  8
1
 62
7
 10
-637.8230911436378
 20
113.3021489937275
 30
0
 11
-638.080828542461
 21
111.9986436987574
 31
0
  0
LINE
  8
1
 62
7
 10
-622.9759752825289
 20
121.8741353328284
 30
0
 11
-637.8230911436378
 21
113.3021489937275
 31
0
  0
LINE
  8
1
 62
7
 10
-612.823091143639
 20
-70.00087880450633
 30
0
 11
-614.0808285424619
 21
-70.42942431710492
 31
0
  0
LINE
  8
1
 62
7
 10
-597.9759752825289
 20
-78.57286514360709
 30
0
 11
-612.823091143639
 21
-70.00087880450633
 31
0
  0
LINE
  8
1
 62
7
 10
-759.0681698075139
 20
-183.3030277982339
 30
0
 11
-760.0681698075139
 21
-182.4280680158623
 31
0
  0
LINE
  8
1
 62
7
 10
-759.0681698075139
 20
-200.4470004764354
 30
0
 11
-759.0681698075139
 21
-183.3030277982339
 31
0
  0
LINE
  8
1
 62
7
 10
-930.313248471389
 20
-113.3021489937278
 30
0
 11
-930.0555110725659
 21
-111.9986436987576
 31
0
  0
LINE
  8
1
 62
7
 10
-945.1603643324979
 20
-121.8741353328286
 30
0
 11
-930.313248471389
 21
-113.3021489937278
 31
0
  0
LINE
  8
1
 62
7
 10
-955.313248471389
 20
70.00087880450587
 30
0
 11
-954.0555110725659
 21
70.42942431710446
 31
0
  0
LINE
  8
1
 62
7
 10
-970.1603643324979
 20
78.57286514360658
 30
0
 11
-955.313248471389
 21
70.00087880450587
 31
0
  0
LINE
  8
1
 62
7
 10
-622.9759752825289
 20
121.8741353328284
 30
0
 11
-637.8230911436378
 21
113.3021489937275
 31
0
  0
LINE
  8
1
 62
7
 10
-597.9759752825289
 20
-78.57286514360709
 30
0
 11
-612.823091143639
 21
-70.00087880450633
 31
0
  0
LINE
  8
1
 62
7
 10
-759.0681698075139
 20
-200.4470004764354
 30
0
 11
-759.0681698075139
 21
-183.3030277982339
 31
0
  0
LINE
  8
1
 62
7
 10
-945.1603643324979
 20
-121.8741353328286
 30
0
 11
-930.313248471389
 21
-113.3021489937278
 31
0
  0
LINE
  8
1
 62
7
 10
-970.1603643324979
 20
78.57286514360658
 30
0
 11
-955.313248471389
 21
70.00087880450587
 31
0
  0
LINE
  8
1
 62
7
 10
-759.0681698075139
 20
183.3030277982335
 30
0
 11
-760.0681698075139
 21
182.428068015862
 31
0
  0
LINE
  8
1
 62
7
 10
-809.0681698075139
 20
183.3030277982335
 30
0
 11
-808.0681698075139
 21
182.428068015862
 31
0
  0
LINE
  8
1
 62
7
 10
-759.0681698075139
 20
200.4470004764352
 30
0
 11
-759.0681698075139
 21
183.3030277982335
 31
0
  0
LINE
  8
1
 62
7
 10
-809.0681698075139
 20
200.4470004764352
 30
0
 11
-809.0681698075139
 21
183.3030277982335
 31
0
  0
LINE
  8
1
 62
7
 10
-296.6327603873799
 20
202
 30
0
 11
-392.1327603873799
 21
202
 31
0
  0
LINE
  8
1
 62
7
 10
-288.6327603873799
 20
194
 30
0
 11
-296.6327603873799
 21
202
 31
0
  0
LINE
  8
1
 62
7
 10
-393.6327603873799
 20
72.52340591457562
 30
0
 11
-393.6327603873799
 21
120.8741353328285
 31
0
  0
LINE
  8
1
 62
7
 10
-387.632760387374
 20
69.49622442342161
 30
0
 11
-393.6327603873799
 21
72.52340591457562
 31
0
  0
LINE
  8
1
 62
7
 10
-393.6327603873799
 20
77.56754501116268
 30
0
 11
-391.6327603873799
 21
78.57286514360658
 31
0
  0
LINE
  8
1
 62
7
 10
-391.6327603873799
 20
78.57286514360658
 30
0
 11
-391.6327603873799
 21
121.8741353328285
 31
0
  0
LINE
  8
1
 62
7
 10
-387.6327603873719
 20
183.9999999999999
 30
0
 11
-393.6327603873799
 21
190
 31
0
  0
LINE
  8
1
 62
7
 10
-393.6327603873799
 20
200.0000000000001
 30
0
 11
-392.1327603873799
 21
202
 31
0
  0
LINE
  8
1
 62
7
 10
-393.6327603873799
 20
190
 30
0
 11
-393.6327603873799
 21
200.0000000000001
 31
0
  0
LINE
  8
1
 62
7
 10
-393.6327603873799
 20
120.8741353328285
 30
0
 11
-391.6327603873799
 21
121.8741353328285
 31
0
  0
LINE
  8
1
 62
7
 10
-348.632760387379
 20
78.57286514360658
 30
0
 11
-391.6327603873799
 21
78.57286514360658
 31
0
  0
LINE
  8
1
 62
7
 10
-348.632760387379
 20
121.8741353328285
 30
0
 11
-391.6327603873799
 21
121.8741353328285
 31
0
  0
LINE
  8
1
 62
7
 10
-340.632760387379
 20
129.8741353328285
 30
0
 11
-340.632760387379
 21
192
 31
0
  0
LINE
  8
1
 62
7
 10
-348.632760387379
 20
200
 30
0
 11
-393.6327603873799
 21
200.0000000000001
 31
0
  0
LINE
  8
1
 62
7
 10
-348.632760387379
 20
69.49622442342161
 30
0
 11
-387.632760387374
 21
69.49622442342161
 31
0
  0
LINE
  8
1
 62
7
 10
-348.632760387379
 20
183.9999999999999
 30
0
 11
-387.6327603873719
 21
183.9999999999999
 31
0
  0
LINE
  8
1
 62
7
 10
-296.6327603873799
 20
202
 30
0
 11
-296.6327603873799
 21
-202.0000000000001
 31
0
  0
LINE
  8
1
 62
7
 10
-288.6327603873799
 20
194
 30
0
 11
-288.6327603873799
 21
-194
 31
0
  0
LINE
  8
1
 62
7
 10
0
 20
194
 30
0
 11
0
 21
-194
 31
0
  0
LINE
  8
1
 62
7
 10
-105
 20
190
 30
0
 11
-105
 21
200.0000000000001
 31
0
  0
LINE
  8
1
 62
3
  6
DASHDOT
 10
-30.60807383369001
 20
160
 30
0
 11
0.6668449097210214
 21
160
 31
0
  0
LINE
  8
1
 62
7
 10
-105
 20
72.52340591457551
 30
0
 11
-98.99999999999795
 21
69.49622442342115
 31
0
  0
LINE
  8
1
 62
7
 10
-105
 20
115.8246761037976
 30
0
 11
-98.99999999999795
 21
112.7974946126433
 31
0
  0
LINE
  8
1
 62
7
 10
-98.99999999999795
 20
69.49622442342115
 30
0
 11
-98.99999999999795
 21
112.7974946126433
 31
0
  0
LINE
  8
1
 62
7
 10
-27
 20
140
 30
0
 11
0
 21
140
 31
0
  0
LINE
  8
1
 62
7
 10
-8
 20
202
 30
0
 11
-103
 21
202
 31
0
  0
LINE
  8
1
 62
7
 10
-27
 20
140
 30
0
 11
-27
 21
-139.9999999999999
 31
0
  0
LINE
  8
1
 62
3
 10
-30
 20
170
 30
0
 11
0
 21
170
 31
0
  0
LINE
  8
1
 62
7
 10
-30
 20
168.5
 30
0
 11
0
 21
168.5
 31
0
  0
LINE
  8
1
 62
7
 10
-28.35063016993286
 20
151.5
 30
0
 11
0
 21
151.5
 31
0
  0
LINE
  8
1
 62
3
 10
-28.22784560902892
 20
150
 30
0
 11
0
 21
150
 31
0
  0
LINE
  8
1
 62
7
 10
-30
 20
164.4330392839238
 30
0
 11
-27
 21
140
 31
0
  0
LINE
  8
1
 62
7
 10
-105
 20
120.8666150120648
 30
0
 11
-103
 21
121.8741353328282
 31
0
  0
LINE
  8
1
 62
7
 10
-59.99999999999886
 20
121.8741353328282
 30
0
 11
-103
 21
121.8741353328282
 31
0
  0
LINE
  8
1
 62
7
 10
-105
 20
72.52340591457551
 30
0
 11
-105
 21
120.8666150120648
 31
0
  0
LINE
  8
1
 62
7
 10
0
 20
194
 30
0
 11
-8
 21
202
 31
0
  0
LINE
  8
1
 62
7
 10
-105
 20
200.0000000000001
 30
0
 11
-103
 21
202
 31
0
  0
LINE
  8
1
 62
7
 10
-105
 20
190
 30
0
 11
-99
 21
184
 31
0
  0
LINE
  8
1
 62
7
 10
-98.99999999999795
 20
112.7974946126433
 30
0
 11
-59.99999999999886
 21
112.7974946126433
 31
0
  0
LINE
  8
1
 62
7
 10
-98.99999999999795
 20
69.49622442342115
 30
0
 11
-59.99999999999886
 21
69.49622442342115
 31
0
  0
LINE
  8
1
 62
7
 10
-51.99999999999886
 20
61.49622442342115
 30
0
 11
-51.99999999999886
 21
-61.49622442342121
 31
0
  0
LINE
  8
1
 62
7
 10
-38
 20
184
 30
0
 11
-99
 21
184
 31
0
  0
LINE
  8
1
 62
7
 10
-51.99999999999886
 20
176
 30
0
 11
-51.99999999999886
 21
120.7974946126433
 31
0
  0
LINE
  8
1
 62
7
 10
-51.99999999999886
 20
-120.7974946126433
 30
0
 11
-51.99999999999886
 21
-176
 31
0
  0
LINE
  8
1
 62
7
 10
-105
 20
-200.0000000000001
 30
0
 11
-105
 21
-190
 31
0
  0
LINE
  8
1
 62
7
 10
-98.99999999999795
 20
-69.49622442342121
 30
0
 11
-105
 21
-72.52340591457551
 31
0
  0
LINE
  8
1
 62
7
 10
-98.99999999999795
 20
-112.7974946126433
 30
0
 11
-105
 21
-115.8246761037976
 31
0
  0
LINE
  8
1
 62
7
 10
-98.99999999999795
 20
-112.7974946126433
 30
0
 11
-98.99999999999795
 21
-69.49622442342121
 31
0
  0
LINE
  8
1
 62
7
 10
-27
 20
-139.9999999999999
 30
0
 11
0
 21
-139.9999999999999
 31
0
  0
LINE
  8
1
 62
7
 10
-103
 20
-202
 30
0
 11
-8
 21
-202
 31
0
  0
LINE
  8
1
 62
7
 10
-27
 20
-139.9999999999999
 30
0
 11
-30
 21
-164.4330392839238
 31
0
  0
LINE
  8
1
 62
7
 10
-103
 20
-121.8741353328283
 30
0
 11
-105
 21
-120.8666150120648
 31
0
  0
LINE
  8
1
 62
7
 10
-103
 20
-121.8741353328283
 30
0
 11
-59.99999999999886
 21
-121.8741353328283
 31
0
  0
LINE
  8
1
 62
7
 10
-105
 20
-120.8666150120648
 30
0
 11
-105
 21
-72.52340591457551
 31
0
  0
LINE
  8
1
 62
7
 10
-8
 20
-202
 30
0
 11
0
 21
-194
 31
0
  0
LINE
  8
1
 62
7
 10
-103
 20
-202
 30
0
 11
-105
 21
-200.0000000000001
 31
0
  0
LINE
  8
1
 62
7
 10
-99
 20
-184
 30
0
 11
-105
 21
-190
 31
0
  0
LINE
  8
1
 62
7
 10
-59.99999999999886
 20
-112.7974946126433
 30
0
 11
-98.99999999999795
 21
-112.7974946126433
 31
0
  0
LINE
  8
1
 62
7
 10
-59.99999999999886
 20
-69.49622442342121
 30
0
 11
-98.99999999999795
 21
-69.49622442342121
 31
0
  0
LINE
  8
1
 62
7
 10
-99
 20
-184
 30
0
 11
-38
 21
-184
 31
0
  0
LINE
  8
1
 62
3
 10
-346.632760387379
 20
0
 30
0
 11
-340.632760387379
 21
0
 31
0
  0
LINE
  8
1
 62
3
 10
-57.99999999999886
 20
0
 30
0
 11
-51.99999999999886
 21
0
 31
0
  0
LINE
  8
1
 62
3
 10
0
 20
0
 30
0
 11
6
 21
0
 31
0
  0
LINE
  8
1
 62
3
  6
DASHDOT
 10
-775.5838253287479
 20
0
 30
0
 11
-792.5525142862798
 21
0
 31
0
  0
LINE
  8
1
 62
3
  6
DASHDOT
 10
-784.0681698075139
 20
8.484344478765934
 30
0
 11
-784.0681698075139
 21
-8.484344478765934
 31
0
  0
LINE
  8
1
 62
3
  6
DASHDOT
 10
-784.0681698075131
 20
175.1430270840227
 30
0
 11
-784.0681698075133
 21
144.4567853789102
 31
0
  0
LINE
  8
1
 62
3
  6
DASHDOT
 10
-935.7464805579831
 20
87.5715135420121
 30
0
 11
-909.1714156946864
 21
72.22839268945563
 31
0
  0
LINE
  8
1
 62
3
  6
DASHDOT
 10
-935.7464805579839
 20
-87.57151354201062
 30
0
 11
-909.1714156946869
 21
-72.2283926894545
 31
0
  0
LINE
  8
1
 62
3
  6
DASHDOT
 10
-784.0681698075148
 20
-175.1430270840227
 30
0
 11
-784.0681698075146
 21
-144.4567853789102
 31
0
  0
LINE
  8
1
 62
3
  6
DASHDOT
 10
-632.389859057045
 20
-87.5715135420121
 30
0
 11
-658.9649239203419
 21
-72.22839268945563
 31
0
  0
ARC
  8
1
 62
7
 10
-348.632760387379
 20
-70.57286514360663
 30
0
 40
8
 50
270
 51
0
  0
ARC
  8
1
 62
7
 10
-348.632760387379
 20
-129.8741353328285
 30
0
 40
8
 50
0
 51
90
  0
ARC
  8
1
 62
7
 10
-348.632760387379
 20
-192
 30
0
 40
8
 50
270
 51
0
  0
ARC
  8
1
 62
7
 10
-348.632760387379
 20
70.57286514360658
 30
0
 40
8
 50
0
 51
90
  0
ARC
  8
1
 62
7
 10
-348.632760387379
 20
129.8741353328285
 30
0
 40
8
 50
270
 51
0
  0
ARC
  8
1
 62
7
 10
-348.632760387379
 20
192
 30
0
 40
8
 50
0
 51
90
  0
ARC
  8
1
 62
7
 10
-59.99999999999886
 20
120.7974946126433
 30
0
 40
8
 50
270
 51
0
  0
ARC
  8
1
 62
7
 10
-59.99999999999886
 20
61.49622442342115
 30
0
 40
8
 50
0
 51
90
  0
ARC
  8
1
 62
7
 10
-59.99999999999886
 20
-120.7974946126433
 30
0
 40
8
 50
0
 51
90
  0
ARC
  8
1
 62
7
 10
-59.99999999999886
 20
-61.49622442342121
 30
0
 40
8
 50
270
 51
0
  0
ARC
  8
1
 62
7
 10
-348.632760387379
 20
-175.9999999999999
 30
0
 40
8
 50
270
 51
0
  0
ARC
  8
1
 62
7
 10
-348.632760387379
 20
-61.49622442342161
 30
0
 40
8
 50
270
 51
0
  0
ARC
  8
1
 62
7
 10
-784.0681698075139
 20
0
 30
0
 40
190.0000000000003
 50
22.43915682332779
 51
37.56084317667198
  0
ARC
  8
1
 62
7
 10
-784.0681698075139
 20
0
 30
0
 40
190.0000000000006
 50
322.4391568233279
 51
337.560843176672
  0
ARC
  8
1
 62
7
 10
-784.0681698075139
 20
0
 30
0
 40
190.0000000000003
 50
262.4391568233279
 51
277.5608431766721
  0
ARC
  8
1
 62
7
 10
-784.0681698075139
 20
0
 30
0
 40
190.0000000000004
 50
202.4391568233279
 51
217.5608431766719
  0
ARC
  8
1
 62
7
 10
-784.0681698075139
 20
0
 30
0
 40
189.9999999999995
 50
142.4391568233278
 51
157.5608431766721
  0
ARC
  8
1
 62
7
 10
-784.0681698075139
 20
0
 30
0
 40
200.0000000000009
 50
22.81924421854156
 51
37.18075578145809
  0
ARC
  8
1
 62
7
 10
-784.0681698075139
 20
0
 30
0
 40
200.0000000000002
 50
322.8192442185416
 51
337.1807557814581
  0
ARC
  8
1
 62
7
 10
-784.0681698075139
 20
0
 30
0
 40
200.0000000000003
 50
262.8192442185417
 51
277.1807557814583
  0
ARC
  8
1
 62
7
 10
-784.0681698075139
 20
0
 30
0
 40
200.0000000000001
 50
202.8192442185417
 51
217.1807557814583
  0
ARC
  8
1
 62
7
 10
-784.0681698075139
 20
0
 30
0
 40
200.0000000000001
 50
142.8192442185417
 51
157.1807557814583
  0
ARC
  8
1
 62
7
 10
-784.0681698075139
 20
0
 30
0
 40
190
 50
82.43915682332791
 51
97.56084317667208
  0
ARC
  8
1
 62
7
 10
-784.0681698075139
 20
0
 30
0
 40
199.9999999999999
 50
82.81924421854171
 51
97.18075578145829
  0
ARC
  8
1
 62
7
 10
-784.0681698075139
 20
0
 30
0
 40
164.4330392839239
 50
33.16673231152133
 51
86.83326768847854
  0
ARC
  8
1
 62
7
 10
-784.0681698075139
 20
0
 30
0
 40
164.4330392839236
 50
93.16673231152154
 51
146.8332676884784
  0
ARC
  8
1
 62
7
 10
-784.0681698075139
 20
0
 30
0
 40
164.4330392839233
 50
153.1667323115214
 51
206.8332676884787
  0
ARC
  8
1
 62
7
 10
-784.0681698075139
 20
0
 30
0
 40
164.4330392839242
 50
213.1667323115214
 51
266.8332676884784
  0
ARC
  8
1
 62
7
 10
-784.0681698075139
 20
0
 30
0
 40
164.4330392839238
 50
273.1667323115216
 51
326.8332676884785
  0
ARC
  8
1
 62
7
 10
-784.0681698075139
 20
0
 30
0
 40
164.4330392839235
 50
333.1667323115213
 51
26.83326768847835
  0
ARC
  8
1
 62
3
  6
DASHDOT
 10
-784.0681698075139
 20
0
 30
0
 40
160.0000000000005
 50
24.3254209703692
 51
35.69851657702069
  0
ARC
  8
1
 62
7
 10
-348.632760387379
 20
175.9999999999999
 30
0
 40
8
 50
0
 51
90
  0
ARC
  8
1
 62
7
 10
-348.632760387379
 20
61.49622442342161
 30
0
 40
8
 50
0
 51
90
  0
ARC
  8
1
 62
7
 10
-59.99999999999886
 20
176
 30
0
 40
8
 50
0
 51
90
  0
ARC
  8
1
 62
7
 10
-59.99999999999886
 20
129.8741353328282
 30
0
 40
7.999999999999986
 50
270
 51
0
  0
ARC
  8
1
 62
7
 10
-38
 20
176
 30
0
 40
8
 50
0
 51
90
  0
ARC
  8
1
 62
7
 10
-59.99999999999886
 20
-176
 30
0
 40
8
 50
270
 51
0
  0
ARC
  8
1
 62
7
 10
-59.99999999999886
 20
-129.8741353328283
 30
0
 40
8
 50
0
 51
90
  0
ARC
  8
1
 62
7
 10
-38
 20
-176
 30
0
 40
8
 50
270
 51
0
  0
ARC
  8
1
 62
3
  6
DASHDOT
 10
-784.0681698075139
 20
0
 30
0
 40
160.0000000000001
 50
84.32542097036925
 51
95.69851657702064
  0
ARC
  8
1
 62
3
  6
DASHDOT
 10
-784.0681698075139
 20
0
 30
0
 40
160.0000000000001
 50
144.3254209703692
 51
155.6985165770206
  0
ARC
  8
1
 62
3
  6
DASHDOT
 10
-784.0681698075139
 20
0
 30
0
 40
160
 50
204.3254209703692
 51
215.6985165770206
  0
ARC
  8
1
 62
3
  6
DASHDOT
 10
-784.0681698075139
 20
0
 30
0
 40
159.9999999999999
 50
264.3254209703692
 51
275.6985165770206
  0
ARC
  8
1
 62
3
  6
DASHDOT
 10
-784.0681698075139
 20
0
 30
0
 40
159.9999999999999
 50
324.3254209703692
 51
335.6985165770206
  0
CIRCLE
  8
1
 62
3
 10
-645.504105202003
 20
79.99999999999977
 30
0
 40
10
  0
CIRCLE
  8
1
 62
3
 10
-645.5041052020039
 20
-80.0000000000004
 30
0
 40
9.999999999999886
  0
CIRCLE
  8
1
 62
3
 10
-784.0681698075139
 20
-160.0000000000002
 30
0
 40
10
  0
CIRCLE
  8
1
 62
3
 10
-922.632234413024
 20
-80.00000000000011
 30
0
 40
9.999999999999886
  0
CIRCLE
  8
1
 62
3
 10
-922.632234413024
 20
80
 30
0
 40
10
  0
CIRCLE
  8
1
 62
3
 10
-784.0681698075139
 20
160
 30
0
 40
10
  0
CIRCLE
  8
1
 62
7
 10
-784.0681698075139
 20
0
 30
0
 40
140
  0
CIRCLE
  8
1
 62
7
 10
-784.0681698075139
 20
0
 30
0
 40
184
  0
CIRCLE
  8
1
 62
7
 10
-784.0681698075139
 20
0
 30
0
 40
202
  0
CIRCLE
  8
1
 62
7
 10
-784.0681698075139
 20
160
 30
0
 40
8.5
  0
CIRCLE
  8
1
 62
7
 10
-922.632234413024
 20
80
 30
0
 40
8.5
  0
CIRCLE
  8
1
 62
7
 10
-922.632234413024
 20
-80.00000000000011
 30
0
 40
8.5
  0
CIRCLE
  8
1
 62
7
 10
-784.0681698075139
 20
-160.0000000000002
 30
0
 40
8.5
  0
CIRCLE
  8
1
 62
7
 10
-645.5041052020039
 20
-80.0000000000004
 30
0
 40
8.5
  0
CIRCLE
  8
1
 62
7
 10
-645.504105202003
 20
79.99999999999977
 30
0
 40
8.50000000000091
  0
TEXT
  8
1
 62
7
 10
-821.0181872745359
 20
254.7543373640729
 30
0
 40
15
  1
DC4411
 41
0.9
  7
SIMPLEX
  0
TEXT
  8
1
 62
7
 10
-821.0181872745359
 20
277.2543373640729
 30
0
 40
15
  1
UN 450
 41
0.9
  7
SIMPLEX
  0
ENDSEC
  0
EOF
